  0
SECTION
  2
HEADER
  9
$ACADVER
  1
AC1015
  9
$ACADMAINTVER
 70
    20
  9
$DWGCODEPAGE
  3
ANSI_1252
  9
$INSBASE
 10
0.0
 20
0.0
 30
0.0
  9
$EXTMIN
 10
148.125367333327
 20
-124.4362840204709
 30
-0.0015258207003583
  9
$EXTMAX
 10
162.2574469529295
 20
-111.4267686741491
 30
0.0000000349246037
  9
$LIMMIN
 10
0.0
 20
0.0
  9
$LIMMAX
 10
408.0
 20
264.0
  9
$ORTHOMODE
 70
     0
  9
$REGENMODE
 70
     1
  9
$FILLMODE
 70
     1
  9
$QTEXTMODE
 70
     0
  9
$MIRRTEXT
 70
     1
  9
$LTSCALE
 40
0.25
  9
$ATTMODE
 70
     1
  9
$TEXTSIZE
 40
0.1875
  9
$TRACEWID
 40
0.05
  9
$TEXTSTYLE
  7
STANDARD
  9
$CLAYER
  8
0
  9
$CELTYPE
  6
CONTINUOUS
  9
$CECOLOR
 62
   256
  9
$CELTSCALE
 40
1.0
  9
$DISPSILH
 70
     0
  9
$DIMSCALE
 40
1.0
  9
$DIMASZ
 40
0.125
  9
$DIMEXO
 40
0.0625
  9
$DIMDLI
 40
0.38
  9
$DIMRND
 40
0.0
  9
$DIMDLE
 40
0.0
  9
$DIMEXE
 40
0.09375
  9
$DIMTP
 40
0.0
  9
$DIMTM
 40
0.0
  9
$DIMTXT
 40
0.18
  9
$DIMCEN
 40
0.09
  9
$DIMTSZ
 40
0.0
  9
$DIMTOL
 70
     0
  9
$DIMLIM
 70
     0
  9
$DIMTIH
 70
     1
  9
$DIMTOH
 70
     1
  9
$DIMSE1
 70
     0
  9
$DIMSE2
 70
     0
  9
$DIMTAD
 70
     0
  9
$DIMZIN
 70
     0
  9
$DIMBLK
  1

  9
$DIMASO
 70
     1
  9
$DIMSHO
 70
     1
  9
$DIMPOST
  1

  9
$DIMAPOST
  1

  9
$DIMALT
 70
     1
  9
$DIMALTD
 70
     4
  9
$DIMALTF
 40
1.0
  9
$DIMLFAC
 40
1.0
  9
$DIMTOFL
 70
     0
  9
$DIMTVP
 40
0.0
  9
$DIMTIX
 70
     0
  9
$DIMSOXD
 70
     0
  9
$DIMSAH
 70
     0
  9
$DIMBLK1
  1

  9
$DIMBLK2
  1

  9
$DIMSTYLE
  2
STANDARD
  9
$DIMCLRD
 70
     0
  9
$DIMCLRE
 70
     0
  9
$DIMCLRT
 70
     0
  9
$DIMTFAC
 40
1.0
  9
$DIMGAP
 40
0.09
  9
$DIMJUST
 70
     0
  9
$DIMSD1
 70
     0
  9
$DIMSD2
 70
     0
  9
$DIMTOLJ
 70
     1
  9
$DIMTZIN
 70
     0
  9
$DIMALTZ
 70
     0
  9
$DIMALTTZ
 70
     0
  9
$DIMUPT
 70
     0
  9
$DIMDEC
 70
     4
  9
$DIMTDEC
 70
     4
  9
$DIMALTU
 70
     5
  9
$DIMALTTD
 70
     4
  9
$DIMTXSTY
  7
STANDARD
  9
$DIMAUNIT
 70
     0
  9
$DIMADEC
 70
     8
  9
$DIMALTRND
 40
0.0
  9
$DIMAZIN
 70
     0
  9
$DIMDSEP
 70
    46
  9
$DIMATFIT
 70
     3
  9
$DIMFRAC
 70
     0
  9
$DIMLDRBLK
  1

  9
$DIMLUNIT
 70
     2
  9
$DIMLWD
 70
    -2
  9
$DIMLWE
 70
    -2
  9
$DIMTMOVE
 70
     0
  9
$LUNITS
 70
     4
  9
$LUPREC
 70
     5
  9
$SKETCHINC
 40
0.1
  9
$FILLETRAD
 40
0.01
  9
$AUNITS
 70
     0
  9
$AUPREC
 70
     1
  9
$MENU
  1
acad
  9
$ELEVATION
 40
0.0
  9
$PELEVATION
 40
0.0
  9
$THICKNESS
 40
0.0
  9
$LIMCHECK
 70
     0
  9
$CHAMFERA
 40
0.0
  9
$CHAMFERB
 40
0.0
  9
$CHAMFERC
 40
1.0
  9
$CHAMFERD
 40
0.0
  9
$SKPOLY
 70
     0
  9
$TDCREATE
 40
2453453.437640602
  9
$TDUCREATE
 40
2453453.770973935
  9
$TDUPDATE
 40
2453808.507033599
  9
$TDUUPDATE
 40
2453808.840366933
  9
$TDINDWG
 40
4.9405626389
  9
$TDUSRTIMER
 40
4.9405626389
  9
$USRTIMER
 70
     1
  9
$ANGBASE
 50
0.0
  9
$ANGDIR
 70
     0
  9
$PDMODE
 70
     0
  9
$PDSIZE
 40
0.0
  9
$PLINEWID
 40
0.0
  9
$SPLFRAME
 70
     0
  9
$SPLINETYPE
 70
     6
  9
$SPLINESEGS
 70
     8
  9
$HANDSEED
  5
6C6
  9
$SURFTAB1
 70
     6
  9
$SURFTAB2
 70
     6
  9
$SURFTYPE
 70
     6
  9
$SURFU
 70
     6
  9
$SURFV
 70
     6
  9
$UCSBASE
  2

  9
$UCSNAME
  2

  9
$UCSORG
 10
0.0
 20
0.0
 30
0.0
  9
$UCSXDIR
 10
1.0
 20
0.0
 30
0.0
  9
$UCSYDIR
 10
0.0
 20
1.0
 30
0.0
  9
$UCSORTHOREF
  2

  9
$UCSORTHOVIEW
 70
     1
  9
$UCSORGTOP
 10
0.0
 20
0.0
 30
0.0
  9
$UCSORGBOTTOM
 10
0.0
 20
0.0
 30
0.0
  9
$UCSORGLEFT
 10
0.0
 20
0.0
 30
0.0
  9
$UCSORGRIGHT
 10
0.0
 20
0.0
 30
0.0
  9
$UCSORGFRONT
 10
0.0
 20
0.0
 30
0.0
  9
$UCSORGBACK
 10
0.0
 20
0.0
 30
0.0
  9
$PUCSBASE
  2

  9
$PUCSNAME
  2

  9
$PUCSORG
 10
0.0
 20
0.0
 30
0.0
  9
$PUCSXDIR
 10
1.0
 20
0.0
 30
0.0
  9
$PUCSYDIR
 10
0.0
 20
1.0
 30
0.0
  9
$PUCSORTHOREF
  2

  9
$PUCSORTHOVIEW
 70
     0
  9
$PUCSORGTOP
 10
0.0
 20
0.0
 30
0.0
  9
$PUCSORGBOTTOM
 10
0.0
 20
0.0
 30
0.0
  9
$PUCSORGLEFT
 10
0.0
 20
0.0
 30
0.0
  9
$PUCSORGRIGHT
 10
0.0
 20
0.0
 30
0.0
  9
$PUCSORGFRONT
 10
0.0
 20
0.0
 30
0.0
  9
$PUCSORGBACK
 10
0.0
 20
0.0
 30
0.0
  9
$USERI1
 70
     0
  9
$USERI2
 70
     0
  9
$USERI3
 70
     0
  9
$USERI4
 70
     0
  9
$USERI5
 70
     0
  9
$USERR1
 40
0.0
  9
$USERR2
 40
0.0
  9
$USERR3
 40
0.0
  9
$USERR4
 40
0.0
  9
$USERR5
 40
0.0
  9
$WORLDVIEW
 70
     1
  9
$SHADEDGE
 70
     3
  9
$SHADEDIF
 70
    70
  9
$TILEMODE
 70
     1
  9
$MAXACTVP
 70
    48
  9
$PINSBASE
 10
0.0
 20
0.0
 30
0.0
  9
$PLIMCHECK
 70
     0
  9
$PEXTMIN
 10
0.0
 20
0.0
 30
0.0
  9
$PEXTMAX
 10
11.0
 20
8.5
 30
0.0
  9
$PLIMMIN
 10
0.0
 20
0.0
  9
$PLIMMAX
 10
11.0
 20
8.5
  9
$UNITMODE
 70
     0
  9
$VISRETAIN
 70
     1
  9
$PLINEGEN
 70
     0
  9
$PSLTSCALE
 70
     1
  9
$TREEDEPTH
 70
  3020
  9
$CMLSTYLE
  2
STANDARD
  9
$CMLJUST
 70
     0
  9
$CMLSCALE
 40
1.0
  9
$PROXYGRAPHICS
 70
     1
  9
$MEASUREMENT
 70
     0
  9
$CELWEIGHT
370
    -1
  9
$ENDCAPS
280
     0
  9
$JOINSTYLE
280
     0
  9
$LWDISPLAY
290
     0
  9
$INSUNITS
 70
     0
  9
$HYPERLINKBASE
  1

  9
$STYLESHEET
  1
acad.ctb
  9
$XEDIT
290
     1
  9
$CEPSNTYPE
380
     0
  9
$PSTYLEMODE
290
     1
  9
$FINGERPRINTGUID
  2
{429355A8-7BC6-4FCE-9B99-57A0ED0E2088}
  9
$VERSIONGUID
  2
{2F511DDC-CCE6-4839-A522-C690328C37A5}
  9
$EXTNAMES
290
     1
  9
$PSVPSCALE
 40
0.0
  9
$OLESTARTUP
290
     0
  0
ENDSEC
  0
SECTION
  2
CLASSES
  0
CLASS
  1
DICTIONARYVAR
  2
AcDbDictionaryVar
  3
ObjectDBX Classes
 90
        0
280
     0
281
     0
  0
CLASS
  1
ACDBDICTIONARYWDFLT
  2
AcDbDictionaryWithDefault
  3
ObjectDBX Classes
 90
        0
280
     0
281
     0
  0
CLASS
  1
ACDBPLACEHOLDER
  2
AcDbPlaceHolder
  3
ObjectDBX Classes
 90
        0
280
     0
281
     0
  0
CLASS
  1
LAYOUT
  2
AcDbLayout
  3
ObjectDBX Classes
 90
        0
280
     0
281
     0
  0
ENDSEC
  0
SECTION
  2
TABLES
  0
TABLE
  2
VPORT
  5
24
330
0
100
AcDbSymbolTable
 70
     6
  0
VPORT
  5
6BE
330
24
100
AcDbSymbolTableRecord
100
AcDbViewportTableRecord
  2
*Active
 70
     0
 10
0.0
 20
0.0
 11
1.0
 21
1.0
 12
155.1914071431283
 22
-117.93152634731
 13
0.0
 23
0.0
 14
0.5
 24
0.5
 15
0.5
 25
0.5
 16
0.0
 26
0.0
 36
1.0
 17
0.0
 27
0.0
 37
0.0
 40
13.10232996234788
 41
1.45595238095238
 42
50.0
 43
0.0
 44
0.0
 50
0.0
 51
0.0
 71
     0
 72
   100
 73
     1
 74
     1
 75
     0
 76
     0
 77
     0
 78
     1
281
     0
 65
     1
110
0.0
120
0.0
130
0.0
111
1.0
121
0.0
131
0.0
112
0.0
122
1.0
132
0.0
 79
     0
146
0.0
  0
ENDTAB
  0
TABLE
  2
LTYPE
  5
1F
330
0
100
AcDbSymbolTable
 70
     5
  0
LTYPE
  5
20
330
1F
100
AcDbSymbolTableRecord
100
AcDbLinetypeTableRecord
  2
BYBLOCK
 70
     0
  3

 72
    65
 73
     0
 40
0.0
  0
LTYPE
  5
21
330
1F
100
AcDbSymbolTableRecord
100
AcDbLinetypeTableRecord
  2
BYLAYER
 70
     0
  3

 72
    65
 73
     0
 40
0.0
  0
LTYPE
  5
A
330
1F
100
AcDbSymbolTableRecord
100
AcDbLinetypeTableRecord
  2
CONTINUOUS
 70
     0
  3
Solid line
 72
    65
 73
     0
 40
0.0
  0
LTYPE
  5
63
330
1F
100
AcDbSymbolTableRecord
100
AcDbLinetypeTableRecord
  2
ACAD_ISO02W100
 70
     0
  3
ISO dash __ __ __ __ __ __ __ __ __ __ __ __ __
 72
    65
 73
     2
 40
15.0
 49
12.0
 74
     0
 49
-3.0
 74
     0
  0
LTYPE
  5
BB
330
1F
100
AcDbSymbolTableRecord
100
AcDbLinetypeTableRecord
  2
CENTER
 70
     0
  3
Center ____ _ ____ _ ____ _ ____ _ ____ _ ____
 72
    65
 73
     4
 40
2.0
 49
1.25
 74
     0
 49
-0.25
 74
     0
 49
0.25
 74
     0
 49
-0.25
 74
     0
  0
LTYPE
  5
66
330
1F
100
AcDbSymbolTableRecord
100
AcDbLinetypeTableRecord
  2
DASHED2
 70
     0
  3
Dashed (.5x) _ _ _ _ _ _ _ _ _ _ _ _ _ _ _ _ _
 72
    65
 73
     2
 40
0.375
 49
0.25
 74
     0
 49
-0.125
 74
     0
  0
LTYPE
  5
170
330
1F
100
AcDbSymbolTableRecord
100
AcDbLinetypeTableRecord
  2
HIDDEN
 70
     0
  3
Hidden __ __ __ __ __ __ __ __ __ __ __ __ __ _
 72
    65
 73
     2
 40
0.375
 49
0.25
 74
     0
 49
-0.125
 74
     0
  0
ENDTAB
  0
TABLE
  2
LAYER
  5
14
102
{ACAD_XDICTIONARY
360
15
102
}
330
0
100
AcDbSymbolTable
 70
     9
  0
LAYER
  5
6
330
14
100
AcDbSymbolTableRecord
100
AcDbLayerTableRecord
  2
0
 70
     0
 62
     7
  6
CONTINUOUS
370
    -3
390
7
  0
LAYER
  5
76
330
14
100
AcDbSymbolTableRecord
100
AcDbLayerTableRecord
  2
.050 Flashing
 70
     0
 62
   120
  6
CONTINUOUS
370
     5
390
7
  0
LAYER
  5
65
330
14
100
AcDbSymbolTableRecord
100
AcDbLayerTableRecord
  2
Curb
 70
     0
 62
    12
  6
ACAD_ISO02W100
370
     9
390
7
  0
LAYER
  5
7F
330
14
100
AcDbSymbolTableRecord
100
AcDbLayerTableRecord
  2
5
 70
     0
 62
     5
  6
CONTINUOUS
370
    -3
390
7
  0
LAYER
  5
16F
330
14
100
AcDbSymbolTableRecord
100
AcDbLayerTableRecord
  2
1
 70
     0
 62
     1
  6
HIDDEN
370
    -3
390
7
  0
LAYER
  5
BA
330
14
100
AcDbSymbolTableRecord
100
AcDbLayerTableRecord
  2
2
 70
     0
 62
     4
  6
CENTER
370
    -3
390
7
  0
LAYER
  5
62
330
14
100
AcDbSymbolTableRecord
100
AcDbLayerTableRecord
  2
HIDDEN
 70
     0
 62
     8
  6
ACAD_ISO02W100
370
    -3
390
7
  0
LAYER
  5
4E
330
14
100
AcDbSymbolTableRecord
100
AcDbLayerTableRecord
  2
Glazing
 70
     0
 62
     5
  6
CONTINUOUS
370
    -3
390
7
  0
LAYER
  5
5C7
330
14
100
AcDbSymbolTableRecord
100
AcDbLayerTableRecord
  2
Text
 70
     0
 62
     7
  6
CONTINUOUS
370
    -3
390
7
  0
ENDTAB
  0
TABLE
  2
STYLE
  5
1B
330
0
100
AcDbSymbolTable
 70
     2
  0
STYLE
  5
1C
330
1B
100
AcDbSymbolTableRecord
100
AcDbTextStyleTableRecord
  2
STANDARD
 70
     0
 40
0.1875
 41
1.0
 50
0.0
 71
     0
 42
0.1875
  3
ARIAL.TTF
  4

1001
ACAD
1000
Arial
1071
       34
  0
STYLE
  5
2A
330
1B
100
AcDbSymbolTableRecord
100
AcDbTextStyleTableRecord
  2
ARCHITXT
 70
     0
 40
3.0
 41
1.0
 50
0.0
 71
     0
 42
3.0
  3
architxt.shx
  4

  0
ENDTAB
  0
TABLE
  2
VIEW
  5
22
330
0
100
AcDbSymbolTable
 70
     0
  0
ENDTAB
  0
TABLE
  2
UCS
  5
23
330
0
100
AcDbSymbolTable
 70
     0
  0
ENDTAB
  0
TABLE
  2
APPID
  5
26
330
0
100
AcDbSymbolTable
 70
     1
  0
APPID
  5
1D
330
26
100
AcDbSymbolTableRecord
100
AcDbRegAppTableRecord
  2
ACAD
 70
     0
  0
ENDTAB
  0
TABLE
  2
DIMSTYLE
  5
27
330
0
100
AcDbSymbolTable
 70
     2
100
AcDbDimStyleTable
 71
     2
340
28
340
29
  0
DIMSTYLE
105
28
330
27
100
AcDbSymbolTableRecord
100
AcDbDimStyleTableRecord
  2
STANDARD
 70
     0
 41
0.125
 44
0.09375
143
1.0
170
     1
171
     4
179
     8
273
     5
274
     4
340
1C
  0
DIMSTYLE
105
29
330
27
100
AcDbSymbolTableRecord
100
AcDbDimStyleTableRecord
  2
ARCHITXT_WS
 70
     0
 40
24.0
 41
0.1875
 43
0.375
 44
0.1875
140
0.125
141
0.0625
147
0.0625
174
     1
271
     5
272
     5
276
     2
277
     4
340
2A
  0
ENDTAB
  0
TABLE
  2
BLOCK_RECORD
  5
1
330
0
100
AcDbSymbolTable
 70
    12
  0
BLOCK_RECORD
  5
2
102
{ACAD_XDICTIONARY
360
3
102
}
330
1
100
AcDbSymbolTableRecord
100
AcDbBlockTableRecord
  2
*MODEL_SPACE
340
C
  0
BLOCK_RECORD
  5
E
102
{ACAD_XDICTIONARY
360
F
102
}
330
1
100
AcDbSymbolTableRecord
100
AcDbBlockTableRecord
  2
*PAPER_SPACE
340
13
  0
BLOCK_RECORD
  5
1B5
330
1
100
AcDbSymbolTableRecord
100
AcDbBlockTableRecord
  2
epdm
340
0
310
2800000020000000200000000100080000000000000400000000000000000000000000000000000000000000000080000080000000808000800000008000800080800000C0C0C000C0DCC000F0CAA6000020400000206000002080000020A0000020C0000020E00000400000004020000040400000406000004080000040A0
310
000040C0000040E00000600000006020000060400000606000006080000060A0000060C0000060E00000800000008020000080400000806000008080000080A0000080C0000080E00000A0000000A0200000A0400000A0600000A0800000A0A00000A0C00000A0E00000C0000000C0200000C0400000C0600000C0800000C0
310
A00000C0C00000C0E00000E0000000E0200000E0400000E0600000E0800000E0A00000E0C00000E0E00040000000400020004000400040006000400080004000A0004000C0004000E00040200000402020004020400040206000402080004020A0004020C0004020E000404000004040200040404000404060004040800040
310
40A0004040C0004040E00040600000406020004060400040606000406080004060A0004060C0004060E00040800000408020004080400040806000408080004080A0004080C0004080E00040A0000040A0200040A0400040A0600040A0800040A0A00040A0C00040A0E00040C0000040C0200040C0400040C0600040C08000
310
40C0A00040C0C00040C0E00040E0000040E0200040E0400040E0600040E0800040E0A00040E0C00040E0E00080000000800020008000400080006000800080008000A0008000C0008000E00080200000802020008020400080206000802080008020A0008020C0008020E00080400000804020008040400080406000804080
310
008040A0008040C0008040E00080600000806020008060400080606000806080008060A0008060C0008060E00080800000808020008080400080806000808080008080A0008080C0008080E00080A0000080A0200080A0400080A0600080A0800080A0A00080A0C00080A0E00080C0000080C0200080C0400080C0600080C0
310
800080C0A00080C0C00080C0E00080E0000080E0200080E0400080E0600080E0800080E0A00080E0C00080E0E000C0000000C0002000C0004000C0006000C0008000C000A000C000C000C000E000C0200000C0202000C0204000C0206000C0208000C020A000C020C000C020E000C0400000C0402000C0404000C0406000C0
310
408000C040A000C040C000C040E000C0600000C0602000C0604000C0606000C0608000C060A000C060C000C060E000C0800000C0802000C0804000C0806000C0808000C080A000C080C000C080E000C0A00000C0A02000C0A04000C0A06000C0A08000C0A0A000C0A0C000C0A0E000C0C00000C0C02000C0C04000C0C06000
310
C0C08000C0C0A000F0FBFF00A4A0A000808080000000FF0000FF000000FFFF00FF000000FF00FF00FFFF0000FFFFFF0000000000000000000000000000000000000000000000000000000000000000000000000000000000000000000000000000000000000000000000000000000000000000000000000000000000000000
310
00000000000000000000000000000000000000000000000000000000000000000000000000000000000000000000000000000000000000000000000000000000000000000000000000000000000000000000000000000000000000000000000000000000000000000000000000000000000000000000000000000000000000
310
00000000000000000000000000000000000000000000000000000000000000000000000000000000000000000000000000000000000000000000000000000000000000000000000000000000000000000000000000000000000000000000FFFCFCFCFCFCFFFF0000000000000000000000000000000000000000000000FFFF
310
FFFFFFFFFF00FFFF00000000000000000000000000000000000000000000FFFFFCFCFFFFFFFFFFFF00000000000000000000000000000000000000000000FCFC00FC00FFFF00FCFF000000000000000000000000000000000000000000000000FC00FFFF00FF00000000000000000000000000000000000000000000000000
310
00FCFFFF00FFFF00000000000000000000000000000000000000000000000000FCFFFF00FFFFFFFC00000000000000000000000000FFFFFFFFFFFFFFFCFCFCFCFCFF00FFFFFF00FCFCFCFCFCFCFCFCFCFCFCFC0000FFFFFFFFFFFFFFFFFFFFFFFF00FFFFFF00FFFFFFFFFFFFFFFFFFFFFFFFFF0000FFFFFFFFFFFFFFFFFFFF
310
FF00FFFFFF00FFFFFFFFFFFFFFFFFFFFFFFFFFFF0000FFFFFFFFFFFFFFFFFFFF00FFFFFFFFFFFFFFFFFFFFFFFFFFFFFFFFFFFFFF0000FFFF00FFFFFFFF00FF00FFFFFFFF00FF00FFFFFFFF00FF00FFFFFFFFFFFF0000FC00FFFCFFFC00FC00FFFCFFFC00FCFCFFFCFFFC00FFFCFFFCFFFCFFFFFC000000FCFCFFFC00FC00FC
310
FCFFFC00FC00FFFCFFFC00FCFCFFFCFFFC00FCFC0000000000000000000000000000000000000000000000000000000000000000000000000000000000000000000000000000000000000000000000000000000000000000000000000000000000000000000000000000000000000000000000000000000000000000000000
310
00000000000000000000000000000000000000000000000000000000000000000000000000000000000000000000000000000000000000000000000000000000000000000000000000000000000000000000000000000000000000000000000000000000000000000000000000000000000000000000000000000000000000
310
0000000000000000000000000000000000000000000000000000000000000000000000000000000000000000000000000000000000000000
102
{BLKREFS
331
223
331
1B4
331
225
331
222
102
}
  0
BLOCK_RECORD
  5
80
330
1
100
AcDbSymbolTableRecord
100
AcDbBlockTableRecord
  2
10-2
340
0
  0
BLOCK_RECORD
  5
479
330
1
100
AcDbSymbolTableRecord
100
AcDbBlockTableRecord
  2
snap cap
340
0
310
2800000020000000200000000100080000000000000400000000000000000000000000000000000000000000000080000080000000808000800000008000800080800000C0C0C000C0DCC000F0CAA6000020400000206000002080000020A0000020C0000020E00000400000004020000040400000406000004080000040A0
310
000040C0000040E00000600000006020000060400000606000006080000060A0000060C0000060E00000800000008020000080400000806000008080000080A0000080C0000080E00000A0000000A0200000A0400000A0600000A0800000A0A00000A0C00000A0E00000C0000000C0200000C0400000C0600000C0800000C0
310
A00000C0C00000C0E00000E0000000E0200000E0400000E0600000E0800000E0A00000E0C00000E0E00040000000400020004000400040006000400080004000A0004000C0004000E00040200000402020004020400040206000402080004020A0004020C0004020E000404000004040200040404000404060004040800040
310
40A0004040C0004040E00040600000406020004060400040606000406080004060A0004060C0004060E00040800000408020004080400040806000408080004080A0004080C0004080E00040A0000040A0200040A0400040A0600040A0800040A0A00040A0C00040A0E00040C0000040C0200040C0400040C0600040C08000
310
40C0A00040C0C00040C0E00040E0000040E0200040E0400040E0600040E0800040E0A00040E0C00040E0E00080000000800020008000400080006000800080008000A0008000C0008000E00080200000802020008020400080206000802080008020A0008020C0008020E00080400000804020008040400080406000804080
310
008040A0008040C0008040E00080600000806020008060400080606000806080008060A0008060C0008060E00080800000808020008080400080806000808080008080A0008080C0008080E00080A0000080A0200080A0400080A0600080A0800080A0A00080A0C00080A0E00080C0000080C0200080C0400080C0600080C0
310
800080C0A00080C0C00080C0E00080E0000080E0200080E0400080E0600080E0800080E0A00080E0C00080E0E000C0000000C0002000C0004000C0006000C0008000C000A000C000C000C000E000C0200000C0202000C0204000C0206000C0208000C020A000C020C000C020E000C0400000C0402000C0404000C0406000C0
310
408000C040A000C040C000C040E000C0600000C0602000C0604000C0606000C0608000C060A000C060C000C060E000C0800000C0802000C0804000C0806000C0808000C080A000C080C000C080E000C0A00000C0A02000C0A04000C0A06000C0A08000C0A0A000C0A0C000C0A0E000C0C00000C0C02000C0C04000C0C06000
310
C0C08000C0C0A000F0FBFF00A4A0A000808080000000FF0000FF000000FFFF00FF000000FF00FF00FFFF0000FFFFFF0000000000000000000000000000000000000000000000000000000000000000000000000000000000000000000000000000000000000000000000000000000000000000000000000000000000000000
310
00000000000000000000000000000000000000000000000000000000000000000000000000000000000000000000000000000000000000000000000000000000000000000000000000000000000000000000000000000000000000000000000000000000000000000000000000000000000000000000000000000000000000
310
00000000000000000000000000000000000000000000000000000000000000000000000000000000000000000000000000000000000000000000000000000000000000000000000000000000000000000000000000000000000000000000000000000000000000000000000000000000000000000000000000000000000000
310
00000000000000000000000000000000000000000000000000000000000000000000000000000000000000000000000000000000FFFF0000000000000000000000000000000000000000000000000000FFFF0000FFFF0000000000000000000000000000000000000000000000000000FFFF0000FFFF000000000000000000
310
0000000000000000000000000000000000FFFF0000FFFF0000000000000000000000000000000000000000000000000000FFFF0000FFFF0000000000000000000000000000000000000000000000000000FFFF0000FFFF0000000000000000000000000000000000000000000000000000FFFF0000FFFFFFFFFFFFFFFFFFFF
310
FFFFFFFFFFFFFFFFFFFFFFFFFFFFFFFFFFFFFFFF000000FFFFFFFFFFFFFFFFFFFFFFFFFFFFFFFFFFFFFFFFFFFFFFFFFFFFFFFF00000000000000000000000000000000000000000000000000000000000000000000000000000000000000000000000000000000000000000000000000000000000000000000000000000000
310
00000000000000000000000000000000000000000000000000000000000000000000000000000000000000000000000000000000000000000000000000000000000000000000000000000000000000000000000000000000000000000000000000000000000000000000000000000000000000000000000000000000000000
310
00000000000000000000000000000000000000000000000000000000000000000000000000000000000000000000000000000000000000000000000000000000000000000000000000000000000000000000000000000000000000000000000000000000000000000000000000000000000000000000000000000000000000
310
0000000000000000000000000000000000000000000000000000000000000000000000000000000000000000000000000000000000000000
102
{BLKREFS
331
478
102
}
  0
BLOCK_RECORD
  5
449
330
1
100
AcDbSymbolTableRecord
100
AcDbBlockTableRecord
  2
pressure cap
340
0
310
2800000020000000200000000100080000000000000400000000000000000000000000000000000000000000000080000080000000808000800000008000800080800000C0C0C000C0DCC000F0CAA6000020400000206000002080000020A0000020C0000020E00000400000004020000040400000406000004080000040A0
310
000040C0000040E00000600000006020000060400000606000006080000060A0000060C0000060E00000800000008020000080400000806000008080000080A0000080C0000080E00000A0000000A0200000A0400000A0600000A0800000A0A00000A0C00000A0E00000C0000000C0200000C0400000C0600000C0800000C0
310
A00000C0C00000C0E00000E0000000E0200000E0400000E0600000E0800000E0A00000E0C00000E0E00040000000400020004000400040006000400080004000A0004000C0004000E00040200000402020004020400040206000402080004020A0004020C0004020E000404000004040200040404000404060004040800040
310
40A0004040C0004040E00040600000406020004060400040606000406080004060A0004060C0004060E00040800000408020004080400040806000408080004080A0004080C0004080E00040A0000040A0200040A0400040A0600040A0800040A0A00040A0C00040A0E00040C0000040C0200040C0400040C0600040C08000
310
40C0A00040C0C00040C0E00040E0000040E0200040E0400040E0600040E0800040E0A00040E0C00040E0E00080000000800020008000400080006000800080008000A0008000C0008000E00080200000802020008020400080206000802080008020A0008020C0008020E00080400000804020008040400080406000804080
310
008040A0008040C0008040E00080600000806020008060400080606000806080008060A0008060C0008060E00080800000808020008080400080806000808080008080A0008080C0008080E00080A0000080A0200080A0400080A0600080A0800080A0A00080A0C00080A0E00080C0000080C0200080C0400080C0600080C0
310
800080C0A00080C0C00080C0E00080E0000080E0200080E0400080E0600080E0800080E0A00080E0C00080E0E000C0000000C0002000C0004000C0006000C0008000C000A000C000C000C000E000C0200000C0202000C0204000C0206000C0208000C020A000C020C000C020E000C0400000C0402000C0404000C0406000C0
310
408000C040A000C040C000C040E000C0600000C0602000C0604000C0606000C0608000C060A000C060C000C060E000C0800000C0802000C0804000C0806000C0808000C080A000C080C000C080E000C0A00000C0A02000C0A04000C0A06000C0A08000C0A0A000C0A0C000C0A0E000C0C00000C0C02000C0C04000C0C06000
310
C0C08000C0C0A000F0FBFF00A4A0A000808080000000FF0000FF000000FFFF00FF000000FF00FF00FFFF0000FFFFFF0000000000000000000000000000000000000000000000000000000000000000000000000000000000000000000000000000000000000000000000000000000000000000000000000000000000000000
310
00000000000000000000000000000000000000000000000000000000000000000000000000000000000000000000000000000000000000000000000000000000000000000000000000000000000000000000000000000000000000000000000000000000000000000000000000000000000000000000000000000000000000
310
00000000000000000000000000000000000000000000000000000000000000000000000000000000000000000000000000000000000000000000000000000000000000000000000000000000000000000000000000000000000000000000000000000000000000000000000000000000000000000000000000000000000000
310
00000000000000000000000000000000000000000000000000000000000000000000000000000000000000000000000000000000000000000000000000000000000000000000000000000000000000000000000000FFFFFF00FFFFFFFFFFFFFFFFFFFFFFFFFFFFFFFFFFFFFFFF00FFFFFF00000000FF00FF0000FFFFFFFFFF
310
FFFFFFFFFFFFFFFFFFFFFFFFFF0000FF00FF000000FF0000FFFFFFFFFF0000000000000000000000000000FFFFFFFFFF0000FF0000FF00FF000000000000000000000000000000000000000000000000FF00FF000000FFFF000000000000000000000000000000000000000000000000FFFF00000000FFFF00000000000000
310
0000000000000000000000000000000000FFFF000000000000000000000000000000000000000000000000000000000000000000000000000000000000000000000000000000000000000000000000000000000000000000000000000000000000000000000000000000000000000000000000000000000000000000000000
310
00000000000000000000000000000000000000000000000000000000000000000000000000000000000000000000000000000000000000000000000000000000000000000000000000000000000000000000000000000000000000000000000000000000000000000000000000000000000000000000000000000000000000
310
00000000000000000000000000000000000000000000000000000000000000000000000000000000000000000000000000000000000000000000000000000000000000000000000000000000000000000000000000000000000000000000000000000000000000000000000000000000000000000000000000000000000000
310
0000000000000000000000000000000000000000000000000000000000000000000000000000000000000000000000000000000000000000
102
{BLKREFS
331
448
102
}
  0
BLOCK_RECORD
  5
227
330
1
100
AcDbSymbolTableRecord
100
AcDbBlockTableRecord
  2
purlin screw race
340
0
310
2800000020000000200000000100080000000000000400000000000000000000000000000000000000000000000080000080000000808000800000008000800080800000C0C0C000C0DCC000F0CAA6000020400000206000002080000020A0000020C0000020E00000400000004020000040400000406000004080000040A0
310
000040C0000040E00000600000006020000060400000606000006080000060A0000060C0000060E00000800000008020000080400000806000008080000080A0000080C0000080E00000A0000000A0200000A0400000A0600000A0800000A0A00000A0C00000A0E00000C0000000C0200000C0400000C0600000C0800000C0
310
A00000C0C00000C0E00000E0000000E0200000E0400000E0600000E0800000E0A00000E0C00000E0E00040000000400020004000400040006000400080004000A0004000C0004000E00040200000402020004020400040206000402080004020A0004020C0004020E000404000004040200040404000404060004040800040
310
40A0004040C0004040E00040600000406020004060400040606000406080004060A0004060C0004060E00040800000408020004080400040806000408080004080A0004080C0004080E00040A0000040A0200040A0400040A0600040A0800040A0A00040A0C00040A0E00040C0000040C0200040C0400040C0600040C08000
310
40C0A00040C0C00040C0E00040E0000040E0200040E0400040E0600040E0800040E0A00040E0C00040E0E00080000000800020008000400080006000800080008000A0008000C0008000E00080200000802020008020400080206000802080008020A0008020C0008020E00080400000804020008040400080406000804080
310
008040A0008040C0008040E00080600000806020008060400080606000806080008060A0008060C0008060E00080800000808020008080400080806000808080008080A0008080C0008080E00080A0000080A0200080A0400080A0600080A0800080A0A00080A0C00080A0E00080C0000080C0200080C0400080C0600080C0
310
800080C0A00080C0C00080C0E00080E0000080E0200080E0400080E0600080E0800080E0A00080E0C00080E0E000C0000000C0002000C0004000C0006000C0008000C000A000C000C000C000E000C0200000C0202000C0204000C0206000C0208000C020A000C020C000C020E000C0400000C0402000C0404000C0406000C0
310
408000C040A000C040C000C040E000C0600000C0602000C0604000C0606000C0608000C060A000C060C000C060E000C0800000C0802000C0804000C0806000C0808000C080A000C080C000C080E000C0A00000C0A02000C0A04000C0A06000C0A08000C0A0A000C0A0C000C0A0E000C0C00000C0C02000C0C04000C0C06000
310
C0C08000C0C0A000F0FBFF00A4A0A000808080000000FF0000FF000000FFFF00FF000000FF00FF00FFFF0000FFFFFF000000000000000000000000000000000000000000000000000000000000000000000000000000000000000000000000000000000000000000000000000000000000FFFF000000000000000000000000
310
0000000000000000000000000000FFFF0000FFFF0000000000000000000000000000000000000000000000000000FFFF0000FF00FF000000000000000000000000000000000000000000000000FF00FF0000FF00FF000000000000000000000000000000000000000000000000FF00FF0000FFFF0000000000000000000000
310
000000000000000000000000000000FFFF0000FF00FF000000000000000000000000000000000000000000000000FF00FF0000FFFFFF000000000000000000000000000000000000000000000000FFFFFF0000FF00FF000000000000000000000000000000000000000000000000FF00FF0000FF00FF000000000000000000
310
000000000000000000000000000000FF00FF0000FF00FF000000000000000000000000000000000000000000000000FF00FF0000FF00FF000000000000000000000000000000000000000000000000FF00FF0000FF00FF000000000000000000000000000000000000000000000000FF00FF0000FF00FF0000000000000000
310
FFFFFFFFFFFFFFFF0000000000000000FF00FF0000FF00FF0000000000000000FF00FFFFFFFF00FF0000000000000000FF00FF0000FF00FF0000000000000000FF00FF0000FF00FF0000000000000000FF00FF0000FF00FF0000000000000000FF00FF0000FF00FF0000000000000000FF00FF0000FF00FF00000000000000
310
00FF00FF0000FF00FF0000000000000000FF00FF0000FF00FF0000000000000000FF00FF0000FF00FF0000000000000000FF00FF0000FF00FF0000000000000000FF00FF0000FF00FF0000000000000000FF00FF0000FF00FF0000000000000000FF00FF0000FF00FF0000000000000000FF00FF0000FF00FF000000000000
310
0000FF00FF0000FF00FF0000000000000000FF00FF0000FF00FF0000000000000000FF00FF0000FF00FF0000000000000000FF00FF0000FF00FF0000000000000000FF00FF0000FF00FF0000000000000000FF00FF0000FF00FFFFFFFFFFFFFFFFFFFF00FF0000FF00FFFFFFFFFFFFFFFFFFFF00FF0000FF00000000000000
310
0000000000FF0000FF000000000000000000000000FF0000FF0000FFFFFF00FFFFFFFFFFFFFF0000FFFFFFFFFFFFFF00FFFFFF0000FF0000FF0000FF00FF00FF0000000000000000000000000000FF00FF00FF0000FF0000FFFFFFFF00FFFFFF0000000000000000000000000000FFFFFF00FFFFFFFF000000000000000000
310
0000000000000000000000000000000000000000000000000000000000000000000000000000000000000000000000000000000000000000
102
{BLKREFS
331
226
102
}
  0
BLOCK_RECORD
  5
41D
330
1
100
AcDbSymbolTableRecord
100
AcDbBlockTableRecord
  2
snap bottom
340
0
310
2800000020000000200000000100080000000000000400000000000000000000000000000000000000000000000080000080000000808000800000008000800080800000C0C0C000C0DCC000F0CAA6000020400000206000002080000020A0000020C0000020E00000400000004020000040400000406000004080000040A0
310
000040C0000040E00000600000006020000060400000606000006080000060A0000060C0000060E00000800000008020000080400000806000008080000080A0000080C0000080E00000A0000000A0200000A0400000A0600000A0800000A0A00000A0C00000A0E00000C0000000C0200000C0400000C0600000C0800000C0
310
A00000C0C00000C0E00000E0000000E0200000E0400000E0600000E0800000E0A00000E0C00000E0E00040000000400020004000400040006000400080004000A0004000C0004000E00040200000402020004020400040206000402080004020A0004020C0004020E000404000004040200040404000404060004040800040
310
40A0004040C0004040E00040600000406020004060400040606000406080004060A0004060C0004060E00040800000408020004080400040806000408080004080A0004080C0004080E00040A0000040A0200040A0400040A0600040A0800040A0A00040A0C00040A0E00040C0000040C0200040C0400040C0600040C08000
310
40C0A00040C0C00040C0E00040E0000040E0200040E0400040E0600040E0800040E0A00040E0C00040E0E00080000000800020008000400080006000800080008000A0008000C0008000E00080200000802020008020400080206000802080008020A0008020C0008020E00080400000804020008040400080406000804080
310
008040A0008040C0008040E00080600000806020008060400080606000806080008060A0008060C0008060E00080800000808020008080400080806000808080008080A0008080C0008080E00080A0000080A0200080A0400080A0600080A0800080A0A00080A0C00080A0E00080C0000080C0200080C0400080C0600080C0
310
800080C0A00080C0C00080C0E00080E0000080E0200080E0400080E0600080E0800080E0A00080E0C00080E0E000C0000000C0002000C0004000C0006000C0008000C000A000C000C000C000E000C0200000C0202000C0204000C0206000C0208000C020A000C020C000C020E000C0400000C0402000C0404000C0406000C0
310
408000C040A000C040C000C040E000C0600000C0602000C0604000C0606000C0608000C060A000C060C000C060E000C0800000C0802000C0804000C0806000C0808000C080A000C080C000C080E000C0A00000C0A02000C0A04000C0A06000C0A08000C0A0A000C0A0C000C0A0E000C0C00000C0C02000C0C04000C0C06000
310
C0C08000C0C0A000F0FBFF00A4A0A000808080000000FF0000FF000000FFFF00FF000000FF00FF00FFFF0000FFFFFF0000000000000000000000000000000000000000000000000000000000000000000000000000000000000000000000000000000000000000000000000000000000000000000000000000000000000000
310
00000000000000000000000000000000000000000000000000000000000000000000000000000000000000000000000000000000000000000000000000000000000000000000000000000000000000000000000000000000000000000000000000000000000000000000000000000000000000000000000000000000000000
310
00000000000000000000000000000000000000000000000000000000000000000000000000000000000000000000000000000000000000000000000000000000000000000000000000000000000000000000000000000000000000000000000000000000000000000000000000000000000000000000000000000000000000
310
0000000000000000000000000000000000000000FFFFFFFFFFFFFFFFFFFFFFFFFFFFFFFFFFFFFFFFFFFFFFFFFFFFFFFFFFFF0000FF00000000000000000000000000000000000000000000000000000000FF0000FFFFFFFFFFFFFFFFFFFFFFFFFFFFFFFFFFFFFFFFFFFFFFFFFFFFFFFFFFFF0000FFFF000000FF0000000000
310
00000000000000000000000000FF000000FFFF0000FFFF0000FFFF000000000000000000000000000000000000FFFF0000FFFF000000FF000000FF000000000000000000000000000000000000FF000000FF0000000000000000FF000000000000000000000000000000000000FF000000000000000000000000FF00000000
310
0000000000000000000000000000FF000000000000000000000000FF000000000000000000000000000000000000FF000000000000000000000000FF000000000000000000000000000000000000FF000000000000000000000000000000000000000000000000000000000000000000000000000000000000000000000000
310
00000000000000000000000000000000000000000000000000000000000000000000000000000000000000000000000000000000000000000000000000000000000000000000000000000000000000000000000000000000000000000000000000000000000000000000000000000000000000000000000000000000000000
310
00000000000000000000000000000000000000000000000000000000000000000000000000000000000000000000000000000000000000000000000000000000000000000000000000000000000000000000000000000000000000000000000000000000000000000000000000000000000000000000000000000000000000
310
0000000000000000000000000000000000000000000000000000000000000000000000000000000000000000000000000000000000000000
102
{BLKREFS
331
41C
102
}
  0
BLOCK_RECORD
  5
2ED
330
1
100
AcDbSymbolTableRecord
100
AcDbBlockTableRecord
  2
PURLIN CLIP
340
0
310
2800000020000000200000000100080000000000000400000000000000000000000000000000000000000000000080000080000000808000800000008000800080800000C0C0C000C0DCC000F0CAA6000020400000206000002080000020A0000020C0000020E00000400000004020000040400000406000004080000040A0
310
000040C0000040E00000600000006020000060400000606000006080000060A0000060C0000060E00000800000008020000080400000806000008080000080A0000080C0000080E00000A0000000A0200000A0400000A0600000A0800000A0A00000A0C00000A0E00000C0000000C0200000C0400000C0600000C0800000C0
310
A00000C0C00000C0E00000E0000000E0200000E0400000E0600000E0800000E0A00000E0C00000E0E00040000000400020004000400040006000400080004000A0004000C0004000E00040200000402020004020400040206000402080004020A0004020C0004020E000404000004040200040404000404060004040800040
310
40A0004040C0004040E00040600000406020004060400040606000406080004060A0004060C0004060E00040800000408020004080400040806000408080004080A0004080C0004080E00040A0000040A0200040A0400040A0600040A0800040A0A00040A0C00040A0E00040C0000040C0200040C0400040C0600040C08000
310
40C0A00040C0C00040C0E00040E0000040E0200040E0400040E0600040E0800040E0A00040E0C00040E0E00080000000800020008000400080006000800080008000A0008000C0008000E00080200000802020008020400080206000802080008020A0008020C0008020E00080400000804020008040400080406000804080
310
008040A0008040C0008040E00080600000806020008060400080606000806080008060A0008060C0008060E00080800000808020008080400080806000808080008080A0008080C0008080E00080A0000080A0200080A0400080A0600080A0800080A0A00080A0C00080A0E00080C0000080C0200080C0400080C0600080C0
310
800080C0A00080C0C00080C0E00080E0000080E0200080E0400080E0600080E0800080E0A00080E0C00080E0E000C0000000C0002000C0004000C0006000C0008000C000A000C000C000C000E000C0200000C0202000C0204000C0206000C0208000C020A000C020C000C020E000C0400000C0402000C0404000C0406000C0
310
408000C040A000C040C000C040E000C0600000C0602000C0604000C0606000C0608000C060A000C060C000C060E000C0800000C0802000C0804000C0806000C0808000C080A000C080C000C080E000C0A00000C0A02000C0A04000C0A06000C0A08000C0A0A000C0A0C000C0A0E000C0C00000C0C02000C0C04000C0C06000
310
C0C08000C0C0A000F0FBFF00A4A0A000808080000000FF0000FF000000FFFF00FF000000FF00FF00FFFF0000FFFFFF0000000000000000000000000000000000000000000000000000000000000000000000000000000000000000000000000000000000000000000000000000000000000000000000000000000000000000
310
00000000000000000000000000000000000000000000000000000000000000000000000000000000000000000000000000000000000000000000000000000000000000000000000000000000000000000000000000000000000000000000000000000000000000000000000000000000000000000000000000000000000000
310
0000000000000000000000000000000000000000000000000000000000000000000000000000000000000000000000000000000000000000000000000000000000000000000000000000000000000000000000000000000000000000000000000000000000000000000000000000000000000000000000FFFFFFFFFFFFFFFF
310
FFFFFFFFFFFFFFFFFFFFFFFFFFFF00000000000000000000FFFF000000000000000000000000000000000000FFFF00000000000000000000FFFF000000000000000000000000000000000000FFFF00000000000000000000FFFF000000000000000000000000000000000000FFFF0000000000000000FF00FFFF0000FCFFFF
310
0000000000000000FCFCFC0000FFFF00FF00000000FFFFFFFFFFFFFFFFFFFEFFFC000000000000FCFFFFFFFCFFFFFFFFFFFFFF0000FF00FF00FFFFFFFFFEFEFEFF000000000000FFFFFFFFFFFFFFFF00FF00FF0000FF00FFFFFFFFFFFFFFFEFFFC000000000000FCFFFFFFFCFFFFFFFFFF00FF000000FFFF00FFFF0000FCFC
310
FC0000000000000000FCFCFC0000FFFF00FFFF00000000000000FFFF000000000000000000000000000000000000FFFF00000000000000000000FFFF000000000000000000000000000000000000FFFF00000000000000000000FFFFFFFFFFFFFFFFFFFFFFFFFFFFFFFFFFFFFFFFFFFF000000000000000000000000000000
310
00000000000000000000000000000000000000000000000000000000000000000000000000000000000000000000000000000000000000000000000000000000000000000000000000000000000000000000000000000000000000000000000000000000000000000000000000000000000000000000000000000000000000
310
00000000000000000000000000000000000000000000000000000000000000000000000000000000000000000000000000000000000000000000000000000000000000000000000000000000000000000000000000000000000000000000000000000000000000000000000000000000000000000000000000000000000000
310
0000000000000000000000000000000000000000000000000000000000000000000000000000000000000000000000000000000000000000
102
{BLKREFS
331
2EC
102
}
  0
BLOCK_RECORD
  5
564
330
1
100
AcDbSymbolTableRecord
100
AcDbBlockTableRecord
  2
*X7
340
0
102
{BLKREFS
331
563
102
}
  0
BLOCK_RECORD
  5
560
330
1
100
AcDbSymbolTableRecord
100
AcDbBlockTableRecord
  2
work point
340
0
310
2800000020000000200000000100080000000000000400000000000000000000000000000000000000000000000080000080000000808000800000008000800080800000C0C0C000C0DCC000F0CAA6000020400000206000002080000020A0000020C0000020E00000400000004020000040400000406000004080000040A0
310
000040C0000040E00000600000006020000060400000606000006080000060A0000060C0000060E00000800000008020000080400000806000008080000080A0000080C0000080E00000A0000000A0200000A0400000A0600000A0800000A0A00000A0C00000A0E00000C0000000C0200000C0400000C0600000C0800000C0
310
A00000C0C00000C0E00000E0000000E0200000E0400000E0600000E0800000E0A00000E0C00000E0E00040000000400020004000400040006000400080004000A0004000C0004000E00040200000402020004020400040206000402080004020A0004020C0004020E000404000004040200040404000404060004040800040
310
40A0004040C0004040E00040600000406020004060400040606000406080004060A0004060C0004060E00040800000408020004080400040806000408080004080A0004080C0004080E00040A0000040A0200040A0400040A0600040A0800040A0A00040A0C00040A0E00040C0000040C0200040C0400040C0600040C08000
310
40C0A00040C0C00040C0E00040E0000040E0200040E0400040E0600040E0800040E0A00040E0C00040E0E00080000000800020008000400080006000800080008000A0008000C0008000E00080200000802020008020400080206000802080008020A0008020C0008020E00080400000804020008040400080406000804080
310
008040A0008040C0008040E00080600000806020008060400080606000806080008060A0008060C0008060E00080800000808020008080400080806000808080008080A0008080C0008080E00080A0000080A0200080A0400080A0600080A0800080A0A00080A0C00080A0E00080C0000080C0200080C0400080C0600080C0
310
800080C0A00080C0C00080C0E00080E0000080E0200080E0400080E0600080E0800080E0A00080E0C00080E0E000C0000000C0002000C0004000C0006000C0008000C000A000C000C000C000E000C0200000C0202000C0204000C0206000C0208000C020A000C020C000C020E000C0400000C0402000C0404000C0406000C0
310
408000C040A000C040C000C040E000C0600000C0602000C0604000C0606000C0608000C060A000C060C000C060E000C0800000C0802000C0804000C0806000C0808000C080A000C080C000C080E000C0A00000C0A02000C0A04000C0A06000C0A08000C0A0A000C0A0C000C0A0E000C0C00000C0C02000C0C04000C0C06000
310
C0C08000C0C0A000F0FBFF00A4A0A000808080000000FF0000FF000000FFFF00FF000000FF00FF00FFFF0000FFFFFF000000000000000000000000000000000000000000000000000000000000000000000000000000000000000000000000FF00000000000000000000000000000000000000000000000000000000000000
310
FF00000000000000000000000000000000000000000000000000000000000000FF00000000000000000000000000000000000000000000000000000000000000FF00000000000000000000000000000000000000000000000000000000000000FF000000000000000000000000000000000000000000000000000000000000
310
00FF00000000000000000000000000000000000000000000000000000000000000FF00000000000000000000000000000000000000000000000000000000000000FF00000000000000000000000000000000000000000000000000000000000000FF0000000000000000000000000000000000000000000000000000000000
310
00FFFFFFFFFF00000000000000000000000000000000000000000000000000FFFF00FFFFFFFFFF0000000000000000000000000000000000000000000000FF000000FFFFFFFFFFFF000000000000000000000000000000000000000000FF00000000FFFFFFFFFFFFFF0000000000000000000000000000000000000000FF00
310
000000FFFFFFFFFFFFFF0000000000000000000000000000000000000000FF00000000FFFFFFFFFFFFFF0000000000000000000000FFFFFFFFFFFFFFFFFFFFFFFFFFFFFFFFFFFFFFFFFFFFFFFFFFFFFFFFFFFF0000000000000000000000FFFFFFFFFFFFFF00000000FF0000000000000000000000000000000000000000FF
310
FFFFFFFFFFFF00000000FF000000000000000000000000000000000000000000FFFFFFFFFFFF000000FF0000000000000000000000000000000000000000000000FFFFFFFFFF0000FF00000000000000000000000000000000000000000000000000FFFFFFFFFFFF0000000000000000000000000000000000000000000000
310
0000000000FF00000000000000000000000000000000000000000000000000000000000000FF00000000000000000000000000000000000000000000000000000000000000FF00000000000000000000000000000000000000000000000000000000000000FF00000000000000000000000000000000000000000000000000
310
000000000000FF00000000000000000000000000000000000000000000000000000000000000FF00000000000000000000000000000000000000000000000000000000000000FF00000000000000000000000000000000000000000000000000000000000000FF000000000000000000000000000000000000000000000000
310
00000000000000FF000000000000000000000000000000000000000000000000000000000000000000000000000000000000000000000000
102
{BLKREFS
331
55F
102
}
  0
BLOCK_RECORD
  5
491
330
1
100
AcDbSymbolTableRecord
100
AcDbBlockTableRecord
  2
SCREWWW
340
0
310
2800000020000000200000000100080000000000000400000000000000000000000000000000000000000000000080000080000000808000800000008000800080800000C0C0C000C0DCC000F0CAA6000020400000206000002080000020A0000020C0000020E00000400000004020000040400000406000004080000040A0
310
000040C0000040E00000600000006020000060400000606000006080000060A0000060C0000060E00000800000008020000080400000806000008080000080A0000080C0000080E00000A0000000A0200000A0400000A0600000A0800000A0A00000A0C00000A0E00000C0000000C0200000C0400000C0600000C0800000C0
310
A00000C0C00000C0E00000E0000000E0200000E0400000E0600000E0800000E0A00000E0C00000E0E00040000000400020004000400040006000400080004000A0004000C0004000E00040200000402020004020400040206000402080004020A0004020C0004020E000404000004040200040404000404060004040800040
310
40A0004040C0004040E00040600000406020004060400040606000406080004060A0004060C0004060E00040800000408020004080400040806000408080004080A0004080C0004080E00040A0000040A0200040A0400040A0600040A0800040A0A00040A0C00040A0E00040C0000040C0200040C0400040C0600040C08000
310
40C0A00040C0C00040C0E00040E0000040E0200040E0400040E0600040E0800040E0A00040E0C00040E0E00080000000800020008000400080006000800080008000A0008000C0008000E00080200000802020008020400080206000802080008020A0008020C0008020E00080400000804020008040400080406000804080
310
008040A0008040C0008040E00080600000806020008060400080606000806080008060A0008060C0008060E00080800000808020008080400080806000808080008080A0008080C0008080E00080A0000080A0200080A0400080A0600080A0800080A0A00080A0C00080A0E00080C0000080C0200080C0400080C0600080C0
310
800080C0A00080C0C00080C0E00080E0000080E0200080E0400080E0600080E0800080E0A00080E0C00080E0E000C0000000C0002000C0004000C0006000C0008000C000A000C000C000C000E000C0200000C0202000C0204000C0206000C0208000C020A000C020C000C020E000C0400000C0402000C0404000C0406000C0
310
408000C040A000C040C000C040E000C0600000C0602000C0604000C0606000C0608000C060A000C060C000C060E000C0800000C0802000C0804000C0806000C0808000C080A000C080C000C080E000C0A00000C0A02000C0A04000C0A06000C0A08000C0A0A000C0A0C000C0A0E000C0C00000C0C02000C0C04000C0C06000
310
C0C08000C0C0A000F0FBFF00A4A0A000808080000000FF0000FF000000FFFF00FF000000FF00FF00FFFF0000FFFFFF00000000000000000000000000000000000000000000000000000000000000000000000000000000000000000000000000FFFF00000000000000000000000000000000000000000000000000000000FF
310
FFFFFF00000000000000000000000000000000000000000000000000000000FFFFFFFF00000000000000000000000000000000000000000000000000000000FFFFFFFF00000000000000000000000000000000000000000000000000000000FFFFFFFF00000000000000000000000000000000000000000000000000000000
310
FFFFFFFF00000000000000000000000000000000000000000000000000000000FFFFFFFF00000000000000000000000000000000000000000000000000000000FFFFFFFF00000000000000000000000000000000000000000000000000000000FFFFFFFF000000000000000000000000000000000000000000000000000000
310
00FFFFFFFF00000000000000000000000000000000000000000000000000000000FF0000FF00000000000000000000000000000000000000000000000000000000FF0000FF00000000000000000000000000000000000000000000000000000000FF0000FF0000000000000000000000000000000000000000000000000000
310
0000FF0000FF00000000000000000000000000000000000000000000000000000000FF0000FF00000000000000000000000000000000000000000000000000000000FF0000FF00000000000000000000000000000000000000000000000000000000FF0000FF00000000000000000000000000000000000000000000000000
310
000000FF0000FF00000000000000000000000000000000000000000000000000000000FF0000FF00000000000000000000000000000000000000000000000000000000FF0000FF00000000000000000000000000000000000000000000000000000000FF0000FF000000000000000000000000000000000000000000000000
310
00000000FF0000FF00000000000000000000000000000000000000000000000000000000FF0000FF00000000000000000000000000000000000000000000000000000000FF0000FF00000000000000000000000000000000000000000000000000000000FF0000FF0000000000000000000000000000000000000000000000
310
0000000000FF0000FF00000000000000000000000000000000000000000000000000000000FF0000FF000000000000000000000000000000000000000000000000000000FFFFFFFFFFFF0000000000000000000000000000000000000000000000000000FFFFFFFFFFFF000000000000000000000000000000000000000000
310
000000000000FFFFFFFF00000000000000000000000000000000000000000000000000000000000000000000000000000000000000000000
102
{BLKREFS
331
490
102
}
  0
BLOCK_RECORD
  5
666
330
1
100
AcDbSymbolTableRecord
100
AcDbBlockTableRecord
  2
ANCHOR
340
0
310
2800000020000000200000000100080000000000000400000000000000000000000000000000000000000000000080000080000000808000800000008000800080800000C0C0C000C0DCC000F0CAA6000020400000206000002080000020A0000020C0000020E00000400000004020000040400000406000004080000040A0
310
000040C0000040E00000600000006020000060400000606000006080000060A0000060C0000060E00000800000008020000080400000806000008080000080A0000080C0000080E00000A0000000A0200000A0400000A0600000A0800000A0A00000A0C00000A0E00000C0000000C0200000C0400000C0600000C0800000C0
310
A00000C0C00000C0E00000E0000000E0200000E0400000E0600000E0800000E0A00000E0C00000E0E00040000000400020004000400040006000400080004000A0004000C0004000E00040200000402020004020400040206000402080004020A0004020C0004020E000404000004040200040404000404060004040800040
310
40A0004040C0004040E00040600000406020004060400040606000406080004060A0004060C0004060E00040800000408020004080400040806000408080004080A0004080C0004080E00040A0000040A0200040A0400040A0600040A0800040A0A00040A0C00040A0E00040C0000040C0200040C0400040C0600040C08000
310
40C0A00040C0C00040C0E00040E0000040E0200040E0400040E0600040E0800040E0A00040E0C00040E0E00080000000800020008000400080006000800080008000A0008000C0008000E00080200000802020008020400080206000802080008020A0008020C0008020E00080400000804020008040400080406000804080
310
008040A0008040C0008040E00080600000806020008060400080606000806080008060A0008060C0008060E00080800000808020008080400080806000808080008080A0008080C0008080E00080A0000080A0200080A0400080A0600080A0800080A0A00080A0C00080A0E00080C0000080C0200080C0400080C0600080C0
310
800080C0A00080C0C00080C0E00080E0000080E0200080E0400080E0600080E0800080E0A00080E0C00080E0E000C0000000C0002000C0004000C0006000C0008000C000A000C000C000C000E000C0200000C0202000C0204000C0206000C0208000C020A000C020C000C020E000C0400000C0402000C0404000C0406000C0
310
408000C040A000C040C000C040E000C0600000C0602000C0604000C0606000C0608000C060A000C060C000C060E000C0800000C0802000C0804000C0806000C0808000C080A000C080C000C080E000C0A00000C0A02000C0A04000C0A06000C0A08000C0A0A000C0A0C000C0A0E000C0C00000C0C02000C0C04000C0C06000
310
C0C08000C0C0A000F0FBFF00A4A0A000808080000000FF0000FF000000FFFF00FF000000FF00FF00FFFF0000FFFFFF0000000000000000000000000000000000000000000000000000000000000000000000000000000000000000000000000000000000000000000000000000000000000000000000000000000000000000
310
00000000000000000000000000000000000000000000000000000000000000000000000000000000000000000000000000000000000000000000000000000000000000000000000000000000000000000000000000000000000000000000000000000000000000000000000000000000000000000000000000000000000000
310
00000000000000000000000000000000000000000000000000000000000000000000000000000000000000000000000000000000000000000000000000000000000000000000000000000000000000000000000000000000000000000000000000000000000000000000000000000000000000000000000000000000000000
310
000000000000000000000000000000000000000000000000000000000000000000000000000000000000000000000000000000000000000000000000000000000000000000000000000000000000FFFFFFFF00000000000000000000000000000000000000000000000000000000FF0000FF00000000FFFFFFFFFFFFFFFFFF
310
FFFFFFFFFFFFFFFFFFFFFFFFFFFFFFFF0000FF0000FFFFFFFFFF00FFFFFFFFFFFFFFFFFFFFFFFF0000000000000000FFFFFFFF000000FFFFFFFFFFFFFFFFFFFFFFFFFFFFFFFFFF0000000000000000FF0000FF000000FF00FFFFFFFFFFFFFFFFFFFFFFFFFFFFFFFFFFFFFFFFFFFFFFFF0000FF000000000000000000000000
310
00000000000000000000000000000000FF0000FF00000000000000000000000000000000000000000000000000000000FFFFFFFF000000000000000000000000000000000000000000000000000000000000000000000000000000000000000000000000000000000000000000000000000000000000000000000000000000
310
00000000000000000000000000000000000000000000000000000000000000000000000000000000000000000000000000000000000000000000000000000000000000000000000000000000000000000000000000000000000000000000000000000000000000000000000000000000000000000000000000000000000000
310
00000000000000000000000000000000000000000000000000000000000000000000000000000000000000000000000000000000000000000000000000000000000000000000000000000000000000000000000000000000000000000000000000000000000000000000000000000000000000000000000000000000000000
310
0000000000000000000000000000000000000000000000000000000000000000000000000000000000000000000000000000000000000000
102
{BLKREFS
331
6B5
102
}
  0
ENDTAB
  0
ENDSEC
  0
SECTION
  2
BLOCKS
  0
BLOCK
  5
5
330
2
100
AcDbEntity
  8
0
100
AcDbBlockBegin
  2
*MODEL_SPACE
 70
     0
 10
0.0
 20
0.0
 30
0.0
  3
*MODEL_SPACE
  1

  0
ENDBLK
  5
B
330
2
100
AcDbEntity
  8
0
100
AcDbBlockEnd
  0
BLOCK
  5
11
330
E
100
AcDbEntity
 67
     1
  8
0
100
AcDbBlockBegin
  2
*PAPER_SPACE
 70
     0
 10
0.0
 20
0.0
 30
0.0
  3
*PAPER_SPACE
  1

  0
ENDBLK
  5
12
330
E
100
AcDbEntity
 67
     1
  8
0
100
AcDbBlockEnd
  0
BLOCK
  5
1B6
330
1B5
100
AcDbEntity
  8
0
100
AcDbBlockBegin
  2
epdm
 70
     0
 10
0.0
 20
0.0
 30
0.0
  3
epdm
  1

  0
LINE
  5
1B7
330
1B5
100
AcDbEntity
  8
5
100
AcDbLine
 10
-3.7342876288553
 20
5.081818992145358
 30
0.0
 11
-3.79070225244123
 21
5.062661067774548
 31
0.0
  0
LINE
  5
1B8
330
1B5
100
AcDbEntity
  8
5
100
AcDbLine
 10
-3.904010361953952
 20
5.081818992145358
 30
0.0
 11
-3.847595738368022
 21
5.06266106777455
 31
0.0
  0
LINE
  5
1B9
330
1B5
100
AcDbEntity
  8
0
 62
     0
100
AcDbLine
 10
-3.831085386472681
 20
5.062661067774548
 30
0.0
 11
-3.879509494485192
 21
5.111085175787058
 31
0.0
  0
LINE
  5
1BA
330
1B5
100
AcDbEntity
  8
0
 62
     0
100
AcDbLine
 10
-3.84936330732429
 20
5.063261319096492
 30
0.0
 11
-3.904010361953945
 21
5.11790837372615
 31
0.0
  0
LINE
  5
1BB
330
1B5
100
AcDbEntity
  8
0
 62
     0
100
AcDbLine
 10
-3.781259168532224
 20
5.065867858423082
 30
0.0
 11
-3.859784160816312
 21
5.14439285070717
 31
0.0
  0
LINE
  5
1BC
330
1B5
100
AcDbEntity
  8
0
 62
     0
100
AcDbLine
 10
-3.795730047413352
 20
5.062661067774548
 30
0.0
 11
-3.84983420580229
 21
5.116765226163481
 31
0.0
  0
LINE
  5
1BD
330
1B5
100
AcDbEntity
  8
0
 62
     0
100
AcDbLine
 10
-3.81340771694302
 20
5.062661067774548
 30
0.0
 11
-3.851618669269948
 21
5.100872020101476
 31
0.0
  0
LINE
  5
1BE
330
1B5
100
AcDbEntity
  8
5
100
AcDbLine
 10
-3.79070225244123
 20
5.062661067774548
 30
0.0
 11
-3.847595738368022
 21
5.06266106777455
 31
0.0
  0
LINE
  5
1BF
330
1B5
100
AcDbEntity
  8
5
100
AcDbLine
 10
-3.79532826093464
 20
5.097704922538818
 30
0.0
 11
-3.7342876288553
 21
5.120056985403987
 31
0.0
  0
LINE
  5
1C0
330
1B5
100
AcDbEntity
  8
5
100
AcDbLine
 10
-3.764063546942781
 20
5.188416018424497
 30
0.0
 11
-3.79532826093464
 21
5.097704922538818
 31
0.0
  0
LINE
  5
1C1
330
1B5
100
AcDbEntity
  8
0
 62
     0
100
AcDbLine
 10
-3.768062854535196
 20
5.070349213955719
 30
0.0
 11
-3.869734115830341
 21
5.172020475250858
 31
0.0
  0
LINE
  5
1C2
330
1B5
100
AcDbEntity
  8
5
100
AcDbLine
 10
-3.778175527431054
 20
5.288786934748507
 30
0.0
 11
-3.799020256880035
 21
5.308469012926966
 31
0.0
  0
LINE
  5
1C3
330
1B5
100
AcDbEntity
  8
0
 62
     0
100
AcDbLine
 10
-3.691675294177679
 20
5.188416018424497
 30
0.0
 11
-3.805556559643813
 21
5.302297283890631
 31
0.0
  0
LINE
  5
1C4
330
1B5
100
AcDbEntity
  8
0
 62
     0
100
AcDbLine
 10
-3.768164674788282
 20
5.176517051386785
 30
0.0
 11
-3.891522287447552
 21
5.299874664046056
 31
0.0
  0
LINE
  5
1C5
330
1B5
100
AcDbEntity
  8
0
 62
     0
100
AcDbLine
 10
-3.76238597229633
 20
5.188416018424497
 30
0.0
 11
-3.882429880218696
 21
5.308459926346861
 31
0.0
  0
LINE
  5
1C6
330
1B5
100
AcDbEntity
  8
0
 62
     0
100
AcDbLine
 10
-3.744708302766669
 20
5.188416018424497
 30
0.0
 11
-3.853085627160114
 21
5.296793342817942
 31
0.0
  0
LINE
  5
1C7
330
1B5
100
AcDbEntity
  8
0
 62
     0
100
AcDbLine
 10
-3.727030633237001
 20
5.188416018424497
 30
0.0
 11
-3.843993219931251
 21
5.305378605118747
 31
0.0
  0
LINE
  5
1C8
330
1B5
100
AcDbEntity
  8
0
 62
     0
100
AcDbLine
 10
-3.70935296370734
 20
5.188416018424497
 30
0.0
 11
-3.814648966872669
 21
5.293712021589826
 31
0.0
  0
LINE
  5
1C9
330
1B5
100
AcDbEntity
  8
0
 62
     0
100
AcDbLine
 10
-3.77722691889131
 20
5.150223956430487
 30
0.0
 11
-3.929958947734997
 21
5.30295598527417
 31
0.0
  0
LINE
  5
1CA
330
1B5
100
AcDbEntity
  8
0
 62
     0
100
AcDbLine
 10
-3.7726957968398
 20
5.163370503908636
 30
0.0
 11
-3.900614694676415
 21
5.291289401745251
 31
0.0
  0
LINE
  5
1CB
330
1B5
100
AcDbEntity
  8
0
 62
     0
100
AcDbLine
 10
-3.781758040942827
 20
5.13707740895234
 30
0.0
 11
-3.939051354963853
 21
5.294370722973365
 31
0.0
  0
LINE
  5
1CC
330
1B5
100
AcDbEntity
  8
5
100
AcDbLine
 10
-4.069949034206496
 20
5.188416018424497
 30
0.0
 11
-4.069949034206496
 21
5.288896419438431
 31
0.0
  0
LINE
  5
1CD
330
1B5
100
AcDbEntity
  8
0
 62
     0
100
AcDbLine
 10
-3.886129659003978
 20
5.188416018424495
 30
0.0
 11
-3.986580422480153
 21
5.288866781900674
 31
0.0
  0
LINE
  5
1CE
330
1B5
100
AcDbEntity
  8
0
 62
     0
100
AcDbLine
 10
-3.903807328533639
 20
5.188416018424495
 30
0.0
 11
-4.015924675538736
 21
5.300533365429593
 31
0.0
  0
LINE
  5
1CF
330
1B5
100
AcDbEntity
  8
0
 62
     0
100
AcDbLine
 10
-3.9214849980633
 20
5.188416018424495
 30
0.0
 11
-4.025017082767599
 21
5.291948103128788
 31
0.0
  0
LINE
  5
1D0
330
1B5
100
AcDbEntity
  8
0
 62
     0
100
AcDbLine
 10
-3.939162667592968
 20
5.188416018424495
 30
0.0
 11
-4.054361335826181
 21
5.303614686657709
 31
0.0
  0
LINE
  5
1D1
330
1B5
100
AcDbEntity
  8
0
 62
     0
100
AcDbLine
 10
-3.956840337122629
 20
5.188416018424495
 30
0.0
 11
-4.063453743055037
 21
5.295029424356904
 31
0.0
  0
LINE
  5
1D2
330
1B5
100
AcDbEntity
  8
0
 62
     0
100
AcDbLine
 10
-3.786289162994345
 20
5.123930861474189
 30
0.0
 11
-3.968395608022435
 21
5.306037306502284
 31
0.0
  0
LINE
  5
1D3
330
1B5
100
AcDbEntity
  8
0
 62
     0
100
AcDbLine
 10
-3.790820285045855
 20
5.110784313996042
 30
0.0
 11
-3.977488015251298
 21
5.297452044201479
 31
0.0
  0
LINE
  5
1D4
330
1B5
100
AcDbEntity
  8
5
100
AcDbLine
 10
-4.069949034206496
 20
5.188416018424497
 30
0.0
 11
-3.875638891202912
 21
5.188416018424497
 31
0.0
  0
LINE
  5
1D5
330
1B5
100
AcDbEntity
  8
0
 62
     0
100
AcDbLine
 10
-4.045228684770949
 20
5.188416018424497
 30
0.0
 11
-4.069949034206496
 21
5.213136367860041
 31
0.0
  0
LINE
  5
1D6
330
1B5
100
AcDbEntity
  8
0
 62
     0
100
AcDbLine
 10
-4.062906354300617
 20
5.188416018424497
 30
0.0
 11
-4.069949034206496
 21
5.195458698330378
 31
0.0
  0
LINE
  5
1D7
330
1B5
100
AcDbEntity
  8
0
 62
     0
100
AcDbLine
 10
-3.992195676181959
 20
5.188416018424495
 30
0.0
 11
-4.069949034206496
 21
5.266169376449033
 31
0.0
  0
LINE
  5
1D8
330
1B5
100
AcDbEntity
  8
0
 62
     0
100
AcDbLine
 10
-4.00987334571162
 20
5.188416018424495
 30
0.0
 11
-4.069949034206496
 21
5.24849170691937
 31
0.0
  0
LINE
  5
1D9
330
1B5
100
AcDbEntity
  8
0
 62
     0
100
AcDbLine
 10
-4.027551015241288
 20
5.188416018424495
 30
0.0
 11
-4.069949034206496
 21
5.230814037389706
 31
0.0
  0
LINE
  5
1DA
330
1B5
100
AcDbEntity
  8
0
 62
     0
100
AcDbLine
 10
-3.974518006652298
 20
5.188416018424495
 30
0.0
 11
-4.069949034206496
 21
5.283847045978697
 31
0.0
  0
LINE
  5
1DB
330
1B5
100
AcDbEntity
  8
5
100
AcDbLine
 10
-3.904010361953945
 20
5.120056985403987
 30
0.0
 11
-3.904010361953952
 21
5.081818992145358
 31
0.0
  0
LINE
  5
1DC
330
1B5
100
AcDbEntity
  8
0
 62
     0
100
AcDbLine
 10
-3.876131085828612
 20
5.072351428071149
 30
0.0
 11
-3.904010361953945
 21
5.100230704196487
 31
0.0
  0
LINE
  5
1DD
330
1B5
100
AcDbEntity
  8
0
 62
     0
100
AcDbLine
 10
-3.902898864332934
 20
5.081441537045806
 30
0.0
 11
-3.904010361953952
 21
5.082553034666823
 31
0.0
  0
LINE
  5
1DE
330
1B5
100
AcDbEntity
  8
5
100
AcDbLine
 10
-3.842969729874612
 20
5.097704922538818
 30
0.0
 11
-3.904010361953945
 21
5.120056985403987
 31
0.0
  0
LINE
  5
1DF
330
1B5
100
AcDbEntity
  8
5
100
AcDbLine
 10
-3.875638891202912
 20
5.188416018424497
 30
0.0
 11
-3.842969729874612
 21
5.097704922538818
 31
0.0
  0
LINE
  5
1E0
330
1B5
100
AcDbEntity
  8
5
100
AcDbLine
 10
-3.944975527431056
 20
5.288786934748507
 30
0.0
 11
-3.96582025688003
 21
5.308469012926966
 31
0.0
  0
LINE
  5
1E1
330
1B5
100
AcDbEntity
  8
5
100
AcDbLine
 10
-4.049220256880028
 20
5.308469012926966
 30
0.0
 11
-4.070064986329009
 21
5.288786934748507
 31
0.0
  0
LINE
  5
1E2
330
1B5
100
AcDbEntity
  8
5
100
AcDbLine
 10
-4.028375527431053
 20
5.288786934748507
 30
0.0
 11
-4.049220256880028
 21
5.308469012926966
 31
0.0
  0
LINE
  5
1E3
330
1B5
100
AcDbEntity
  8
5
100
AcDbLine
 10
-4.007520256880036
 20
5.308469012926966
 30
0.0
 11
-4.028364986329004
 21
5.288786934748507
 31
0.0
  0
LINE
  5
1E4
330
1B5
100
AcDbEntity
  8
5
100
AcDbLine
 10
-3.986675527431055
 20
5.288786934748507
 30
0.0
 11
-4.007520256880036
 21
5.308469012926966
 31
0.0
  0
LINE
  5
1E5
330
1B5
100
AcDbEntity
  8
5
100
AcDbLine
 10
-3.96582025688003
 20
5.308469012926966
 30
0.0
 11
-3.986664986329012
 21
5.288786934748507
 31
0.0
  0
LINE
  5
1E6
330
1B5
100
AcDbEntity
  8
5
100
AcDbLine
 10
-3.924120256880032
 20
5.308469012926966
 30
0.0
 11
-3.944964986329006
 21
5.288786934748507
 31
0.0
  0
LINE
  5
1E7
330
1B5
100
AcDbEntity
  8
5
100
AcDbLine
 10
-3.903275527431057
 20
5.288786934748507
 30
0.0
 11
-3.924120256880032
 21
5.308469012926966
 31
0.0
  0
LINE
  5
1E8
330
1B5
100
AcDbEntity
  8
5
100
AcDbLine
 10
-3.882420256880033
 20
5.308469012926966
 30
0.0
 11
-3.903264986329007
 21
5.288786934748507
 31
0.0
  0
LINE
  5
1E9
330
1B5
100
AcDbEntity
  8
5
100
AcDbLine
 10
-3.861575527431051
 20
5.288786934748507
 30
0.0
 11
-3.882420256880033
 21
5.308469012926966
 31
0.0
  0
LINE
  5
1EA
330
1B5
100
AcDbEntity
  8
5
100
AcDbLine
 10
-3.840720256880027
 20
5.308469012926966
 30
0.0
 11
-3.861564986329009
 21
5.288786934748507
 31
0.0
  0
LINE
  5
1EB
330
1B5
100
AcDbEntity
  8
5
100
AcDbLine
 10
-3.81987552743106
 20
5.288786934748507
 30
0.0
 11
-3.840720256880027
 21
5.308469012926966
 31
0.0
  0
LINE
  5
1EC
330
1B5
100
AcDbEntity
  8
5
100
AcDbLine
 10
-3.799020256880035
 20
5.308469012926966
 30
0.0
 11
-3.81986498632901
 21
5.288786934748507
 31
0.0
  0
LINE
  5
1ED
330
1B5
100
AcDbEntity
  8
5
100
AcDbLine
 10
-3.569675527431053
 20
5.188416018424497
 30
0.0
 11
-3.569675527431053
 21
5.288786934748507
 31
0.0
  0
LINE
  5
1EE
330
1B5
100
AcDbEntity
  8
0
 62
     0
100
AcDbLine
 10
-3.569675527431053
 20
5.225515277444847
 30
0.0
 11
-3.642717511265184
 21
5.298557261278979
 31
0.0
  0
LINE
  5
1EF
330
1B5
100
AcDbEntity
  8
0
 62
     0
100
AcDbLine
 10
-3.569675527431053
 20
5.243192946974511
 30
0.0
 11
-3.633625104036328
 21
5.307142523579784
 31
0.0
  0
LINE
  5
1F0
330
1B5
100
AcDbEntity
  8
0
 62
     0
100
AcDbLine
 10
-3.569675527431053
 20
5.260870616504174
 30
0.0
 11
-3.604280850977739
 21
5.295475940050863
 31
0.0
  0
LINE
  5
1F1
330
1B5
100
AcDbEntity
  8
0
 62
     0
100
AcDbLine
 10
-3.569675527431053
 20
5.278548286033839
 30
0.0
 11
-3.595188443748883
 21
5.304061202351668
 31
0.0
  0
LINE
  5
1F2
330
1B5
100
AcDbEntity
  8
0
 62
     0
100
AcDbLine
 10
-3.673997624648011
 20
5.188416018424497
 30
0.0
 11
-3.776212306585231
 21
5.290630700361711
 31
0.0
  0
LINE
  5
1F3
330
1B5
100
AcDbEntity
  8
0
 62
     0
100
AcDbLine
 10
-3.65631995511835
 20
5.188416018424497
 30
0.0
 11
-3.767119899356368
 21
5.299215962662518
 31
0.0
  0
LINE
  5
1F4
330
1B5
100
AcDbEntity
  8
0
 62
     0
100
AcDbLine
 10
-3.638642285588682
 20
5.188416018424497
 30
0.0
 11
-3.758027492127512
 21
5.307801224963323
 31
0.0
  0
LINE
  5
1F5
330
1B5
100
AcDbEntity
  8
0
 62
     0
100
AcDbLine
 10
-3.620964616059021
 20
5.188416018424497
 30
0.0
 11
-3.72868323906893
 21
5.296134641434402
 31
0.0
  0
LINE
  5
1F6
330
1B5
100
AcDbEntity
  8
0
 62
     0
100
AcDbLine
 10
-3.60328694652936
 20
5.188416018424497
 30
0.0
 11
-3.719590831840067
 21
5.304719903735207
 31
0.0
  0
LINE
  5
1F7
330
1B5
100
AcDbEntity
  8
0
 62
     0
100
AcDbLine
 10
-3.585609276999692
 20
5.188416018424497
 30
0.0
 11
-3.690246578781485
 21
5.293053320206288
 31
0.0
  0
LINE
  5
1F8
330
1B5
100
AcDbEntity
  8
0
 62
     0
100
AcDbLine
 10
-3.569675527431053
 20
5.190159938385519
 30
0.0
 11
-3.681154171552629
 21
5.301638582507093
 31
0.0
  0
LINE
  5
1F9
330
1B5
100
AcDbEntity
  8
0
 62
     0
100
AcDbLine
 10
-3.569675527431053
 20
5.207837607915184
 30
0.0
 11
-3.651809918494047
 21
5.289971998978174
 31
0.0
  0
LINE
  5
1FA
330
1B5
100
AcDbEntity
  8
5
100
AcDbLine
 10
-3.569675527431053
 20
5.188416018424497
 30
0.0
 11
-3.764063546942781
 21
5.188416018424497
 31
0.0
  0
LINE
  5
1FB
330
1B5
100
AcDbEntity
  8
5
100
AcDbLine
 10
-3.7342876288553
 20
5.120056985403987
 30
0.0
 11
-3.7342876288553
 21
5.081818992145358
 31
0.0
  0
LINE
  5
1FC
330
1B5
100
AcDbEntity
  8
0
 62
     0
100
AcDbLine
 10
-3.7342876288553
 20
5.107284666394475
 30
0.0
 11
-3.74363653436769
 21
5.116633571906861
 31
0.0
  0
LINE
  5
1FD
330
1B5
100
AcDbEntity
  8
0
 62
     0
100
AcDbLine
 10
-3.7342876288553
 20
5.089606996864812
 30
0.0
 11
-3.756575990545451
 21
5.111895358554965
 31
0.0
  0
LINE
  5
1FE
330
1B5
100
AcDbEntity
  8
0
 62
     0
100
AcDbLine
 10
-3.741670226541147
 20
5.079311925020995
 30
0.0
 11
-3.76951544672322
 21
5.107157145203068
 31
0.0
  0
LINE
  5
1FF
330
1B5
100
AcDbEntity
  8
0
 62
     0
100
AcDbLine
 10
-3.754866540538175
 20
5.074830569488357
 30
0.0
 11
-3.782454902900989
 21
5.102418931851172
 31
0.0
  0
LINE
  5
200
330
1B5
100
AcDbEntity
  8
5
100
AcDbLine
 10
-3.611375527431059
 20
5.288786934748507
 30
0.0
 11
-3.632220256880033
 21
5.308469012926966
 31
0.0
  0
LINE
  5
201
330
1B5
100
AcDbEntity
  8
5
100
AcDbLine
 10
-3.75732025688003
 20
5.308469012926966
 30
0.0
 11
-3.778164986329011
 21
5.288786934748507
 31
0.0
  0
LINE
  5
202
330
1B5
100
AcDbEntity
  8
5
100
AcDbLine
 10
-3.736475527431055
 20
5.288786934748507
 30
0.0
 11
-3.75732025688003
 21
5.308469012926966
 31
0.0
  0
LINE
  5
203
330
1B5
100
AcDbEntity
  8
5
100
AcDbLine
 10
-3.715620256880031
 20
5.308469012926966
 30
0.0
 11
-3.736464986329005
 21
5.288786934748507
 31
0.0
  0
LINE
  5
204
330
1B5
100
AcDbEntity
  8
5
100
AcDbLine
 10
-3.694775527431056
 20
5.288786934748507
 30
0.0
 11
-3.715620256880031
 21
5.308469012926966
 31
0.0
  0
LINE
  5
205
330
1B5
100
AcDbEntity
  8
5
100
AcDbLine
 10
-3.673920256880032
 20
5.308469012926966
 30
0.0
 11
-3.694764986329007
 21
5.288786934748507
 31
0.0
  0
LINE
  5
206
330
1B5
100
AcDbEntity
  8
5
100
AcDbLine
 10
-3.653075527431051
 20
5.288786934748507
 30
0.0
 11
-3.673920256880032
 21
5.308469012926966
 31
0.0
  0
LINE
  5
207
330
1B5
100
AcDbEntity
  8
5
100
AcDbLine
 10
-3.632220256880033
 20
5.308469012926966
 30
0.0
 11
-3.653064986329008
 21
5.288786934748507
 31
0.0
  0
LINE
  5
208
330
1B5
100
AcDbEntity
  8
5
100
AcDbLine
 10
-3.590520256880035
 20
5.308469012926966
 30
0.0
 11
-3.611364986329009
 21
5.288786934748507
 31
0.0
  0
LINE
  5
209
330
1B5
100
AcDbEntity
  8
5
100
AcDbLine
 10
-3.569675527431053
 20
5.288786934748507
 30
0.0
 11
-3.590520256880035
 21
5.308469012926966
 31
0.0
  0
LINE
  5
20A
330
1B5
100
AcDbEntity
  8
5
100
AcDbLine
 10
-3.590520256880035
 20
5.308469012926966
 30
0.0
 11
-3.611364986329009
 21
5.288786934748507
 31
0.0
  0
LINE
  5
20B
330
1B5
100
AcDbEntity
  8
5
100
AcDbLine
 10
-3.569675527431053
 20
5.288786934748507
 30
0.0
 11
-3.590520256880035
 21
5.308469012926966
 31
0.0
  0
LINE
  5
20C
330
1B5
100
AcDbEntity
  8
5
100
AcDbLine
 10
-3.590520256880035
 20
5.308469012926966
 30
0.0
 11
-3.611364986329009
 21
5.288786934748507
 31
0.0
  0
LINE
  5
20D
330
1B5
100
AcDbEntity
  8
5
100
AcDbLine
 10
-3.569675527431053
 20
5.288786934748507
 30
0.0
 11
-3.590520256880035
 21
5.308469012926966
 31
0.0
  0
LINE
  5
20E
330
1B5
100
AcDbEntity
  8
5
100
AcDbLine
 10
-3.590520256880035
 20
5.308469012926966
 30
0.0
 11
-3.611364986329009
 21
5.288786934748507
 31
0.0
  0
LINE
  5
20F
330
1B5
100
AcDbEntity
  8
5
100
AcDbLine
 10
-3.569675527431053
 20
5.288786934748507
 30
0.0
 11
-3.590520256880035
 21
5.308469012926966
 31
0.0
  0
LINE
  5
210
330
1B5
100
AcDbEntity
  8
5
100
AcDbLine
 10
-3.590520256880035
 20
5.308469012926966
 30
0.0
 11
-3.611364986329009
 21
5.288786934748507
 31
0.0
  0
LINE
  5
211
330
1B5
100
AcDbEntity
  8
5
100
AcDbLine
 10
-3.569675527431053
 20
5.288786934748507
 30
0.0
 11
-3.590520256880035
 21
5.308469012926966
 31
0.0
  0
LINE
  5
212
330
1B5
100
AcDbEntity
  8
5
100
AcDbLine
 10
-3.590520256880035
 20
5.308469012926966
 30
0.0
 11
-3.611364986329009
 21
5.288786934748507
 31
0.0
  0
LINE
  5
213
330
1B5
100
AcDbEntity
  8
5
100
AcDbLine
 10
-3.569675527431053
 20
5.288786934748507
 30
0.0
 11
-3.590520256880035
 21
5.308469012926966
 31
0.0
  0
LINE
  5
214
330
1B5
100
AcDbEntity
  8
5
100
AcDbLine
 10
-3.590520256880035
 20
5.308469012926966
 30
0.0
 11
-3.611364986329009
 21
5.288786934748507
 31
0.0
  0
LINE
  5
215
330
1B5
100
AcDbEntity
  8
5
100
AcDbLine
 10
-3.569675527431053
 20
5.288786934748507
 30
0.0
 11
-3.590520256880035
 21
5.308469012926966
 31
0.0
  0
LINE
  5
216
330
1B5
100
AcDbEntity
  8
5
100
AcDbLine
 10
-3.590520256880035
 20
5.308469012926966
 30
0.0
 11
-3.611364986329009
 21
5.288786934748507
 31
0.0
  0
LINE
  5
217
330
1B5
100
AcDbEntity
  8
5
100
AcDbLine
 10
-3.569675527431053
 20
5.288786934748507
 30
0.0
 11
-3.590520256880035
 21
5.308469012926966
 31
0.0
  0
LINE
  5
218
330
1B5
100
AcDbEntity
  8
5
100
AcDbLine
 10
-3.590520256880035
 20
5.308469012926966
 30
0.0
 11
-3.611364986329009
 21
5.288786934748507
 31
0.0
  0
LINE
  5
219
330
1B5
100
AcDbEntity
  8
5
100
AcDbLine
 10
-3.569675527431053
 20
5.288786934748507
 30
0.0
 11
-3.590520256880035
 21
5.308469012926966
 31
0.0
  0
LINE
  5
21A
330
1B5
100
AcDbEntity
  8
5
100
AcDbLine
 10
-3.590520256880035
 20
5.308469012926966
 30
0.0
 11
-3.611364986329009
 21
5.288786934748507
 31
0.0
  0
LINE
  5
21B
330
1B5
100
AcDbEntity
  8
5
100
AcDbLine
 10
-3.569675527431053
 20
5.288786934748507
 30
0.0
 11
-3.590520256880035
 21
5.308469012926966
 31
0.0
  0
LINE
  5
21C
330
1B5
100
AcDbEntity
  8
5
100
AcDbLine
 10
-3.590520256880035
 20
5.308469012926966
 30
0.0
 11
-3.611364986329009
 21
5.288786934748507
 31
0.0
  0
LINE
  5
21D
330
1B5
100
AcDbEntity
  8
5
100
AcDbLine
 10
-3.569675527431053
 20
5.288786934748507
 30
0.0
 11
-3.590520256880035
 21
5.308469012926966
 31
0.0
  0
LINE
  5
21E
330
1B5
100
AcDbEntity
  8
5
100
AcDbLine
 10
-3.590520256880035
 20
5.308469012926966
 30
0.0
 11
-3.611364986329009
 21
5.288786934748507
 31
0.0
  0
LINE
  5
21F
330
1B5
100
AcDbEntity
  8
5
100
AcDbLine
 10
-3.569675527431053
 20
5.288786934748507
 30
0.0
 11
-3.590520256880035
 21
5.308469012926966
 31
0.0
  0
ENDBLK
  5
220
330
1B5
100
AcDbEntity
  8
0
100
AcDbBlockEnd
  0
BLOCK
  5
81
330
80
100
AcDbEntity
  8
5
100
AcDbBlockBegin
  2
10-2
 70
     0
 10
0.0
 20
0.0
 30
0.0
  3
10-2
  1

  0
LINE
  5
82
330
80
100
AcDbEntity
  8
0
100
AcDbLine
 10
-0.0993865681774908
 20
-1.74544415217491
 30
0.0
 11
0.0990878887811429
 21
-1.709755047174977
 31
0.0
  0
LINE
  5
83
330
80
100
AcDbEntity
  8
0
100
AcDbLine
 10
-0.0624760390166728
 20
-1.265568508878473
 30
0.0
 11
-0.0994593600000009
 21
-1.244216178553221
 31
0.0
  0
LINE
  5
84
330
80
100
AcDbEntity
  8
0
100
AcDbLine
 10
-0.0624760390166745
 20
-1.295050523487873
 30
0.0
 11
-0.0624760390166728
 21
-1.265568508878471
 31
0.0
  0
LINE
  5
85
330
80
100
AcDbEntity
  8
0
100
AcDbLine
 10
0.062476039016671
 20
-1.230051846508419
 30
0.0
 11
-0.0624760390166728
 21
-1.265568508878473
 31
0.0
  0
LINE
  5
86
330
80
100
AcDbEntity
  8
0
100
AcDbLine
 10
0.062476039016671
 20
-1.229475171248521
 30
0.0
 11
0.062476039016671
 21
-1.258957185857923
 31
0.0
  0
LINE
  5
87
330
80
100
AcDbEntity
  8
0
100
AcDbLine
 10
0.062476039016671
 20
-1.258957185857922
 30
0.0
 11
-0.0624760390166745
 21
-1.294473848227973
 31
0.0
  0
LINE
  5
88
330
80
100
AcDbEntity
  8
0
100
AcDbLine
 10
0.062476039016671
 20
-1.258957185857922
 30
0.0
 11
0.0994593599999991
 21
-1.280309516183171
 31
0.0
  0
LINE
  5
89
330
80
100
AcDbEntity
  8
0
100
AcDbLine
 10
0.0994593599999991
 20
-1.495139516183175
 30
0.0
 11
-0.0994593600000009
 21
-1.530656178553227
 31
0.0
  0
LINE
  5
8A
330
80
100
AcDbEntity
  8
0
100
AcDbLine
 10
-0.0994593600000009
 20
-1.530656178553227
 30
0.0
 11
-0.0624760390166728
 21
-1.509303848227977
 31
0.0
  0
LINE
  5
8B
330
80
100
AcDbEntity
  8
0
100
AcDbLine
 10
-0.0624760390166745
 20
-1.509880523487877
 30
0.0
 11
-0.0624760390166728
 21
-1.480398508878475
 31
0.0
  0
LINE
  5
8C
330
80
100
AcDbEntity
  8
0
100
AcDbLine
 10
0.062476039016671
 20
-1.444881846508424
 30
0.0
 11
-0.0624760390166728
 21
-1.480398508878477
 31
0.0
  0
LINE
  5
8D
330
80
100
AcDbEntity
  8
0
100
AcDbLine
 10
-0.0624760390166728
 20
-1.480398508878477
 30
0.0
 11
-0.0994593600000009
 21
-1.459046178553225
 31
0.0
  0
LINE
  5
8E
330
80
100
AcDbEntity
  8
0
100
AcDbLine
 10
0.062476039016671
 20
-1.473787185857925
 30
0.0
 11
-0.0624760390166745
 21
-1.509303848227977
 31
0.0
  0
LINE
  5
8F
330
80
100
AcDbEntity
  8
0
100
AcDbLine
 10
0.062476039016671
 20
-1.444305171248525
 30
0.0
 11
0.062476039016671
 21
-1.473787185857927
 31
0.0
  0
LINE
  5
90
330
80
100
AcDbEntity
  8
0
100
AcDbLine
 10
0.062476039016671
 20
-1.473787185857925
 30
0.0
 11
0.0994593599999991
 21
-1.495139516183175
 31
0.0
  0
LINE
  5
91
330
80
100
AcDbEntity
  8
0
100
AcDbLine
 10
0.0994593599999991
 20
-1.495139516183175
 30
0.0
 11
0.062476039016671
 21
-1.516491846508425
 31
0.0
  0
LINE
  5
92
330
80
100
AcDbEntity
  8
0
100
AcDbLine
 10
0.0994593599999991
 20
-1.423529516183174
 30
0.0
 11
-0.0994593600000009
 21
-1.459046178553225
 31
0.0
  0
LINE
  5
93
330
80
100
AcDbEntity
  8
0
100
AcDbLine
 10
-0.0994593600000009
 20
-1.459046178553225
 30
0.0
 11
-0.0624760390166728
 21
-1.437693848227975
 31
0.0
  0
LINE
  5
94
330
80
100
AcDbEntity
  8
0
100
AcDbLine
 10
-0.0624760390166745
 20
-1.438270523487875
 30
0.0
 11
-0.0624760390166728
 21
-1.408788508878474
 31
0.0
  0
LINE
  5
95
330
80
100
AcDbEntity
  8
0
100
AcDbLine
 10
0.062476039016671
 20
-1.373271846508422
 30
0.0
 11
-0.0624760390166728
 21
-1.408788508878476
 31
0.0
  0
LINE
  5
96
330
80
100
AcDbEntity
  8
0
100
AcDbLine
 10
-0.0624760390166728
 20
-1.408788508878476
 30
0.0
 11
-0.0994593600000009
 21
-1.387436178553224
 31
0.0
  0
LINE
  5
97
330
80
100
AcDbEntity
  8
0
100
AcDbLine
 10
0.062476039016671
 20
-1.402177185857924
 30
0.0
 11
-0.0624760390166745
 21
-1.437693848227975
 31
0.0
  0
LINE
  5
98
330
80
100
AcDbEntity
  8
0
100
AcDbLine
 10
0.062476039016671
 20
-1.372695171248524
 30
0.0
 11
0.062476039016671
 21
-1.402177185857925
 31
0.0
  0
LINE
  5
99
330
80
100
AcDbEntity
  8
0
100
AcDbLine
 10
0.062476039016671
 20
-1.402177185857924
 30
0.0
 11
0.0994593599999991
 21
-1.423529516183174
 31
0.0
  0
LINE
  5
9A
330
80
100
AcDbEntity
  8
0
100
AcDbLine
 10
0.0994593599999991
 20
-1.423529516183174
 30
0.0
 11
0.062476039016671
 21
-1.444881846508424
 31
0.0
  0
LINE
  5
9B
330
80
100
AcDbEntity
  8
0
100
AcDbLine
 10
0.0994593599999991
 20
-1.351919516183172
 30
0.0
 11
-0.0994593600000009
 21
-1.387436178553224
 31
0.0
  0
LINE
  5
9C
330
80
100
AcDbEntity
  8
0
100
AcDbLine
 10
-0.0994593600000009
 20
-1.387436178553224
 30
0.0
 11
-0.0624760390166728
 21
-1.366083848227974
 31
0.0
  0
LINE
  5
9D
330
80
100
AcDbEntity
  8
0
100
AcDbLine
 10
-0.0624760390166745
 20
-1.366660523487874
 30
0.0
 11
-0.0624760390166728
 21
-1.337178508878472
 31
0.0
  0
LINE
  5
9E
330
80
100
AcDbEntity
  8
0
100
AcDbLine
 10
0.062476039016671
 20
-1.301661846508421
 30
0.0
 11
-0.0624760390166728
 21
-1.337178508878474
 31
0.0
  0
LINE
  5
9F
330
80
100
AcDbEntity
  8
0
100
AcDbLine
 10
-0.0624760390166728
 20
-1.337178508878474
 30
0.0
 11
-0.0994593600000009
 21
-1.315826178553222
 31
0.0
  0
LINE
  5
A0
330
80
100
AcDbEntity
  8
0
100
AcDbLine
 10
0.062476039016671
 20
-1.330567185857922
 30
0.0
 11
-0.0624760390166745
 21
-1.366083848227974
 31
0.0
  0
LINE
  5
A1
330
80
100
AcDbEntity
  8
0
100
AcDbLine
 10
0.062476039016671
 20
-1.301085171248522
 30
0.0
 11
0.062476039016671
 21
-1.330567185857925
 31
0.0
  0
LINE
  5
A2
330
80
100
AcDbEntity
  8
0
100
AcDbLine
 10
0.062476039016671
 20
-1.330567185857922
 30
0.0
 11
0.0994593599999991
 21
-1.351919516183172
 31
0.0
  0
LINE
  5
A3
330
80
100
AcDbEntity
  8
0
100
AcDbLine
 10
0.0994593599999991
 20
-1.351919516183172
 30
0.0
 11
0.062476039016671
 21
-1.373271846508422
 31
0.0
  0
LINE
  5
A4
330
80
100
AcDbEntity
  8
0
100
AcDbLine
 10
0.0994593599999991
 20
-1.280309516183171
 30
0.0
 11
-0.0994593600000009
 21
-1.315826178553222
 31
0.0
  0
LINE
  5
A5
330
80
100
AcDbEntity
  8
0
100
AcDbLine
 10
-0.0994593600000009
 20
-1.315826178553222
 30
0.0
 11
-0.0624760390166728
 21
-1.294473848227973
 31
0.0
  0
LINE
  5
A6
330
80
100
AcDbEntity
  8
0
100
AcDbLine
 10
0.0994593599999991
 20
-1.280309516183171
 30
0.0
 11
0.062476039016671
 21
-1.301661846508421
 31
0.0
  0
ARC
  5
A7
330
80
100
AcDbEntity
  8
0
100
AcDbCircle
 10
-0.000433840223244
 20
-1.886016649306523
 30
0.0
 40
0.03125
100
AcDbArc
 50
202.499999975583
 51
337.500000024416
  0
LINE
  5
A8
330
80
100
AcDbEntity
  8
0
100
AcDbLine
 10
-0.3039403194853296
 20
0.046875
 30
0.0
 11
0.303509713563022
 21
0.046875
 31
0.0
  0
LINE
  5
A9
330
80
100
AcDbEntity
  8
0
100
AcDbLine
 10
-0.3039403194853296
 20
0.03125
 30
0.0
 11
0.303509713563022
 21
0.03125
 31
0.0
  0
LINE
  5
AA
330
80
100
AcDbEntity
  8
0
100
AcDbLine
 10
-0.3039403194853296
 20
0.015625
 30
0.0
 11
0.303509713563022
 21
0.015625
 31
0.0
  0
LINE
  5
AB
330
80
100
AcDbEntity
  8
0
100
AcDbLine
 10
-0.3039403194853296
 20
0.0
 30
0.0
 11
0.303509713563022
 21
0.0
 31
0.0
  0
LINE
  5
AC
330
80
100
AcDbEntity
  8
0
100
AcDbLine
 10
-0.3039403194853296
 20
0.0625
 30
0.0
 11
0.303509713563022
 21
0.0625
 31
0.0
  0
LINE
  5
AD
330
80
100
AcDbEntity
  8
0
100
AcDbLine
 10
0.0497083939686434
 20
-1.830307341021394
 30
0.0
 11
0.0657718628324613
 21
-1.846781384353356
 31
0.0
  0
LINE
  5
AE
330
80
100
AcDbEntity
  8
0
100
AcDbLine
 10
0.0422488686893967
 20
-1.86463165983539
 30
0.0
 11
0.0657718628324613
 21
-1.846781384353356
 31
0.0
  0
LINE
  5
AF
330
80
100
AcDbEntity
  8
0
100
AcDbLine
 10
0.0422488686893967
 20
-1.86463165983539
 30
0.0
 11
0.0284373951728299
 21
-1.897975506555629
 31
0.0
  0
LINE
  5
B0
330
80
100
AcDbEntity
  8
0
100
AcDbLine
 10
0.0621773596203248
 20
-1.802675351121907
 30
0.0
 11
0.0497083939686434
 21
-1.830307341021394
 31
0.0
  0
LINE
  5
B1
330
80
100
AcDbEntity
  8
0
100
AcDbLine
 10
-0.0337537345876449
 20
-1.887235493726974
 30
0.0
 11
-0.0293050756193178
 21
-1.897975506555629
 31
0.0
  0
LINE
  5
B2
330
80
100
AcDbEntity
  8
0
100
AcDbLine
 10
-0.0712623513852755
 20
-1.87236065280221
 30
0.0
 11
-0.0538482121973552
 21
-1.859742505888399
 31
0.0
  0
LINE
  5
B3
330
80
100
AcDbEntity
  8
0
100
AcDbLine
 10
-0.0415053204264329
 20
-1.889540882636582
 30
0.0
 11
-0.0712623513852755
 21
-1.87236065280221
 31
0.0
  0
LINE
  5
B4
330
80
100
AcDbEntity
  8
0
100
AcDbLine
 10
-0.0415053204264329
 20
-1.889540882636582
 30
0.0
 11
0.0422488686893967
 21
-1.86463165983539
 31
0.0
  0
LINE
  5
B5
330
80
100
AcDbEntity
  8
0
100
AcDbLine
 10
-0.0712623513852755
 20
-1.87236065280221
 30
0.0
 11
0.0657718628324613
 21
-1.846781384353356
 31
0.0
  0
LINE
  5
B6
330
80
100
AcDbEntity
  8
0
100
AcDbLine
 10
0.0497083939686434
 20
-1.830307341021394
 30
0.0
 11
-0.0538482121973552
 21
-1.859742505888399
 31
0.0
  0
LINE
  5
B7
330
80
100
AcDbEntity
  8
0
100
AcDbLine
 10
-0.062774718413019
 20
-1.83819201349196
 30
0.0
 11
-0.0538482121973552
 21
-1.859742505888399
 31
0.0
  0
LINE
  5
B8
330
80
100
AcDbEntity
  8
0
100
AcDbLine
 10
0.0994690188352117
 20
-0.0629377916114784
 30
0.0
 11
0.0994690188352117
 21
0.0000024174339757
 31
0.0
  0
LINE
  5
B9
330
80
100
AcDbEntity
  8
2
100
AcDbLine
 10
0.0
 20
-1.69306689390373
 30
0.0
 11
0.0
 21
0.3668767342373318
 31
0.0
  0
CIRCLE
  5
BC
330
80
100
AcDbEntity
  8
2
100
AcDbCircle
 10
0.0
 20
0.0000000000000053
 30
0.0
 40
0.053398346037536
  0
LINE
  5
BD
330
80
100
AcDbEntity
  8
0
100
AcDbLine
 10
-0.0994593600000009
 20
-0.0984561785532012
 30
0.0
 11
-0.0994593600000009
 21
0.0
 31
0.0
  0
LINE
  5
BE
330
80
100
AcDbEntity
  8
0
100
AcDbLine
 10
0.0994690188352117
 20
-0.062933939652039
 30
0.0
 11
0.062476039016671
 21
-0.084291846508398
 31
0.0
  0
LINE
  5
BF
330
80
100
AcDbEntity
  8
0
100
AcDbLine
 10
0.0994690188352117
 20
-0.0629377916114784
 30
0.0
 11
-0.0994593600000009
 21
-0.0984561785532012
 31
0.0
  0
LINE
  5
C0
330
80
100
AcDbEntity
  8
0
100
AcDbLine
 10
0.0994593599999991
 20
-0.1345495161831494
 30
0.0
 11
0.062476039016671
 21
-0.1559018465083994
 31
0.0
  0
LINE
  5
C1
330
80
100
AcDbEntity
  8
0
100
AcDbLine
 10
0.062476039016671
 20
-0.1131971858579011
 30
0.0
 11
0.0994593599999991
 21
-0.1345495161831494
 31
0.0
  0
LINE
  5
C2
330
80
100
AcDbEntity
  8
0
100
AcDbLine
 10
0.062476039016671
 20
-0.0837151712484996
 30
0.0
 11
0.062476039016671
 21
-0.1131971858579028
 31
0.0
  0
LINE
  5
C3
330
80
100
AcDbEntity
  8
0
100
AcDbLine
 10
0.062476039016671
 20
-0.1131971858579011
 30
0.0
 11
-0.0624760390166745
 21
-0.1487138482279526
 31
0.0
  0
LINE
  5
C4
330
80
100
AcDbEntity
  8
0
100
AcDbLine
 10
-0.0624760390166728
 20
-0.1198085088784513
 30
0.0
 11
-0.0994593600000009
 21
-0.0984561785532012
 31
0.0
  0
LINE
  5
C5
330
80
100
AcDbEntity
  8
0
100
AcDbLine
 10
0.062476039016671
 20
-0.084291846508398
 30
0.0
 11
-0.0624760390166728
 21
-0.1198085088784513
 31
0.0
  0
LINE
  5
C6
330
80
100
AcDbEntity
  8
0
100
AcDbLine
 10
-0.0624760390166745
 20
-0.149290523487851
 30
0.0
 11
-0.0624760390166728
 21
-0.1198085088784513
 31
0.0
  0
LINE
  5
C7
330
80
100
AcDbEntity
  8
0
100
AcDbLine
 10
-0.0994593600000009
 20
-0.1700661785532009
 30
0.0
 11
-0.0624760390166728
 21
-0.1487138482279526
 31
0.0
  0
LINE
  5
C8
330
80
100
AcDbEntity
  8
0
100
AcDbLine
 10
0.0994593599999991
 20
-0.1345495161831494
 30
0.0
 11
-0.0994593600000009
 21
-0.1700661785532009
 31
0.0
  0
LINE
  5
C9
330
80
100
AcDbEntity
  8
0
100
AcDbLine
 10
0.0994593599999991
 20
-0.2061595161831509
 30
0.0
 11
0.062476039016671
 21
-0.2275118465084009
 31
0.0
  0
LINE
  5
CA
330
80
100
AcDbEntity
  8
0
100
AcDbLine
 10
0.062476039016671
 20
-0.1848071858579008
 30
0.0
 11
0.0994593599999991
 21
-0.2061595161831509
 31
0.0
  0
LINE
  5
CB
330
80
100
AcDbEntity
  8
0
100
AcDbLine
 10
0.062476039016671
 20
-0.1553251712485011
 30
0.0
 11
0.062476039016671
 21
-0.1848071858579043
 31
0.0
  0
LINE
  5
CC
330
80
100
AcDbEntity
  8
0
100
AcDbLine
 10
0.062476039016671
 20
-0.1848071858579008
 30
0.0
 11
-0.0624760390166745
 21
-0.2203238482279524
 31
0.0
  0
LINE
  5
CD
330
80
100
AcDbEntity
  8
0
100
AcDbLine
 10
-0.0624760390166728
 20
-0.1914185088784528
 30
0.0
 11
-0.0994593600000009
 21
-0.1700661785532009
 31
0.0
  0
LINE
  5
CE
330
80
100
AcDbEntity
  8
0
100
AcDbLine
 10
0.062476039016671
 20
-0.1559018465083994
 30
0.0
 11
-0.0624760390166728
 21
-0.1914185088784528
 31
0.0
  0
LINE
  5
CF
330
80
100
AcDbEntity
  8
0
100
AcDbLine
 10
-0.0624760390166745
 20
-0.2209005234878525
 30
0.0
 11
-0.0624760390166728
 21
-0.191418508878451
 31
0.0
  0
LINE
  5
D0
330
80
100
AcDbEntity
  8
0
100
AcDbLine
 10
-0.0994593600000009
 20
-0.2416761785532024
 30
0.0
 11
-0.0624760390166728
 21
-0.2203238482279524
 31
0.0
  0
LINE
  5
D1
330
80
100
AcDbEntity
  8
0
100
AcDbLine
 10
0.0994593599999991
 20
-0.2061595161831509
 30
0.0
 11
-0.0994593600000009
 21
-0.2416761785532024
 31
0.0
  0
LINE
  5
D2
330
80
100
AcDbEntity
  8
0
100
AcDbLine
 10
0.0994593599999991
 20
-0.2777695161831524
 30
0.0
 11
0.062476039016671
 21
-0.2991218465084024
 31
0.0
  0
LINE
  5
D3
330
80
100
AcDbEntity
  8
0
100
AcDbLine
 10
0.062476039016671
 20
-0.2564171858579023
 30
0.0
 11
0.0994593599999991
 21
-0.2777695161831524
 31
0.0
  0
LINE
  5
D4
330
80
100
AcDbEntity
  8
0
100
AcDbLine
 10
0.062476039016671
 20
-0.2269351712485026
 30
0.0
 11
0.062476039016671
 21
-0.2564171858579041
 31
0.0
  0
LINE
  5
D5
330
80
100
AcDbEntity
  8
0
100
AcDbLine
 10
0.062476039016671
 20
-0.2564171858579023
 30
0.0
 11
-0.0624760390166745
 21
-0.2919338482279539
 31
0.0
  0
LINE
  5
D6
330
80
100
AcDbEntity
  8
0
100
AcDbLine
 10
-0.0624760390166728
 20
-0.2630285088784543
 30
0.0
 11
-0.0994593600000009
 21
-0.2416761785532024
 31
0.0
  0
LINE
  5
D7
330
80
100
AcDbEntity
  8
0
100
AcDbLine
 10
0.062476039016671
 20
-0.2275118465084009
 30
0.0
 11
-0.0624760390166728
 21
-0.2630285088784543
 31
0.0
  0
LINE
  5
D8
330
80
100
AcDbEntity
  8
0
100
AcDbLine
 10
-0.0624760390166745
 20
-0.292510523487854
 30
0.0
 11
-0.0624760390166728
 21
-0.2630285088784525
 31
0.0
  0
LINE
  5
D9
330
80
100
AcDbEntity
  8
0
100
AcDbLine
 10
-0.0994593600000009
 20
-0.3132861785532039
 30
0.0
 11
-0.0624760390166728
 21
-0.2919338482279539
 31
0.0
  0
LINE
  5
DA
330
80
100
AcDbEntity
  8
0
100
AcDbLine
 10
0.0994593599999991
 20
-0.2777695161831524
 30
0.0
 11
-0.0994593600000009
 21
-0.3132861785532039
 31
0.0
  0
LINE
  5
DB
330
80
100
AcDbEntity
  8
0
100
AcDbLine
 10
0.0994593599999991
 20
-0.3493795161831539
 30
0.0
 11
0.062476039016671
 21
-0.370731846508404
 31
0.0
  0
LINE
  5
DC
330
80
100
AcDbEntity
  8
0
100
AcDbLine
 10
0.062476039016671
 20
-0.3280271858579038
 30
0.0
 11
0.0994593599999991
 21
-0.3493795161831539
 31
0.0
  0
LINE
  5
DD
330
80
100
AcDbEntity
  8
0
100
AcDbLine
 10
0.062476039016671
 20
-0.2985451712485041
 30
0.0
 11
0.062476039016671
 21
-0.3280271858579056
 31
0.0
  0
LINE
  5
DE
330
80
100
AcDbEntity
  8
0
100
AcDbLine
 10
0.062476039016671
 20
-0.3280271858579038
 30
0.0
 11
-0.0624760390166745
 21
-0.3635438482279554
 31
0.0
  0
LINE
  5
DF
330
80
100
AcDbEntity
  8
0
100
AcDbLine
 10
-0.0624760390166728
 20
-0.3346385088784558
 30
0.0
 11
-0.0994593600000009
 21
-0.3132861785532039
 31
0.0
  0
LINE
  5
E0
330
80
100
AcDbEntity
  8
0
100
AcDbLine
 10
0.062476039016671
 20
-0.2991218465084024
 30
0.0
 11
-0.0624760390166728
 21
-0.3346385088784558
 31
0.0
  0
LINE
  5
E1
330
80
100
AcDbEntity
  8
0
100
AcDbLine
 10
-0.0624760390166745
 20
-0.3641205234878555
 30
0.0
 11
-0.0624760390166728
 21
-0.334638508878454
 31
0.0
  0
LINE
  5
E2
330
80
100
AcDbEntity
  8
0
100
AcDbLine
 10
-0.0994593600000009
 20
-0.3848961785532054
 30
0.0
 11
-0.0624760390166728
 21
-0.3635438482279554
 31
0.0
  0
LINE
  5
E3
330
80
100
AcDbEntity
  8
0
100
AcDbLine
 10
0.0994593599999991
 20
-0.3493795161831539
 30
0.0
 11
-0.0994593600000009
 21
-0.3848961785532054
 31
0.0
  0
LINE
  5
E4
330
80
100
AcDbEntity
  8
0
100
AcDbLine
 10
0.0994593599999991
 20
-0.4209895161831554
 30
0.0
 11
0.062476039016671
 21
-0.4423418465084055
 31
0.0
  0
LINE
  5
E5
330
80
100
AcDbEntity
  8
0
100
AcDbLine
 10
0.062476039016671
 20
-0.3996371858579053
 30
0.0
 11
0.0994593599999991
 21
-0.4209895161831554
 31
0.0
  0
LINE
  5
E6
330
80
100
AcDbEntity
  8
0
100
AcDbLine
 10
0.062476039016671
 20
-0.3701551712485056
 30
0.0
 11
0.062476039016671
 21
-0.3996371858579071
 31
0.0
  0
LINE
  5
E7
330
80
100
AcDbEntity
  8
0
100
AcDbLine
 10
0.062476039016671
 20
-0.3996371858579053
 30
0.0
 11
-0.0624760390166745
 21
-0.4351538482279569
 31
0.0
  0
LINE
  5
E8
330
80
100
AcDbEntity
  8
0
100
AcDbLine
 10
-0.0624760390166728
 20
-0.4062485088784574
 30
0.0
 11
-0.0994593600000009
 21
-0.3848961785532054
 31
0.0
  0
LINE
  5
E9
330
80
100
AcDbEntity
  8
0
100
AcDbLine
 10
0.062476039016671
 20
-0.370731846508404
 30
0.0
 11
-0.0624760390166728
 21
-0.4062485088784574
 31
0.0
  0
LINE
  5
EA
330
80
100
AcDbEntity
  8
0
100
AcDbLine
 10
-0.0624760390166745
 20
-0.4357305234878571
 30
0.0
 11
-0.0624760390166728
 21
-0.4062485088784556
 31
0.0
  0
LINE
  5
EB
330
80
100
AcDbEntity
  8
0
100
AcDbLine
 10
-0.0994593600000009
 20
-0.456506178553207
 30
0.0
 11
-0.0624760390166728
 21
-0.4351538482279569
 31
0.0
  0
LINE
  5
EC
330
80
100
AcDbEntity
  8
0
100
AcDbLine
 10
0.0994593599999991
 20
-0.4209895161831554
 30
0.0
 11
-0.0994593600000009
 21
-0.456506178553207
 31
0.0
  0
LINE
  5
ED
330
80
100
AcDbEntity
  8
0
100
AcDbLine
 10
0.0994593599999991
 20
-0.4925995161831569
 30
0.0
 11
0.062476039016671
 21
-0.513951846508407
 31
0.0
  0
LINE
  5
EE
330
80
100
AcDbEntity
  8
0
100
AcDbLine
 10
0.062476039016671
 20
-0.4712471858579069
 30
0.0
 11
0.0994593599999991
 21
-0.4925995161831569
 31
0.0
  0
LINE
  5
EF
330
80
100
AcDbEntity
  8
0
100
AcDbLine
 10
0.062476039016671
 20
-0.4417651712485072
 30
0.0
 11
0.062476039016671
 21
-0.4712471858579086
 31
0.0
  0
LINE
  5
F0
330
80
100
AcDbEntity
  8
0
100
AcDbLine
 10
0.062476039016671
 20
-0.4712471858579069
 30
0.0
 11
-0.0624760390166745
 21
-0.5067638482279584
 31
0.0
  0
LINE
  5
F1
330
80
100
AcDbEntity
  8
0
100
AcDbLine
 10
-0.0624760390166728
 20
-0.4778585088784589
 30
0.0
 11
-0.0994593600000009
 21
-0.456506178553207
 31
0.0
  0
LINE
  5
F2
330
80
100
AcDbEntity
  8
0
100
AcDbLine
 10
0.062476039016671
 20
-0.4423418465084055
 30
0.0
 11
-0.0624760390166728
 21
-0.4778585088784589
 31
0.0
  0
LINE
  5
F3
330
80
100
AcDbEntity
  8
0
100
AcDbLine
 10
-0.0624760390166745
 20
-0.5073405234878586
 30
0.0
 11
-0.0624760390166728
 21
-0.4778585088784571
 31
0.0
  0
LINE
  5
F4
330
80
100
AcDbEntity
  8
0
100
AcDbLine
 10
-0.0994593600000009
 20
-0.5281161785532085
 30
0.0
 11
-0.0624760390166728
 21
-0.5067638482279584
 31
0.0
  0
LINE
  5
F5
330
80
100
AcDbEntity
  8
0
100
AcDbLine
 10
0.0994593599999991
 20
-0.4925995161831569
 30
0.0
 11
-0.0994593600000009
 21
-0.5281161785532085
 31
0.0
  0
LINE
  5
F6
330
80
100
AcDbEntity
  8
0
100
AcDbLine
 10
0.0994593599999991
 20
-0.5642095161831576
 30
0.0
 11
0.062476039016671
 21
-0.5855618465084076
 31
0.0
  0
LINE
  5
F7
330
80
100
AcDbEntity
  8
0
100
AcDbLine
 10
0.062476039016671
 20
-0.5428571858579084
 30
0.0
 11
0.0994593599999991
 21
-0.5642095161831576
 31
0.0
  0
LINE
  5
F8
330
80
100
AcDbEntity
  8
0
100
AcDbLine
 10
0.062476039016671
 20
-0.5133751712485087
 30
0.0
 11
0.062476039016671
 21
-0.5428571858579101
 31
0.0
  0
LINE
  5
F9
330
80
100
AcDbEntity
  8
0
100
AcDbLine
 10
0.062476039016671
 20
-0.5428571858579084
 30
0.0
 11
-0.0624760390166745
 21
-0.5783738482279599
 31
0.0
  0
LINE
  5
FA
330
80
100
AcDbEntity
  8
0
100
AcDbLine
 10
-0.0624760390166728
 20
-0.5494685088784604
 30
0.0
 11
-0.0994593600000009
 21
-0.5281161785532085
 31
0.0
  0
LINE
  5
FB
330
80
100
AcDbEntity
  8
0
100
AcDbLine
 10
0.062476039016671
 20
-0.513951846508407
 30
0.0
 11
-0.0624760390166728
 21
-0.5494685088784604
 31
0.0
  0
LINE
  5
FC
330
80
100
AcDbEntity
  8
0
100
AcDbLine
 10
-0.0624760390166745
 20
-0.5789505234878601
 30
0.0
 11
-0.0624760390166728
 21
-0.5494685088784586
 31
0.0
  0
LINE
  5
FD
330
80
100
AcDbEntity
  8
0
100
AcDbLine
 10
-0.0994593600000009
 20
-0.59972617855321
 30
0.0
 11
-0.0624760390166728
 21
-0.5783738482279599
 31
0.0
  0
LINE
  5
FE
330
80
100
AcDbEntity
  8
0
100
AcDbLine
 10
0.0994593599999991
 20
-0.5642095161831576
 30
0.0
 11
-0.0994593600000009
 21
-0.59972617855321
 31
0.0
  0
LINE
  5
FF
330
80
100
AcDbEntity
  8
0
100
AcDbLine
 10
0.0994593599999991
 20
-0.6358195161831591
 30
0.0
 11
0.062476039016671
 21
-0.6571718465084082
 31
0.0
  0
LINE
  5
100
330
80
100
AcDbEntity
  8
0
100
AcDbLine
 10
0.062476039016671
 20
-0.6144671858579099
 30
0.0
 11
0.0994593599999991
 21
-0.6358195161831591
 31
0.0
  0
LINE
  5
101
330
80
100
AcDbEntity
  8
0
100
AcDbLine
 10
0.062476039016671
 20
-0.5849851712485102
 30
0.0
 11
0.062476039016671
 21
-0.6144671858579116
 31
0.0
  0
LINE
  5
102
330
80
100
AcDbEntity
  8
0
100
AcDbLine
 10
0.062476039016671
 20
-0.6144671858579099
 30
0.0
 11
-0.0624760390166745
 21
-0.6499838482279614
 31
0.0
  0
LINE
  5
103
330
80
100
AcDbEntity
  8
0
100
AcDbLine
 10
-0.0624760390166728
 20
-0.6210785088784619
 30
0.0
 11
-0.0994593600000009
 21
-0.59972617855321
 31
0.0
  0
LINE
  5
104
330
80
100
AcDbEntity
  8
0
100
AcDbLine
 10
0.062476039016671
 20
-0.5855618465084076
 30
0.0
 11
-0.0624760390166728
 21
-0.6210785088784619
 31
0.0
  0
LINE
  5
105
330
80
100
AcDbEntity
  8
0
100
AcDbLine
 10
-0.0624760390166745
 20
-0.6505605234878616
 30
0.0
 11
-0.0624760390166728
 21
-0.6210785088784592
 31
0.0
  0
LINE
  5
106
330
80
100
AcDbEntity
  8
0
100
AcDbLine
 10
-0.0994593600000009
 20
-0.6713361785532106
 30
0.0
 11
-0.0624760390166728
 21
-0.6499838482279614
 31
0.0
  0
LINE
  5
107
330
80
100
AcDbEntity
  8
0
100
AcDbLine
 10
0.0994593599999991
 20
-0.6358195161831591
 30
0.0
 11
-0.0994593600000009
 21
-0.6713361785532106
 31
0.0
  0
LINE
  5
108
330
80
100
AcDbEntity
  8
0
100
AcDbLine
 10
0.0994593599999991
 20
-0.7074295161831606
 30
0.0
 11
0.062476039016671
 21
-0.7287818465084098
 31
0.0
  0
LINE
  5
109
330
80
100
AcDbEntity
  8
0
100
AcDbLine
 10
0.062476039016671
 20
-0.6860771858579105
 30
0.0
 11
0.0994593599999991
 21
-0.7074295161831606
 31
0.0
  0
LINE
  5
10A
330
80
100
AcDbEntity
  8
0
100
AcDbLine
 10
0.062476039016671
 20
-0.6565951712485108
 30
0.0
 11
0.062476039016671
 21
-0.6860771858579131
 31
0.0
  0
LINE
  5
10B
330
80
100
AcDbEntity
  8
0
100
AcDbLine
 10
0.062476039016671
 20
-0.6860771858579105
 30
0.0
 11
-0.0624760390166745
 21
-0.7215938482279629
 31
0.0
  0
LINE
  5
10C
330
80
100
AcDbEntity
  8
0
100
AcDbLine
 10
-0.0624760390166728
 20
-0.6926885088784625
 30
0.0
 11
-0.0994593600000009
 21
-0.6713361785532106
 31
0.0
  0
LINE
  5
10D
330
80
100
AcDbEntity
  8
0
100
AcDbLine
 10
0.062476039016671
 20
-0.6571718465084082
 30
0.0
 11
-0.0624760390166728
 21
-0.6926885088784625
 31
0.0
  0
LINE
  5
10E
330
80
100
AcDbEntity
  8
0
100
AcDbLine
 10
-0.0624760390166745
 20
-0.7221705234878622
 30
0.0
 11
-0.0624760390166728
 21
-0.6926885088784607
 31
0.0
  0
LINE
  5
10F
330
80
100
AcDbEntity
  8
0
100
AcDbLine
 10
-0.0994593600000009
 20
-0.7429461785532121
 30
0.0
 11
-0.0624760390166728
 21
-0.7215938482279629
 31
0.0
  0
LINE
  5
110
330
80
100
AcDbEntity
  8
0
100
AcDbLine
 10
0.0994593599999991
 20
-0.7074295161831606
 30
0.0
 11
-0.0994593600000009
 21
-0.7429461785532121
 31
0.0
  0
LINE
  5
111
330
80
100
AcDbEntity
  8
0
100
AcDbLine
 10
0.0994593599999991
 20
-0.7790395161831621
 30
0.0
 11
0.062476039016671
 21
-0.8003918465084112
 31
0.0
  0
LINE
  5
112
330
80
100
AcDbEntity
  8
0
100
AcDbLine
 10
0.062476039016671
 20
-0.757687185857912
 30
0.0
 11
0.0994593599999991
 21
-0.7790395161831621
 31
0.0
  0
LINE
  5
113
330
80
100
AcDbEntity
  8
0
100
AcDbLine
 10
0.062476039016671
 20
-0.7282051712485123
 30
0.0
 11
0.062476039016671
 21
-0.7576871858579147
 31
0.0
  0
LINE
  5
114
330
80
100
AcDbEntity
  8
0
100
AcDbLine
 10
0.062476039016671
 20
-0.757687185857912
 30
0.0
 11
-0.0624760390166745
 21
-0.7932038482279636
 31
0.0
  0
LINE
  5
115
330
80
100
AcDbEntity
  8
0
100
AcDbLine
 10
-0.0624760390166728
 20
-0.764298508878464
 30
0.0
 11
-0.0994593600000009
 21
-0.7429461785532121
 31
0.0
  0
LINE
  5
116
330
80
100
AcDbEntity
  8
0
100
AcDbLine
 10
0.062476039016671
 20
-0.7287818465084098
 30
0.0
 11
-0.0624760390166728
 21
-0.764298508878464
 31
0.0
  0
LINE
  5
117
330
80
100
AcDbEntity
  8
0
100
AcDbLine
 10
-0.0624760390166745
 20
-0.7937805234878637
 30
0.0
 11
-0.0624760390166728
 21
-0.7642985088784613
 31
0.0
  0
LINE
  5
118
330
80
100
AcDbEntity
  8
0
100
AcDbLine
 10
-0.0994593600000009
 20
-0.8145561785532136
 30
0.0
 11
-0.0624760390166728
 21
-0.7932038482279636
 31
0.0
  0
LINE
  5
119
330
80
100
AcDbEntity
  8
0
100
AcDbLine
 10
0.0994593599999991
 20
-0.7790395161831621
 30
0.0
 11
-0.0994593600000009
 21
-0.8145561785532136
 31
0.0
  0
LINE
  5
11A
330
80
100
AcDbEntity
  8
0
100
AcDbLine
 10
0.0994593599999991
 20
-0.8506495161831626
 30
0.0
 11
0.062476039016671
 21
-0.8720018465084127
 31
0.0
  0
LINE
  5
11B
330
80
100
AcDbEntity
  8
0
100
AcDbLine
 10
0.062476039016671
 20
-0.8292971858579134
 30
0.0
 11
0.0994593599999991
 21
-0.8506495161831626
 31
0.0
  0
LINE
  5
11C
330
80
100
AcDbEntity
  8
0
100
AcDbLine
 10
0.062476039016671
 20
-0.7998151712485138
 30
0.0
 11
0.062476039016671
 21
-0.8292971858579152
 31
0.0
  0
LINE
  5
11D
330
80
100
AcDbEntity
  8
0
100
AcDbLine
 10
0.062476039016671
 20
-0.8292971858579134
 30
0.0
 11
-0.0624760390166745
 21
-0.864813848227965
 31
0.0
  0
LINE
  5
11E
330
80
100
AcDbEntity
  8
0
100
AcDbLine
 10
-0.0624760390166728
 20
-0.8359085088784654
 30
0.0
 11
-0.0994593600000009
 21
-0.8145561785532136
 31
0.0
  0
LINE
  5
11F
330
80
100
AcDbEntity
  8
0
100
AcDbLine
 10
0.062476039016671
 20
-0.8003918465084112
 30
0.0
 11
-0.0624760390166728
 21
-0.8359085088784654
 31
0.0
  0
LINE
  5
120
330
80
100
AcDbEntity
  8
0
100
AcDbLine
 10
-0.0624760390166745
 20
-0.8653905234878651
 30
0.0
 11
-0.0624760390166728
 21
-0.8359085088784627
 31
0.0
  0
LINE
  5
121
330
80
100
AcDbEntity
  8
0
100
AcDbLine
 10
-0.0994593600000009
 20
-0.8861661785532151
 30
0.0
 11
-0.0624760390166728
 21
-0.864813848227965
 31
0.0
  0
LINE
  5
122
330
80
100
AcDbEntity
  8
0
100
AcDbLine
 10
0.0994593599999991
 20
-0.8506495161831626
 30
0.0
 11
-0.0994593600000009
 21
-0.8861661785532151
 31
0.0
  0
LINE
  5
123
330
80
100
AcDbEntity
  8
0
100
AcDbLine
 10
0.0994593599999991
 20
-0.922259516183165
 30
0.0
 11
0.062476039016671
 21
-0.9436118465084142
 31
0.0
  0
LINE
  5
124
330
80
100
AcDbEntity
  8
0
100
AcDbLine
 10
0.062476039016671
 20
-0.9009071858579149
 30
0.0
 11
0.0994593599999991
 21
-0.922259516183165
 31
0.0
  0
LINE
  5
125
330
80
100
AcDbEntity
  8
0
100
AcDbLine
 10
0.062476039016671
 20
-0.8714251712485143
 30
0.0
 11
0.062476039016671
 21
-0.9009071858579176
 31
0.0
  0
LINE
  5
126
330
80
100
AcDbEntity
  8
0
100
AcDbLine
 10
0.062476039016671
 20
-0.9009071858579149
 30
0.0
 11
-0.0624760390166745
 21
-0.9364238482279665
 31
0.0
  0
LINE
  5
127
330
80
100
AcDbEntity
  8
0
100
AcDbLine
 10
-0.0624760390166728
 20
-0.907518508878466
 30
0.0
 11
-0.0994593600000009
 21
-0.8861661785532151
 31
0.0
  0
LINE
  5
128
330
80
100
AcDbEntity
  8
0
100
AcDbLine
 10
0.062476039016671
 20
-0.8720018465084127
 30
0.0
 11
-0.0624760390166728
 21
-0.907518508878466
 31
0.0
  0
LINE
  5
129
330
80
100
AcDbEntity
  8
0
100
AcDbLine
 10
-0.0624760390166745
 20
-0.9370005234878666
 30
0.0
 11
-0.0624760390166728
 21
-0.9075185088784643
 31
0.0
  0
LINE
  5
12A
330
80
100
AcDbEntity
  8
0
100
AcDbLine
 10
-0.0994593600000009
 20
-0.9577761785532166
 30
0.0
 11
-0.0624760390166728
 21
-0.9364238482279665
 31
0.0
  0
LINE
  5
12B
330
80
100
AcDbEntity
  8
0
100
AcDbLine
 10
0.0994593599999991
 20
-0.922259516183165
 30
0.0
 11
-0.0994593600000009
 21
-0.9577761785532166
 31
0.0
  0
LINE
  5
12C
330
80
100
AcDbEntity
  8
0
100
AcDbLine
 10
0.0994593599999991
 20
-0.9938695161831656
 30
0.0
 11
0.062476039016671
 21
-1.015221846508415
 31
0.0
  0
LINE
  5
12D
330
80
100
AcDbEntity
  8
0
100
AcDbLine
 10
0.062476039016671
 20
-0.9725171858579164
 30
0.0
 11
0.0994593599999991
 21
-0.9938695161831656
 31
0.0
  0
LINE
  5
12E
330
80
100
AcDbEntity
  8
0
100
AcDbLine
 10
0.062476039016671
 20
-0.9430351712485158
 30
0.0
 11
0.062476039016671
 21
-0.9725171858579182
 31
0.0
  0
LINE
  5
12F
330
80
100
AcDbEntity
  8
0
100
AcDbLine
 10
0.062476039016671
 20
-0.9725171858579164
 30
0.0
 11
-0.0624760390166745
 21
-1.008033848227968
 31
0.0
  0
LINE
  5
130
330
80
100
AcDbEntity
  8
0
100
AcDbLine
 10
-0.0624760390166728
 20
-0.9791285088784675
 30
0.0
 11
-0.0994593600000009
 21
-0.9577761785532166
 31
0.0
  0
LINE
  5
131
330
80
100
AcDbEntity
  8
0
100
AcDbLine
 10
0.062476039016671
 20
-0.9436118465084142
 30
0.0
 11
-0.0624760390166728
 21
-0.9791285088784675
 31
0.0
  0
LINE
  5
132
330
80
100
AcDbEntity
  8
0
100
AcDbLine
 10
-0.0624760390166745
 20
-1.008610523487868
 30
0.0
 11
-0.0624760390166728
 21
-0.9791285088784658
 31
0.0
  0
LINE
  5
133
330
80
100
AcDbEntity
  8
0
100
AcDbLine
 10
-0.0994593600000009
 20
-1.029386178553217
 30
0.0
 11
-0.0624760390166728
 21
-1.008033848227968
 31
0.0
  0
LINE
  5
134
330
80
100
AcDbEntity
  8
0
100
AcDbLine
 10
0.0994593599999991
 20
-0.9938695161831656
 30
0.0
 11
-0.0994593600000009
 21
-1.029386178553217
 31
0.0
  0
LINE
  5
135
330
80
100
AcDbEntity
  8
0
100
AcDbLine
 10
0.0994593599999991
 20
-1.065479516183167
 30
0.0
 11
0.062476039016671
 21
-1.086831846508417
 31
0.0
  0
LINE
  5
136
330
80
100
AcDbEntity
  8
0
100
AcDbLine
 10
0.062476039016671
 20
-1.044127185857917
 30
0.0
 11
0.0994593599999991
 21
-1.065479516183167
 31
0.0
  0
LINE
  5
137
330
80
100
AcDbEntity
  8
0
100
AcDbLine
 10
0.062476039016671
 20
-1.014645171248517
 30
0.0
 11
0.062476039016671
 21
-1.044127185857919
 31
0.0
  0
LINE
  5
138
330
80
100
AcDbEntity
  8
0
100
AcDbLine
 10
0.062476039016671
 20
-1.044127185857917
 30
0.0
 11
-0.0624760390166745
 21
-1.079643848227968
 31
0.0
  0
LINE
  5
139
330
80
100
AcDbEntity
  8
0
100
AcDbLine
 10
-0.0624760390166728
 20
-1.050738508878469
 30
0.0
 11
-0.0994593600000009
 21
-1.029386178553217
 31
0.0
  0
LINE
  5
13A
330
80
100
AcDbEntity
  8
0
100
AcDbLine
 10
0.062476039016671
 20
-1.015221846508415
 30
0.0
 11
-0.0624760390166728
 21
-1.050738508878469
 31
0.0
  0
LINE
  5
13B
330
80
100
AcDbEntity
  8
0
100
AcDbLine
 10
-0.0624760390166745
 20
-1.080220523487868
 30
0.0
 11
-0.0624760390166728
 21
-1.050738508878467
 31
0.0
  0
LINE
  5
13C
330
80
100
AcDbEntity
  8
0
100
AcDbLine
 10
-0.0994593600000009
 20
-1.100996178553218
 30
0.0
 11
-0.0624760390166728
 21
-1.079643848227968
 31
0.0
  0
LINE
  5
13D
330
80
100
AcDbEntity
  8
0
100
AcDbLine
 10
0.0994593599999991
 20
-1.065479516183167
 30
0.0
 11
-0.0994593600000009
 21
-1.100996178553218
 31
0.0
  0
LINE
  5
13E
330
80
100
AcDbEntity
  8
0
100
AcDbLine
 10
0.0994593599999991
 20
-1.137089516183168
 30
0.0
 11
0.062476039016671
 21
-1.158441846508418
 31
0.0
  0
LINE
  5
13F
330
80
100
AcDbEntity
  8
0
100
AcDbLine
 10
0.062476039016671
 20
-1.115737185857918
 30
0.0
 11
0.0994593599999991
 21
-1.137089516183168
 31
0.0
  0
LINE
  5
140
330
80
100
AcDbEntity
  8
0
100
AcDbLine
 10
0.062476039016671
 20
-1.086255171248518
 30
0.0
 11
0.062476039016671
 21
-1.11573718585792
 31
0.0
  0
LINE
  5
141
330
80
100
AcDbEntity
  8
0
100
AcDbLine
 10
0.062476039016671
 20
-1.115737185857918
 30
0.0
 11
-0.0624760390166745
 21
-1.15125384822797
 31
0.0
  0
LINE
  5
142
330
80
100
AcDbEntity
  8
0
100
AcDbLine
 10
-0.0624760390166728
 20
-1.12234850887847
 30
0.0
 11
-0.0994593600000009
 21
-1.100996178553218
 31
0.0
  0
LINE
  5
143
330
80
100
AcDbEntity
  8
0
100
AcDbLine
 10
0.062476039016671
 20
-1.086831846508417
 30
0.0
 11
-0.0624760390166728
 21
-1.12234850887847
 31
0.0
  0
LINE
  5
144
330
80
100
AcDbEntity
  8
0
100
AcDbLine
 10
-0.0624760390166745
 20
-1.15183052348787
 30
0.0
 11
-0.0624760390166728
 21
-1.122348508878468
 31
0.0
  0
LINE
  5
145
330
80
100
AcDbEntity
  8
0
100
AcDbLine
 10
-0.0994593600000009
 20
-1.17260617855322
 30
0.0
 11
-0.0624760390166728
 21
-1.15125384822797
 31
0.0
  0
LINE
  5
146
330
80
100
AcDbEntity
  8
0
100
AcDbLine
 10
0.0994593599999991
 20
-1.137089516183168
 30
0.0
 11
-0.0994593600000009
 21
-1.17260617855322
 31
0.0
  0
LINE
  5
147
330
80
100
AcDbEntity
  8
0
100
AcDbLine
 10
0.0994593599999991
 20
-1.20869951618317
 30
0.0
 11
0.062476039016671
 21
-1.230051846508419
 31
0.0
  0
LINE
  5
148
330
80
100
AcDbEntity
  8
0
100
AcDbLine
 10
0.062476039016671
 20
-1.18734718585792
 30
0.0
 11
0.0994593599999991
 21
-1.20869951618317
 31
0.0
  0
LINE
  5
149
330
80
100
AcDbEntity
  8
0
100
AcDbLine
 10
0.062476039016671
 20
-1.15786517124852
 30
0.0
 11
0.062476039016671
 21
-1.187347185857921
 31
0.0
  0
LINE
  5
14A
330
80
100
AcDbEntity
  8
0
100
AcDbLine
 10
0.062476039016671
 20
-1.18734718585792
 30
0.0
 11
-0.0624760390166745
 21
-1.222863848227971
 31
0.0
  0
LINE
  5
14B
330
80
100
AcDbEntity
  8
0
100
AcDbLine
 10
-0.0624760390166728
 20
-1.193958508878472
 30
0.0
 11
-0.0994593600000009
 21
-1.17260617855322
 31
0.0
  0
LINE
  5
14C
330
80
100
AcDbEntity
  8
0
100
AcDbLine
 10
0.062476039016671
 20
-1.158441846508418
 30
0.0
 11
-0.0624760390166728
 21
-1.193958508878472
 31
0.0
  0
LINE
  5
14D
330
80
100
AcDbEntity
  8
0
100
AcDbLine
 10
-0.0624760390166745
 20
-1.223440523487872
 30
0.0
 11
-0.0624760390166728
 21
-1.19395850887847
 31
0.0
  0
LINE
  5
14E
330
80
100
AcDbEntity
  8
0
100
AcDbLine
 10
-0.0994593600000009
 20
-1.244216178553221
 30
0.0
 11
-0.0624760390166728
 21
-1.222863848227971
 31
0.0
  0
LINE
  5
14F
330
80
100
AcDbEntity
  8
0
100
AcDbLine
 10
0.0994593599999991
 20
-1.20869951618317
 30
0.0
 11
-0.0994593600000009
 21
-1.244216178553221
 31
0.0
  0
LINE
  5
150
330
80
100
AcDbEntity
  8
0
100
AcDbLine
 10
0.0994593599999991
 20
-1.566749516183176
 30
0.0
 11
0.062476039016671
 21
-1.588101846508426
 31
0.0
  0
LINE
  5
151
330
80
100
AcDbEntity
  8
0
100
AcDbLine
 10
0.062476039016671
 20
-1.545397185857927
 30
0.0
 11
0.0994593599999991
 21
-1.566749516183176
 31
0.0
  0
LINE
  5
152
330
80
100
AcDbEntity
  8
0
100
AcDbLine
 10
0.062476039016671
 20
-1.515915171248527
 30
0.0
 11
0.062476039016671
 21
-1.545397185857928
 31
0.0
  0
LINE
  5
153
330
80
100
AcDbEntity
  8
0
100
AcDbLine
 10
0.062476039016671
 20
-1.545397185857927
 30
0.0
 11
-0.0624760390166745
 21
-1.580913848227979
 31
0.0
  0
LINE
  5
154
330
80
100
AcDbEntity
  8
0
100
AcDbLine
 10
-0.0624760390166728
 20
-1.552008508878479
 30
0.0
 11
-0.0994593600000009
 21
-1.530656178553227
 31
0.0
  0
LINE
  5
155
330
80
100
AcDbEntity
  8
0
100
AcDbLine
 10
0.062476039016671
 20
-1.516491846508425
 30
0.0
 11
-0.0624760390166728
 21
-1.552008508878479
 31
0.0
  0
LINE
  5
156
330
80
100
AcDbEntity
  8
0
100
AcDbLine
 10
-0.0624760390166745
 20
-1.581490523487878
 30
0.0
 11
-0.0624760390166728
 21
-1.552008508878476
 31
0.0
  0
LINE
  5
157
330
80
100
AcDbEntity
  8
0
100
AcDbLine
 10
-0.0994593600000009
 20
-1.602266178553228
 30
0.0
 11
-0.0624760390166728
 21
-1.580913848227979
 31
0.0
  0
LINE
  5
158
330
80
100
AcDbEntity
  8
0
100
AcDbLine
 10
0.0994593599999991
 20
-1.566749516183176
 30
0.0
 11
-0.0994593600000009
 21
-1.602266178553228
 31
0.0
  0
LINE
  5
159
330
80
100
AcDbEntity
  8
0
100
AcDbLine
 10
0.0994593599999991
 20
-1.638359516183178
 30
0.0
 11
0.062476039016671
 21
-1.659711846508428
 31
0.0
  0
LINE
  5
15A
330
80
100
AcDbEntity
  8
0
100
AcDbLine
 10
0.062476039016671
 20
-1.617007185857928
 30
0.0
 11
0.0994593599999991
 21
-1.638359516183178
 31
0.0
  0
LINE
  5
15B
330
80
100
AcDbEntity
  8
0
100
AcDbLine
 10
0.062476039016671
 20
-1.587525171248528
 30
0.0
 11
0.062476039016671
 21
-1.61700718585793
 31
0.0
  0
LINE
  5
15C
330
80
100
AcDbEntity
  8
0
100
AcDbLine
 10
0.062476039016671
 20
-1.617007185857928
 30
0.0
 11
-0.0624760390166745
 21
-1.652523848227979
 31
0.0
  0
LINE
  5
15D
330
80
100
AcDbEntity
  8
0
100
AcDbLine
 10
-0.0624760390166728
 20
-1.62361850887848
 30
0.0
 11
-0.0994593600000009
 21
-1.602266178553228
 31
0.0
  0
LINE
  5
15E
330
80
100
AcDbEntity
  8
0
100
AcDbLine
 10
0.062476039016671
 20
-1.588101846508426
 30
0.0
 11
-0.0624760390166728
 21
-1.62361850887848
 31
0.0
  0
LINE
  5
15F
330
80
100
AcDbEntity
  8
0
100
AcDbLine
 10
-0.0624760390166745
 20
-1.65310052348788
 30
0.0
 11
-0.0624760390166728
 21
-1.623618508878478
 31
0.0
  0
LINE
  5
160
330
80
100
AcDbEntity
  8
0
100
AcDbLine
 10
-0.0994593600000009
 20
-1.673876178553229
 30
0.0
 11
-0.0624760390166728
 21
-1.652523848227979
 31
0.0
  0
LINE
  5
161
330
80
100
AcDbEntity
  8
0
100
AcDbLine
 10
0.0994593599999991
 20
-1.638359516183178
 30
0.0
 11
-0.0994593600000009
 21
-1.673876178553229
 31
0.0
  0
LINE
  5
162
330
80
100
AcDbEntity
  8
0
100
AcDbLine
 10
0.0991606806036529
 20
-1.781323020796657
 30
0.0
 11
0.0621773596203248
 21
-1.802675351121906
 31
0.0
  0
LINE
  5
163
330
80
100
AcDbEntity
  8
0
100
AcDbLine
 10
0.062476039016671
 20
-1.68861718585793
 30
0.0
 11
0.0994593599999991
 21
-1.709969516183179
 31
0.0
  0
LINE
  5
164
330
80
100
AcDbEntity
  8
0
100
AcDbLine
 10
0.062476039016671
 20
-1.65913517124853
 30
0.0
 11
0.062476039016671
 21
-1.688617185857931
 31
0.0
  0
LINE
  5
165
330
80
100
AcDbEntity
  8
0
100
AcDbLine
 10
0.062476039016671
 20
-1.68861718585793
 30
0.0
 11
-0.0624760390166745
 21
-1.724133848227981
 31
0.0
  0
LINE
  5
166
330
80
100
AcDbEntity
  8
0
100
AcDbLine
 10
-0.0624760390166728
 20
-1.695228508878481
 30
0.0
 11
-0.0994593600000009
 21
-1.673876178553229
 31
0.0
  0
LINE
  5
167
330
80
100
AcDbEntity
  8
0
100
AcDbLine
 10
0.062476039016671
 20
-1.659711846508428
 30
0.0
 11
-0.0624760390166728
 21
-1.695228508878481
 31
0.0
  0
LINE
  5
168
330
80
100
AcDbEntity
  8
0
100
AcDbLine
 10
-0.0624760390166745
 20
-1.724710523487881
 30
0.0
 11
-0.0624760390166728
 21
-1.695228508878479
 31
0.0
  0
LINE
  5
169
330
80
100
AcDbEntity
  8
0
100
AcDbLine
 10
-0.0994593600000009
 20
-1.745486178553231
 30
0.0
 11
-0.0624760390166728
 21
-1.724133848227981
 31
0.0
  0
LINE
  5
16A
330
80
100
AcDbEntity
  8
0
100
AcDbLine
 10
0.0991606806036529
 20
-1.781323020796657
 30
0.0
 11
-0.0997580393963471
 21
-1.816839683166708
 31
0.0
  0
LINE
  5
16B
330
80
100
AcDbEntity
  8
0
100
AcDbLine
 10
-0.062774718413019
 20
-1.83819201349196
 30
0.0
 11
-0.0997580393963471
 21
-1.816839683166708
 31
0.0
  0
LINE
  5
16C
330
80
100
AcDbEntity
  8
0
100
AcDbLine
 10
0.0621773596203248
 20
-1.802675351121906
 30
0.0
 11
-0.062774718413019
 21
-1.83819201349196
 31
0.0
  0
LINE
  5
16D
330
80
100
AcDbEntity
  8
0
100
AcDbLine
 10
-0.1434376223577907
 20
0.2324251306114302
 30
0.0
 11
0.1438992351422099
 21
0.2324251306114267
 31
0.0
  0
LINE
  5
16E
330
80
100
AcDbEntity
  8
1
100
AcDbLine
 10
-0.0656249807727516
 20
0.0
 30
0.0
 11
-0.0656249807727516
 21
0.0
 31
0.0
  0
LINE
  5
171
330
80
100
AcDbEntity
  8
0
100
AcDbLine
 10
0.2159062663922082
 20
0.125
 30
0.0
 11
0.2159062663922082
 21
0.1604180993614257
 31
0.0
  0
LINE
  5
172
330
80
100
AcDbEntity
  8
0
100
AcDbLine
 10
-0.2154446536077899
 20
0.125
 30
0.0
 11
-0.2154446536077899
 21
0.1604180993614275
 31
0.0
  0
LINE
  5
173
330
80
100
AcDbEntity
  8
0
100
AcDbLine
 10
-0.0000000000000018
 20
0.0
 30
0.0
 11
-0.0994593600000009
 21
0.0
 31
0.0
  0
LINE
  5
174
330
80
100
AcDbEntity
  8
0
100
AcDbLine
 10
-0.3039403194853296
 20
0.125
 30
0.0
 11
0.303509713563022
 21
0.125
 31
0.0
  0
ARC
  5
175
330
80
100
AcDbEntity
  8
0
100
AcDbCircle
 10
-0.1434376223577907
 20
0.1604180993614275
 30
0.0
 40
0.07200703125
100
AcDbArc
 50
89.99999999999973
 51
180.0
  0
ARC
  5
176
330
80
100
AcDbEntity
  8
0
100
AcDbCircle
 10
0.1438992351422099
 20
0.1604180993614275
 30
0.0
 40
0.07200703125
100
AcDbArc
 50
359.9999999999992
 51
89.99999999999968
  0
LINE
  5
177
330
80
100
AcDbEntity
  8
0
100
AcDbLine
 10
0.303509713563022
 20
0.0
 30
0.0
 11
0.303509713563022
 21
0.125
 31
0.0
  0
LINE
  5
178
330
80
100
AcDbEntity
  8
0
100
AcDbLine
 10
-0.3039403194853296
 20
0.0
 30
0.0
 11
-0.3039403194853296
 21
0.125
 31
0.0
  0
LINE
  5
179
330
80
100
AcDbEntity
  8
0
100
AcDbLine
 10
-0.0997580393963471
 20
-1.816839683166708
 30
0.0
 11
-0.062774718413019
 21
-1.795487352841458
 31
0.0
  0
LINE
  5
17A
330
80
100
AcDbEntity
  8
0
100
AcDbLine
 10
0.0621773596203248
 20
-1.759970690471407
 30
0.0
 11
-0.0627747184130207
 21
-1.795487352841458
 31
0.0
  0
LINE
  5
17B
330
80
100
AcDbEntity
  8
0
100
AcDbLine
 10
0.0621773596203248
 20
-1.759970690471407
 30
0.0
 11
0.0991606806036529
 21
-1.781323020796657
 31
0.0
  0
LINE
  5
17C
330
80
100
AcDbEntity
  8
0
100
AcDbLine
 10
-0.0627747184130207
 20
-1.796064028101359
 30
0.0
 11
-0.062774718413019
 21
-1.766582013491957
 31
0.0
  0
LINE
  5
17D
330
80
100
AcDbEntity
  8
0
100
AcDbLine
 10
-0.062774718413019
 20
-1.766582013491959
 30
0.0
 11
-0.0997580393963471
 21
-1.745229683166707
 31
0.0
  0
LINE
  5
17E
330
80
100
AcDbEntity
  8
0
100
AcDbLine
 10
0.0621773596203248
 20
-1.731065351121905
 30
0.0
 11
-0.062774718413019
 21
-1.766582013491959
 31
0.0
  0
LINE
  5
17F
330
80
100
AcDbEntity
  8
0
100
AcDbLine
 10
0.0991606806036529
 20
-1.709713020796656
 30
0.0
 11
0.0621773596203248
 21
-1.731065351121905
 31
0.0
  0
LINE
  5
180
330
80
100
AcDbEntity
  8
0
100
AcDbLine
 10
0.0621773596203248
 20
-1.730488675862007
 30
0.0
 11
0.0621773596203248
 21
-1.759970690471408
 31
0.0
  0
ENDBLK
  5
181
330
80
100
AcDbEntity
  8
5
100
AcDbBlockEnd
  0
BLOCK
  5
47A
330
479
100
AcDbEntity
  8
0
 62
     0
100
AcDbBlockBegin
  2
snap cap
 70
     0
 10
0.0
 20
0.0
 30
0.0
  3
snap cap
  1

  0
LINE
  5
47B
330
479
100
AcDbEntity
  8
0
  6
Continuous
 62
     0
100
AcDbLine
 10
3.145714331300393
 20
-46.31714604988745
 30
0.0
 11
4.983714331300394
 21
-46.31714604988744
 31
0.0
  0
LINE
  5
47C
330
479
100
AcDbEntity
  8
0
  6
Continuous
 62
     0
100
AcDbLine
 10
3.095714331300393
 20
-46.26714604988747
 30
0.0
 11
5.033714331300393
 21
-46.26714604988746
 31
0.0
  0
LINE
  5
47D
330
479
100
AcDbEntity
  8
0
  6
Continuous
 62
     0
100
AcDbLine
 10
3.064714331300393
 20
-46.29814604988747
 30
0.0
 11
3.064714331300393
 21
-46.70714604988748
 31
0.0
  0
ARC
  5
47E
330
479
100
AcDbEntity
  8
0
  6
Continuous
 62
     0
100
AcDbCircle
 10
3.095714331300393
 20
-46.29814604988747
 30
0.0
 40
0.031
100
AcDbArc
 50
90.0
 51
180.0
  0
LINE
  5
47F
330
479
100
AcDbEntity
  8
0
  6
Continuous
 62
     0
100
AcDbLine
 10
3.114714331300393
 20
-46.34814604988745
 30
0.0
 11
3.114714331300393
 21
-46.58076407737524
 31
0.0
  0
ARC
  5
480
330
479
100
AcDbEntity
  8
0
  6
Continuous
 62
     0
100
AcDbCircle
 10
3.145714331300393
 20
-46.34814604988745
 30
0.0
 40
0.031
100
AcDbArc
 50
90.0
 51
180.0
  0
LINE
  5
481
330
479
100
AcDbEntity
  8
0
  6
Continuous
 62
     0
100
AcDbLine
 10
3.123794021083609
 20
-46.60268438759201
 30
0.0
 11
3.136634641517211
 21
-46.61552500802561
 31
0.0
  0
ARC
  5
482
330
479
100
AcDbEntity
  8
0
  6
Continuous
 62
     0
100
AcDbCircle
 10
3.145714331300393
 20
-46.58076407737524
 30
0.0
 40
0.031
100
AcDbArc
 50
180.0
 51
224.9999999999965
  0
ARC
  5
483
330
479
100
AcDbEntity
  8
0
  6
Continuous
 62
     0
100
AcDbCircle
 10
3.074714331300393
 20
-46.70714604988748
 30
0.0
 40
0.01
100
AcDbArc
 50
180.0
 51
316.0213427048227
  0
LINE
  5
484
330
479
100
AcDbEntity
  8
0
  6
Continuous
 62
     0
100
AcDbLine
 10
3.08165823497902
 20
-46.71434203499738
 30
0.0
 11
3.136634641517211
 21
-46.65936562845918
 31
0.0
  0
ARC
  5
485
330
479
100
AcDbEntity
  8
0
  6
Continuous
 62
     0
100
AcDbCircle
 10
3.114714331300428
 20
-46.6374453182424
 30
0.0
 40
0.031
100
AcDbArc
 50
315.0000000000014
 51
44.99999999999857
  0
ARC
  5
486
330
479
100
AcDbEntity
  8
0
  6
Continuous
 62
     0
100
AcDbCircle
 10
5.014714331300359
 20
-46.6374453182424
 30
0.0
 40
0.031
100
AcDbArc
 50
135.0000000000014
 51
224.9999999999986
  0
LINE
  5
487
330
479
100
AcDbEntity
  8
0
  6
Continuous
 62
     0
100
AcDbLine
 10
5.047770427621767
 20
-46.71434203499738
 30
0.0
 11
4.992794021083575
 21
-46.65936562845918
 31
0.0
  0
ARC
  5
488
330
479
100
AcDbEntity
  8
0
  6
Continuous
 62
     0
100
AcDbCircle
 10
5.054714331300393
 20
-46.70714604988748
 30
0.0
 40
0.01
100
AcDbArc
 50
223.9786572951773
 51
0.000000000000007
  0
ARC
  5
489
330
479
100
AcDbEntity
  8
0
  6
Continuous
 62
     0
100
AcDbCircle
 10
4.983714331300394
 20
-46.58076407737524
 30
0.0
 40
0.031
100
AcDbArc
 50
315.0000000000035
 51
0.000000000000007
  0
LINE
  5
48A
330
479
100
AcDbEntity
  8
0
  6
Continuous
 62
     0
100
AcDbLine
 10
5.005634641517177
 20
-46.60268438759201
 30
0.0
 11
4.992794021083575
 21
-46.61552500802561
 31
0.0
  0
ARC
  5
48B
330
479
100
AcDbEntity
  8
0
  6
Continuous
 62
     0
100
AcDbCircle
 10
4.983714331300394
 20
-46.34814604988745
 30
0.0
 40
0.031
100
AcDbArc
 50
0.000000000000007
 51
90.0
  0
LINE
  5
48C
330
479
100
AcDbEntity
  8
0
  6
Continuous
 62
     0
100
AcDbLine
 10
5.014714331300394
 20
-46.34814604988745
 30
0.0
 11
5.014714331300393
 21
-46.58076407737524
 31
0.0
  0
ARC
  5
48D
330
479
100
AcDbEntity
  8
0
  6
Continuous
 62
     0
100
AcDbCircle
 10
5.033714331300393
 20
-46.29814604988747
 30
0.0
 40
0.031
100
AcDbArc
 50
0.000000000000007
 51
90.0
  0
LINE
  5
48E
330
479
100
AcDbEntity
  8
0
  6
Continuous
 62
     0
100
AcDbLine
 10
5.064714331300393
 20
-46.29814604988747
 30
0.0
 11
5.064714331300393
 21
-46.70714604988748
 31
0.0
  0
ENDBLK
  5
48F
330
479
100
AcDbEntity
  8
0
 62
     0
100
AcDbBlockEnd
  0
BLOCK
  5
44A
330
449
100
AcDbEntity
  8
0
 62
     0
100
AcDbBlockBegin
  2
pressure cap
 70
     0
 10
0.0
 20
0.0
 30
0.0
  3
pressure cap
  1

  0
LINE
  5
44B
330
449
100
AcDbEntity
  8
0
  6
Continuous
 62
     0
100
AcDbLine
 10
6.976665986441635
 20
-46.66162203570149
 30
0.0
 11
8.009178873382017
 21
-46.6616220357015
 31
0.0
  0
LINE
  5
44C
330
449
100
AcDbEntity
  8
0
  6
Continuous
 62
     0
100
AcDbLine
 10
6.872742937987508
 20
-46.74162203570149
 30
0.0
 11
8.11310192183614
 21
-46.7416220357015
 31
0.0
  0
LINE
  5
44D
330
449
100
AcDbEntity
  8
0
  6
Continuous
 62
     0
100
AcDbLine
 10
6.552002119695043
 20
-46.62554234591827
 30
0.0
 11
6.580515530222074
 21
-46.65881351943705
 31
0.0
  0
LINE
  5
44E
330
449
100
AcDbEntity
  8
0
  6
Continuous
 62
     0
100
AcDbLine
 10
6.582922429911826
 20
-46.66532080978546
 30
0.0
 11
6.582922429911825
 21
-46.73162203570149
 31
0.0
  0
ARC
  5
44F
330
449
100
AcDbEntity
  8
0
  6
Continuous
 62
     0
100
AcDbCircle
 10
6.572922429911827
 20
-46.66532080978546
 30
0.0
 40
0.01
100
AcDbArc
 50
359.9999999999992
 51
40.59659055174952
  0
LINE
  5
450
330
449
100
AcDbEntity
  8
0
  6
Continuous
 62
     0
100
AcDbLine
 10
6.592922429911824
 20
-46.74162203570149
 30
0.0
 11
6.713101921836137
 21
-46.74162203570149
 31
0.0
  0
ARC
  5
451
330
449
100
AcDbEntity
  8
0
  6
Continuous
 62
     0
100
AcDbCircle
 10
6.592922429911824
 20
-46.73162203570149
 30
0.0
 40
0.01
100
AcDbArc
 50
180.0
 51
270.0
  0
LINE
  5
452
330
449
100
AcDbEntity
  8
0
  6
Continuous
 62
     0
100
AcDbLine
 10
6.721762175873981
 20
-46.72662203570149
 30
0.0
 11
6.685100433780439
 21
-46.66312203570147
 31
0.0
  0
ARC
  5
453
330
449
100
AcDbEntity
  8
0
  6
Continuous
 62
     0
100
AcDbCircle
 10
6.713101921836136
 20
-46.73162203570149
 30
0.0
 40
0.01
100
AcDbArc
 50
270.0000000000027
 51
29.99999999999615
  0
LINE
  5
454
330
449
100
AcDbEntity
  8
0
  6
Continuous
 62
     0
100
AcDbLine
 10
6.864082683949663
 20
-46.72662203570149
 30
0.0
 11
6.900744426043207
 21
-46.66312203570148
 31
0.0
  0
ARC
  5
455
330
449
100
AcDbEntity
  8
0
  6
Continuous
 62
     0
100
AcDbCircle
 10
6.872742937987508
 20
-46.73162203570149
 30
0.0
 40
0.01
100
AcDbArc
 50
150.0000000000035
 51
269.9999999999996
  0
LINE
  5
456
330
449
100
AcDbEntity
  8
0
  6
Continuous
 62
     0
100
AcDbLine
 10
6.96800573240379
 20
-46.64662203570149
 30
0.0
 11
6.987346966421641
 21
-46.61312203570149
 31
0.0
  0
ARC
  5
457
330
449
100
AcDbEntity
  8
0
  6
Continuous
 62
     0
100
AcDbCircle
 10
6.976665986441635
 20
-46.65162203570149
 30
0.0
 40
0.01
100
AcDbArc
 50
150.0000000000008
 51
269.9999999999993
  0
LINE
  5
458
330
449
100
AcDbEntity
  8
0
  6
Continuous
 62
     0
100
AcDbLine
 10
6.691119963552688
 20
-46.56662203570146
 30
0.0
 11
6.960500178904323
 21
-46.56662203570149
 31
0.0
  0
LINE
  5
459
330
449
100
AcDbEntity
  8
0
  6
Continuous
 62
     0
100
AcDbLine
 10
6.66011996355269
 20
-46.39762203570149
 30
0.0
 11
6.660119963552691
 21
-46.53562203570146
 31
0.0
  0
ARC
  5
45A
330
449
100
AcDbEntity
  8
0
  6
Continuous
 62
     0
100
AcDbCircle
 10
6.691119963552691
 20
-46.53562203570146
 30
0.0
 40
0.031
100
AcDbArc
 50
179.9999999999997
 51
269.9999999999946
  0
ARC
  5
45B
330
449
100
AcDbEntity
  8
0
  6
Continuous
 62
     0
100
AcDbCircle
 10
6.960500178904322
 20
-46.59762203570148
 30
0.0
 40
0.031
100
AcDbArc
 50
330.0000000000001
 51
89.99999999999849
  0
ARC
  5
45C
330
449
100
AcDbEntity
  8
0
  6
Continuous
 62
     0
100
AcDbCircle
 10
6.711947221297757
 20
-46.64762203570147
 30
0.0
 40
0.031
100
AcDbArc
 50
90.0
 51
209.9999999999984
  0
ARC
  5
45D
330
449
100
AcDbEntity
  8
0
  6
Continuous
 62
     0
100
AcDbCircle
 10
6.873897638525889
 20
-46.64762203570147
 30
0.0
 40
0.031
100
AcDbArc
 50
330.0000000000001
 51
89.99999999999849
  0
LINE
  5
45E
330
449
100
AcDbEntity
  8
0
  6
Continuous
 62
     0
100
AcDbLine
 10
6.711947221297757
 20
-46.61662203570148
 30
0.0
 11
6.87389763852589
 21
-46.61662203570148
 31
0.0
  0
LINE
  5
45F
330
449
100
AcDbEntity
  8
0
  6
Continuous
 62
     0
100
AcDbLine
 10
6.543978729296862
 20
-46.59559864530332
 30
0.0
 11
6.599176262937731
 21
-46.3895986453033
 31
0.0
  0
ARC
  5
460
330
449
100
AcDbEntity
  8
0
  6
Continuous
 62
     0
100
AcDbCircle
 10
6.629119963552691
 20
-46.39762203570149
 30
0.0
 40
0.031
100
AcDbArc
 50
0.0
 51
164.9999999999832
  0
ARC
  5
461
330
449
100
AcDbEntity
  8
0
  6
Continuous
 62
     0
100
AcDbCircle
 10
6.573922429911825
 20
-46.60362203570149
 30
0.0
 40
0.031
100
AcDbArc
 50
164.9999999999845
 51
224.999999999971
  0
ARC
  5
462
330
449
100
AcDbEntity
  8
0
  6
Continuous
 62
     0
100
AcDbCircle
 10
8.411922429911829
 20
-46.60362203570153
 30
0.0
 40
0.031
100
AcDbArc
 50
315.0000000000265
 51
15.00000000001299
  0
ARC
  5
463
330
449
100
AcDbEntity
  8
0
  6
Continuous
 62
     0
100
AcDbCircle
 10
8.356724896270973
 20
-46.39762203570152
 30
0.0
 40
0.031
100
AcDbArc
 50
15.00000000001426
 51
179.9999999999974
  0
LINE
  5
464
330
449
100
AcDbEntity
  8
0
  6
Continuous
 62
     0
100
AcDbLine
 10
8.441866130526793
 20
-46.59559864530335
 30
0.0
 11
8.386668596885932
 21
-46.38959864530334
 31
0.0
  0
LINE
  5
465
330
449
100
AcDbEntity
  8
0
  6
Continuous
 62
     0
100
AcDbLine
 10
8.273897638525898
 20
-46.61662203570151
 30
0.0
 11
8.111947221297764
 21
-46.61662203570151
 31
0.0
  0
ARC
  5
466
330
449
100
AcDbEntity
  8
0
  6
Continuous
 62
     0
100
AcDbCircle
 10
8.111947221297764
 20
-46.64762203570151
 30
0.0
 40
0.031
100
AcDbArc
 50
89.99999999999896
 51
209.9999999999973
  0
ARC
  5
467
330
449
100
AcDbEntity
  8
0
  6
Continuous
 62
     0
100
AcDbCircle
 10
8.273897638525896
 20
-46.64762203570151
 30
0.0
 40
0.031
100
AcDbArc
 50
329.999999999999
 51
89.99999999999747
  0
ARC
  5
468
330
449
100
AcDbEntity
  8
0
  6
Continuous
 62
     0
100
AcDbCircle
 10
8.025344680919333
 20
-46.59762203570151
 30
0.0
 40
0.031
100
AcDbArc
 50
89.99999999999896
 51
209.9999999999973
  0
ARC
  5
469
330
449
100
AcDbEntity
  8
0
  6
Continuous
 62
     0
100
AcDbCircle
 10
8.294724896270967
 20
-46.5356220357015
 30
0.0
 40
0.031
100
AcDbArc
 50
270.0000000000029
 51
359.9999999999978
  0
LINE
  5
46A
330
449
100
AcDbEntity
  8
0
  6
Continuous
 62
     0
100
AcDbLine
 10
8.325724896270973
 20
-46.39762203570152
 30
0.0
 11
8.325724896270966
 21
-46.5356220357015
 31
0.0
  0
LINE
  5
46B
330
449
100
AcDbEntity
  8
0
  6
Continuous
 62
     0
100
AcDbLine
 10
8.294724896270968
 20
-46.56662203570149
 30
0.0
 11
8.025344680919333
 21
-46.56662203570152
 31
0.0
  0
ARC
  5
46C
330
449
100
AcDbEntity
  8
0
  6
Continuous
 62
     0
100
AcDbCircle
 10
8.009178873382017
 20
-46.65162203570151
 30
0.0
 40
0.01
100
AcDbArc
 50
269.9999999999983
 51
29.99999999999664
  0
LINE
  5
46D
330
449
100
AcDbEntity
  8
0
  6
Continuous
 62
     0
100
AcDbLine
 10
8.017839127419863
 20
-46.64662203570151
 30
0.0
 11
7.998497893402013
 21
-46.61312203570151
 31
0.0
  0
ARC
  5
46E
330
449
100
AcDbEntity
  8
0
  6
Continuous
 62
     0
100
AcDbCircle
 10
8.11310192183614
 20
-46.73162203570152
 30
0.0
 40
0.01
100
AcDbArc
 50
269.9999999999978
 51
29.99999999999392
  0
LINE
  5
46F
330
449
100
AcDbEntity
  8
0
  6
Continuous
 62
     0
100
AcDbLine
 10
8.121762175873985
 20
-46.72662203570151
 30
0.0
 11
8.085100433780446
 21
-46.66312203570151
 31
0.0
  0
ARC
  5
470
330
449
100
AcDbEntity
  8
0
  6
Continuous
 62
     0
100
AcDbCircle
 10
8.272742937987512
 20
-46.73162203570153
 30
0.0
 40
0.01
100
AcDbArc
 50
150.0000000000013
 51
269.9999999999947
  0
LINE
  5
471
330
449
100
AcDbEntity
  8
0
  6
Continuous
 62
     0
100
AcDbLine
 10
8.26408268394967
 20
-46.72662203570152
 30
0.0
 11
8.300744426043213
 21
-46.66312203570151
 31
0.0
  0
ARC
  5
472
330
449
100
AcDbEntity
  8
0
  6
Continuous
 62
     0
100
AcDbCircle
 10
8.392922429911823
 20
-46.73162203570153
 30
0.0
 40
0.01
100
AcDbArc
 50
269.9999999999974
 51
359.9999999999974
  0
LINE
  5
473
330
449
100
AcDbEntity
  8
0
  6
Continuous
 62
     0
100
AcDbLine
 10
8.392922429911823
 20
-46.74162203570153
 30
0.0
 11
8.272742937987512
 21
-46.74162203570152
 31
0.0
  0
ARC
  5
474
330
449
100
AcDbEntity
  8
0
  6
Continuous
 62
     0
100
AcDbCircle
 10
8.412922429911827
 20
-46.66532080978551
 30
0.0
 40
0.01
100
AcDbArc
 50
139.4034094482479
 51
179.9999999999982
  0
LINE
  5
475
330
449
100
AcDbEntity
  8
0
  6
Continuous
 62
     0
100
AcDbLine
 10
8.402922429911825
 20
-46.66532080978551
 30
0.0
 11
8.402922429911825
 21
-46.73162203570153
 31
0.0
  0
LINE
  5
476
330
449
100
AcDbEntity
  8
0
  6
Continuous
 62
     0
100
AcDbLine
 10
8.433842740128611
 20
-46.62554234591832
 30
0.0
 11
8.405329329601578
 21
-46.65881351943709
 31
0.0
  0
ENDBLK
  5
477
330
449
100
AcDbEntity
  8
0
 62
     0
100
AcDbBlockEnd
  0
BLOCK
  5
228
330
227
100
AcDbEntity
  8
0
 62
     0
100
AcDbBlockBegin
  2
purlin screw race
 70
     0
 10
0.0
 20
0.0
 30
0.0
  3
purlin screw race
  1

  0
LINE
  5
229
330
227
100
AcDbEntity
  8
0
  6
Continuous
 62
     0
100
AcDbLine
 10
0.8747937173355071
 20
-48.745771069793
 30
0.0
 11
0.8747937173355067
 21
-50.161771069793
 31
0.0
  0
LINE
  5
22A
330
227
100
AcDbEntity
  8
0
  6
Continuous
 62
     0
100
AcDbLine
 10
-1.125206282664493
 20
-48.74577106979299
 30
0.0
 11
-1.125206282664492
 21
-50.161771069793
 31
0.0
  0
LINE
  5
22B
330
227
100
AcDbEntity
  8
0
  6
Continuous
 62
     0
100
AcDbLine
 10
0.749793717335507
 20
-48.99577106979299
 30
0.0
 11
0.749793717335507
 21
-50.29677106979298
 31
0.0
  0
LINE
  5
22C
330
227
100
AcDbEntity
  8
0
  6
Continuous
 62
     0
100
AcDbLine
 10
0.1247937173355069
 20
-48.995771069793
 30
0.0
 11
0.1247937173355069
 21
-49.788771069793
 31
0.0
  0
LINE
  5
22D
330
227
100
AcDbEntity
  8
0
  6
Continuous
 62
     0
100
AcDbLine
 10
-0.375206282664493
 20
-48.995771069793
 30
0.0
 11
-0.375206282664493
 21
-49.78877106979299
 31
0.0
  0
LINE
  5
22E
330
227
100
AcDbEntity
  8
0
  6
Continuous
 62
     0
100
AcDbLine
 10
-1.000206282664493
 20
-48.99577106979299
 30
0.0
 11
-1.000206282664493
 21
-50.29677106979298
 31
0.0
  0
LINE
  5
22F
330
227
100
AcDbEntity
  8
0
  6
Continuous
 62
     0
100
AcDbLine
 10
-0.2232062826644996
 20
-49.53295306362354
 30
0.0
 11
-0.2232062826644996
 21
-49.53895306362355
 31
0.0
  0
LINE
  5
230
330
227
100
AcDbEntity
  8
0
  6
Continuous
 62
     0
100
AcDbLine
 10
-0.0002062826645071
 20
-49.52954152089167
 30
0.0
 11
-0.0002062826645072
 21
-49.54236460635545
 31
0.0
  0
LINE
  5
231
330
227
100
AcDbEntity
  8
0
  6
Continuous
 62
     0
100
AcDbLine
 10
-1.092442565599664
 20
-50.60324241720653
 30
0.0
 11
-1.001222833078732
 21
-50.42076273556553
 31
0.0
  0
LINE
  5
232
330
227
100
AcDbEntity
  8
0
  6
Continuous
 62
     0
100
AcDbLine
 10
-1.10138723173694
 20
-50.60877106979298
 30
0.0
 11
-1.11520628266449
 21
-50.60877106979297
 31
0.0
  0
ARC
  5
233
330
227
100
AcDbEntity
  8
0
  6
Continuous
 62
     0
100
AcDbCircle
 10
-1.10138723173694
 20
-50.59877106979299
 30
0.0
 40
0.01
100
AcDbArc
 50
270.0
 51
333.439999999999
  0
LINE
  5
234
330
227
100
AcDbEntity
  8
0
  6
Continuous
 62
     0
100
AcDbLine
 10
-1.125206282664492
 20
-50.18177106979298
 30
0.0
 11
-1.125206282664492
 21
-50.59877106979298
 31
0.0
  0
ARC
  5
235
330
227
100
AcDbEntity
  8
0
  6
Continuous
 62
     0
100
AcDbCircle
 10
-1.115206282664492
 20
-50.59877106979298
 30
0.0
 40
0.01
100
AcDbArc
 50
180.0
 51
270.0000000000135
  0
ARC
  5
236
330
227
100
AcDbEntity
  8
0
  6
Continuous
 62
     0
100
AcDbCircle
 10
-1.000206282664492
 20
-50.35877106979298
 30
0.0
 40
0.062
100
AcDbArc
 50
90.00000000000019
 51
269.0605377690504
  0
LINE
  5
237
330
227
100
AcDbEntity
  8
0
  6
Continuous
 62
     0
100
AcDbLine
 10
-1.115206282664493
 20
-50.171771069793
 30
0.0
 11
-1.125206282664493
 21
-50.161771069793
 31
0.0
  0
LINE
  5
238
330
227
100
AcDbEntity
  8
0
  6
Continuous
 62
     0
100
AcDbLine
 10
-1.115206282664493
 20
-50.171771069793
 30
0.0
 11
-1.125206282664493
 21
-50.18177106979298
 31
0.0
  0
LINE
  5
239
330
227
100
AcDbEntity
  8
0
  6
Continuous
 62
     0
100
AcDbLine
 10
-0.3652062826644932
 20
-49.79877106979299
 30
0.0
 11
0.1147937173355067
 21
-49.798771069793
 31
0.0
  0
ARC
  5
23A
330
227
100
AcDbEntity
  8
0
  6
Continuous
 62
     0
100
AcDbCircle
 10
0.1147937173355069
 20
-49.788771069793
 30
0.0
 40
0.01
100
AcDbArc
 50
269.9999999999992
 51
0.0
  0
ARC
  5
23B
330
227
100
AcDbEntity
  8
0
  6
Continuous
 62
     0
100
AcDbCircle
 10
-0.365206282664493
 20
-49.78877106979299
 30
0.0
 40
0.01
100
AcDbArc
 50
180.0
 51
269.9999999999992
  0
LINE
  5
23C
330
227
100
AcDbEntity
  8
0
  6
Continuous
 62
     0
100
AcDbLine
 10
-0.2391099624937373
 20
-49.67377106979299
 30
0.0
 11
-0.0102009971499533
 21
-49.67377106979299
 31
0.0
  0
LINE
  5
23D
330
227
100
AcDbEntity
  8
0
  6
Continuous
 62
     0
100
AcDbLine
 10
-0.2391099624937373
 20
-49.67377106979299
 30
0.0
 11
-0.2502062826644986
 21
-49.6673646063554
 31
0.0
  0
LINE
  5
23E
330
227
100
AcDbEntity
  8
0
  6
Continuous
 62
     0
100
AcDbLine
 10
-0.2502062826644873
 20
-49.65454152089162
 30
0.0
 11
-0.2502062826644871
 21
-49.66736460635541
 31
0.0
  0
LINE
  5
23F
330
227
100
AcDbEntity
  8
0
  6
Continuous
 62
     0
100
AcDbLine
 10
-0.2232062826644913
 20
-49.58295306362354
 30
0.0
 11
-0.2232062826644913
 21
-49.58895306362354
 31
0.0
  0
LINE
  5
240
330
227
100
AcDbEntity
  8
0
  6
Continuous
 62
     0
100
AcDbLine
 10
-0.2232062826645003
 20
-49.63295306362352
 30
0.0
 11
-0.2232062826645003
 21
-49.63895306362353
 31
0.0
  0
LINE
  5
241
330
227
100
AcDbEntity
  8
0
  6
Continuous
 62
     0
100
AcDbLine
 10
-0.2232062826644989
 20
-49.63895306362353
 30
0.0
 11
-0.2502062826644993
 21
-49.65454152089164
 31
0.0
  0
LINE
  5
242
330
227
100
AcDbEntity
  8
0
  6
Continuous
 62
     0
100
AcDbLine
 10
-0.2232062826644989
 20
-49.63295306362352
 30
0.0
 11
-0.2502062826644993
 21
-49.61736460635541
 31
0.0
  0
LINE
  5
243
330
227
100
AcDbEntity
  8
0
  6
Continuous
 62
     0
100
AcDbLine
 10
-0.2232062826644996
 20
-49.53895306362355
 30
0.0
 11
-0.2502062826645
 21
-49.55454152089166
 31
0.0
  0
LINE
  5
244
330
227
100
AcDbEntity
  8
0
  6
Continuous
 62
     0
100
AcDbLine
 10
-0.2232062826644996
 20
-49.58295306362353
 30
0.0
 11
-0.2502062826645
 21
-49.56736460635542
 31
0.0
  0
LINE
  5
245
330
227
100
AcDbEntity
  8
0
  6
Continuous
 62
     0
100
AcDbLine
 10
-0.2232062826644996
 20
-49.58895306362354
 30
0.0
 11
-0.2502062826645
 21
-49.60454152089165
 31
0.0
  0
LINE
  5
246
330
227
100
AcDbEntity
  8
0
  6
Continuous
 62
     0
100
AcDbLine
 10
-0.250206282664488
 20
-49.60454152089163
 30
0.0
 11
-0.2502062826644877
 21
-49.61736460635542
 31
0.0
  0
LINE
  5
247
330
227
100
AcDbEntity
  8
0
  6
Continuous
 62
     0
100
AcDbLine
 10
-0.2502062826644886
 20
-49.55454152089164
 30
0.0
 11
-0.2502062826644884
 21
-49.56736460635543
 31
0.0
  0
LINE
  5
248
330
227
100
AcDbEntity
  8
0
  6
Continuous
 62
     0
100
AcDbLine
 10
-0.0002062826645078
 20
-49.57954152089165
 30
0.0
 11
-0.000206282664508
 21
-49.59236460635543
 31
0.0
  0
LINE
  5
249
330
227
100
AcDbEntity
  8
0
  6
Continuous
 62
     0
100
AcDbLine
 10
-0.0002062826645085
 20
-49.62954152089164
 30
0.0
 11
-0.0002062826645087
 21
-49.64236460635542
 31
0.0
  0
LINE
  5
24A
330
227
100
AcDbEntity
  8
0
  6
Continuous
 62
     0
100
AcDbLine
 10
-0.0272062826644967
 20
-49.66395306362353
 30
0.0
 11
-0.0102009971499585
 21
-49.67377106979299
 31
0.0
  0
LINE
  5
24B
330
227
100
AcDbEntity
  8
0
  6
Continuous
 62
     0
100
AcDbLine
 10
-0.0272062826644967
 20
-49.65795306362353
 30
0.0
 11
-0.0002062826644964
 21
-49.64236460635541
 31
0.0
  0
LINE
  5
24C
330
227
100
AcDbEntity
  8
0
  6
Continuous
 62
     0
100
AcDbLine
 10
-0.0272062826644967
 20
-49.65795306362353
 30
0.0
 11
-0.0272062826644967
 21
-49.66395306362353
 31
0.0
  0
LINE
  5
24D
330
227
100
AcDbEntity
  8
0
  6
Continuous
 62
     0
100
AcDbLine
 10
-0.0272062826644967
 20
-49.61395306362354
 30
0.0
 11
-0.0002062826644964
 21
-49.62954152089166
 31
0.0
  0
LINE
  5
24E
330
227
100
AcDbEntity
  8
0
  6
Continuous
 62
     0
100
AcDbLine
 10
-0.0272062826644967
 20
-49.60795306362354
 30
0.0
 11
-0.0002062826644964
 21
-49.59236460635542
 31
0.0
  0
LINE
  5
24F
330
227
100
AcDbEntity
  8
0
  6
Continuous
 62
     0
100
AcDbLine
 10
-0.0272062826644967
 20
-49.60795306362354
 30
0.0
 11
-0.0272062826644967
 21
-49.61395306362354
 31
0.0
  0
LINE
  5
250
330
227
100
AcDbEntity
  8
0
  6
Continuous
 62
     0
100
AcDbLine
 10
-0.0272062826644967
 20
-49.55795306362355
 30
0.0
 11
-0.0272062826644967
 21
-49.56395306362355
 31
0.0
  0
LINE
  5
251
330
227
100
AcDbEntity
  8
0
  6
Continuous
 62
     0
100
AcDbLine
 10
-0.0272062826644967
 20
-49.55795306362355
 30
0.0
 11
-0.0002062826644964
 21
-49.54236460635543
 31
0.0
  0
LINE
  5
252
330
227
100
AcDbEntity
  8
0
  6
Continuous
 62
     0
100
AcDbLine
 10
-0.0272062826644967
 20
-49.56395306362355
 30
0.0
 11
-0.0002062826644964
 21
-49.57954152089167
 31
0.0
  0
LINE
  5
253
330
227
100
AcDbEntity
  8
0
  6
Continuous
 62
     0
100
AcDbLine
 10
0.8647937173355069
 20
-50.171771069793
 30
0.0
 11
0.8747937173355069
 21
-50.18177106979298
 31
0.0
  0
LINE
  5
254
330
227
100
AcDbEntity
  8
0
  6
Continuous
 62
     0
100
AcDbLine
 10
0.8647937173355069
 20
-50.171771069793
 30
0.0
 11
0.8747937173355069
 21
-50.161771069793
 31
0.0
  0
ARC
  5
255
330
227
100
AcDbEntity
  8
0
  6
Continuous
 62
     0
100
AcDbCircle
 10
0.7497937173355068
 20
-50.35877106979298
 30
0.0
 40
0.062
100
AcDbArc
 50
270.9394622309496
 51
89.99999999999982
  0
ARC
  5
256
330
227
100
AcDbEntity
  8
0
  6
Continuous
 62
     0
100
AcDbCircle
 10
0.8647937173355067
 20
-50.59877106979298
 30
0.0
 40
0.01
100
AcDbArc
 50
269.9999999999865
 51
0.000000000000007
  0
LINE
  5
257
330
227
100
AcDbEntity
  8
0
  6
Continuous
 62
     0
100
AcDbLine
 10
0.8747937173355067
 20
-50.18177106979298
 30
0.0
 11
0.8747937173355067
 21
-50.59877106979298
 31
0.0
  0
ARC
  5
258
330
227
100
AcDbEntity
  8
0
  6
Continuous
 62
     0
100
AcDbCircle
 10
0.8509746664079539
 20
-50.59877106979299
 30
0.0
 40
0.01
100
AcDbArc
 50
206.560000000001
 51
270.0
  0
LINE
  5
259
330
227
100
AcDbEntity
  8
0
  6
Continuous
 62
     0
100
AcDbLine
 10
0.8509746664079539
 20
-50.60877106979298
 30
0.0
 11
0.8647937173355042
 21
-50.60877106979297
 31
0.0
  0
LINE
  5
25A
330
227
100
AcDbEntity
  8
0
  6
Continuous
 62
     0
100
AcDbLine
 10
0.8420300002706785
 20
-50.60324241720653
 30
0.0
 11
0.7508102677497459
 21
-50.42076273556553
 31
0.0
  0
LINE
  5
25B
330
227
100
AcDbEntity
  8
0
  6
Continuous
 62
     0
100
AcDbLine
 10
-0.6152062826644933
 20
-48.86077106979299
 30
0.0
 11
-0.2502062826644984
 21
-48.860771069793
 31
0.0
  0
LINE
  5
25C
330
227
100
AcDbEntity
  8
0
  6
Continuous
 62
     0
100
AcDbLine
 10
-0.9902062826644931
 20
-48.98577106979299
 30
0.0
 11
-0.385206282664493
 21
-48.985771069793
 31
0.0
  0
LINE
  5
25D
330
227
100
AcDbEntity
  8
0
  6
Continuous
 62
     0
100
AcDbLine
 10
-0.7807062826644933
 20
-48.735771069793
 30
0.0
 11
-0.6352062826644933
 21
-48.73577106979301
 31
0.0
  0
LINE
  5
25E
330
227
100
AcDbEntity
  8
0
  6
Continuous
 62
     0
100
AcDbLine
 10
-0.6252062826644932
 20
-48.745771069793
 30
0.0
 11
-0.6252062826644931
 21
-48.85077106979299
 31
0.0
  0
ARC
  5
25F
330
227
100
AcDbEntity
  8
0
  6
Continuous
 62
     0
100
AcDbCircle
 10
-0.6352062826644933
 20
-48.745771069793
 30
0.0
 40
0.01
100
AcDbArc
 50
0.0
 51
90.0
  0
LINE
  5
260
330
227
100
AcDbEntity
  8
0
  6
Continuous
 62
     0
100
AcDbLine
 10
-1.115206282664493
 20
-48.735771069793
 30
0.0
 11
-0.9697062826644931
 21
-48.73577106979299
 31
0.0
  0
ARC
  5
261
330
227
100
AcDbEntity
  8
0
  6
Continuous
 62
     0
100
AcDbCircle
 10
-1.115206282664493
 20
-48.74577106979299
 30
0.0
 40
0.01
100
AcDbArc
 50
90.00000000000261
 51
180.0
  0
ARC
  5
262
330
227
100
AcDbEntity
  8
0
  6
Continuous
 62
     0
100
AcDbCircle
 10
-0.6152062826644931
 20
-48.85077106979299
 30
0.0
 40
0.01
100
AcDbArc
 50
180.0
 51
269.9999999999989
  0
ARC
  5
263
330
227
100
AcDbEntity
  8
0
  6
Continuous
 62
     0
100
AcDbCircle
 10
-0.9902062826644932
 20
-48.99577106979299
 30
0.0
 40
0.01
100
AcDbArc
 50
89.99999999999934
 51
180.0
  0
LINE
  5
264
330
227
100
AcDbEntity
  8
0
  6
Continuous
 62
     0
100
AcDbLine
 10
-0.937706282664493
 20
-48.76777106979298
 30
0.0
 11
-0.9377062826644932
 21
-48.785771069793
 31
0.0
  0
ARC
  5
265
330
227
100
AcDbEntity
  8
0
  6
Continuous
 62
     0
100
AcDbCircle
 10
-0.9697062826644931
 20
-48.76777106979298
 30
0.0
 40
0.032
100
AcDbArc
 50
0.0
 51
90.0
  0
LINE
  5
266
330
227
100
AcDbEntity
  8
0
  6
Continuous
 62
     0
100
AcDbLine
 10
-0.8127062826644932
 20
-48.76777106979299
 30
0.0
 11
-0.8127062826644932
 21
-48.785771069793
 31
0.0
  0
ARC
  5
267
330
227
100
AcDbEntity
  8
0
  6
Continuous
 62
     0
100
AcDbCircle
 10
-0.7807062826644933
 20
-48.76777106979299
 30
0.0
 40
0.032
100
AcDbArc
 50
90.0
 51
180.0
  0
LINE
  5
268
330
227
100
AcDbEntity
  8
0
  6
Continuous
 62
     0
100
AcDbLine
 10
-0.7752062826644933
 20
-48.785771069793
 30
0.0
 11
-0.7752062826644934
 21
-48.86296905973005
 31
0.0
  0
LINE
  5
269
330
227
100
AcDbEntity
  8
0
  6
Continuous
 62
     0
100
AcDbLine
 10
-0.975206282664493
 20
-48.785771069793
 30
0.0
 11
-0.9752062826644928
 21
-48.86296905973005
 31
0.0
  0
ARC
  5
26A
330
227
100
AcDbEntity
  8
0
  6
Continuous
 62
     0
100
AcDbCircle
 10
-0.875206282664493
 20
-48.70377106979299
 30
0.0
 40
0.188
100
AcDbArc
 50
237.8650719958524
 51
302.1349280041475
  0
LINE
  5
26B
330
227
100
AcDbEntity
  8
0
  6
Continuous
 62
     0
100
AcDbLine
 10
-0.8127062826644932
 20
-48.785771069793
 30
0.0
 11
-0.7752062826644933
 21
-48.785771069793
 31
0.0
  0
LINE
  5
26C
330
227
100
AcDbEntity
  8
0
  6
Continuous
 62
     0
100
AcDbLine
 10
-0.975206282664493
 20
-48.785771069793
 30
0.0
 11
-0.9377062826644932
 21
-48.785771069793
 31
0.0
  0
LINE
  5
26D
330
227
100
AcDbEntity
  8
0
  6
Continuous
 62
     0
100
AcDbLine
 10
0.8647937173355074
 20
-48.73577106979301
 30
0.0
 11
0.719293717335507
 21
-48.73577106979299
 31
0.0
  0
ARC
  5
26E
330
227
100
AcDbEntity
  8
0
  6
Continuous
 62
     0
100
AcDbCircle
 10
0.8647937173355069
 20
-48.745771069793
 30
0.0
 40
0.01
100
AcDbArc
 50
0.0
 51
89.99999999999738
  0
LINE
  5
26F
330
227
100
AcDbEntity
  8
0
  6
Continuous
 62
     0
100
AcDbLine
 10
0.374793717335507
 20
-48.745771069793
 30
0.0
 11
0.374793717335507
 21
-48.850771069793
 31
0.0
  0
LINE
  5
270
330
227
100
AcDbEntity
  8
0
  6
Continuous
 62
     0
100
AcDbLine
 10
0.5302937173355071
 20
-48.735771069793
 30
0.0
 11
0.3847937173355071
 21
-48.73577106979301
 31
0.0
  0
ARC
  5
271
330
227
100
AcDbEntity
  8
0
  6
Continuous
 62
     0
100
AcDbCircle
 10
0.3847937173355071
 20
-48.745771069793
 30
0.0
 40
0.01
100
AcDbArc
 50
90.0
 51
180.0
  0
LINE
  5
272
330
227
100
AcDbEntity
  8
0
  6
Continuous
 62
     0
100
AcDbLine
 10
-0.0002062826644976
 20
-48.860771069793
 30
0.0
 11
0.364793717335507
 21
-48.860771069793
 31
0.0
  0
ARC
  5
273
330
227
100
AcDbEntity
  8
0
  6
Continuous
 62
     0
100
AcDbCircle
 10
0.364793717335507
 20
-48.850771069793
 30
0.0
 40
0.01
100
AcDbArc
 50
270.0
 51
0.0
  0
LINE
  5
274
330
227
100
AcDbEntity
  8
0
  6
Continuous
 62
     0
100
AcDbLine
 10
0.1347937173355068
 20
-48.98577106979301
 30
0.0
 11
0.7397937173355067
 21
-48.98577106979299
 31
0.0
  0
ARC
  5
275
330
227
100
AcDbEntity
  8
0
  6
Continuous
 62
     0
100
AcDbCircle
 10
0.739793717335507
 20
-48.99577106979299
 30
0.0
 40
0.01
100
AcDbArc
 50
0.0
 51
90.00000000000133
  0
ARC
  5
276
330
227
100
AcDbEntity
  8
0
  6
Continuous
 62
     0
100
AcDbCircle
 10
0.1347937173355069
 20
-48.995771069793
 30
0.0
 40
0.01
100
AcDbArc
 50
90.00000000000063
 51
180.0
  0
ARC
  5
277
330
227
100
AcDbEntity
  8
0
  6
Continuous
 62
     0
100
AcDbCircle
 10
-0.385206282664493
 20
-48.995771069793
 30
0.0
 40
0.01
100
AcDbArc
 50
0.0
 51
90.0
  0
LINE
  5
278
330
227
100
AcDbEntity
  8
0
  6
Continuous
 62
     0
100
AcDbLine
 10
-0.2502062826644984
 20
-48.86718261252487
 30
0.0
 11
-0.2502062826644984
 21
-48.86077106979299
 31
0.0
  0
LINE
  5
279
330
227
100
AcDbEntity
  8
0
  6
Continuous
 62
     0
100
AcDbLine
 10
-0.223206282664498
 20
-48.88277106979298
 30
0.0
 11
-0.223206282664498
 21
-48.88877106979299
 31
0.0
  0
LINE
  5
27A
330
227
100
AcDbEntity
  8
0
  6
Continuous
 62
     0
100
AcDbLine
 10
-0.223206282664498
 20
-48.88277106979298
 30
0.0
 11
-0.2502062826644984
 21
-48.86718261252487
 31
0.0
  0
LINE
  5
27B
330
227
100
AcDbEntity
  8
0
  6
Continuous
 62
     0
100
AcDbLine
 10
-0.223206282664498
 20
-48.88877106979299
 30
0.0
 11
-0.2502062826644984
 21
-48.9043595270611
 31
0.0
  0
LINE
  5
27C
330
227
100
AcDbEntity
  8
0
  6
Continuous
 62
     0
100
AcDbLine
 10
-0.223206282664498
 20
-48.93877106979298
 30
0.0
 11
-0.2502062826644984
 21
-48.95435952706109
 31
0.0
  0
LINE
  5
27D
330
227
100
AcDbEntity
  8
0
  6
Continuous
 62
     0
100
AcDbLine
 10
-0.223206282664498
 20
-48.93277106979297
 30
0.0
 11
-0.2502062826644984
 21
-48.91718261252486
 31
0.0
  0
LINE
  5
27E
330
227
100
AcDbEntity
  8
0
  6
Continuous
 62
     0
100
AcDbLine
 10
-0.223206282664498
 20
-48.93277106979297
 30
0.0
 11
-0.223206282664498
 21
-48.93877106979298
 31
0.0
  0
LINE
  5
27F
330
227
100
AcDbEntity
  8
0
  6
Continuous
 62
     0
100
AcDbLine
 10
-0.223206282664498
 20
-48.98277106979296
 30
0.0
 11
-0.223206282664498
 21
-48.98877106979297
 31
0.0
  0
LINE
  5
280
330
227
100
AcDbEntity
  8
0
  6
Continuous
 62
     0
100
AcDbLine
 10
-0.223206282664498
 20
-48.98277106979296
 30
0.0
 11
-0.2502062826644984
 21
-48.96718261252485
 31
0.0
  0
LINE
  5
281
330
227
100
AcDbEntity
  8
0
  6
Continuous
 62
     0
100
AcDbLine
 10
-0.223206282664498
 20
-48.98877106979297
 30
0.0
 11
-0.2502062826644984
 21
-49.00435952706108
 31
0.0
  0
LINE
  5
282
330
227
100
AcDbEntity
  8
0
  6
Continuous
 62
     0
100
AcDbLine
 10
-0.223206282664498
 20
-49.08877106979295
 30
0.0
 11
-0.2502062826644984
 21
-49.10435952706106
 31
0.0
  0
LINE
  5
283
330
227
100
AcDbEntity
  8
0
  6
Continuous
 62
     0
100
AcDbLine
 10
-0.223206282664498
 20
-49.08277106979294
 30
0.0
 11
-0.2502062826644984
 21
-49.06718261252483
 31
0.0
  0
LINE
  5
284
330
227
100
AcDbEntity
  8
0
  6
Continuous
 62
     0
100
AcDbLine
 10
-0.223206282664498
 20
-49.08277106979294
 30
0.0
 11
-0.223206282664498
 21
-49.08877106979295
 31
0.0
  0
LINE
  5
285
330
227
100
AcDbEntity
  8
0
  6
Continuous
 62
     0
100
AcDbLine
 10
-0.223206282664498
 20
-49.03277106979295
 30
0.0
 11
-0.223206282664498
 21
-49.03877106979296
 31
0.0
  0
LINE
  5
286
330
227
100
AcDbEntity
  8
0
  6
Continuous
 62
     0
100
AcDbLine
 10
-0.223206282664498
 20
-49.03277106979295
 30
0.0
 11
-0.2502062826644984
 21
-49.01718261252484
 31
0.0
  0
LINE
  5
287
330
227
100
AcDbEntity
  8
0
  6
Continuous
 62
     0
100
AcDbLine
 10
-0.223206282664498
 20
-49.03877106979296
 30
0.0
 11
-0.2502062826644984
 21
-49.05435952706107
 31
0.0
  0
LINE
  5
288
330
227
100
AcDbEntity
  8
0
  6
Continuous
 62
     0
100
AcDbLine
 10
-0.2232062826644987
 20
-49.23877106979292
 30
0.0
 11
-0.2502062826644988
 21
-49.25435952706103
 31
0.0
  0
LINE
  5
289
330
227
100
AcDbEntity
  8
0
  6
Continuous
 62
     0
100
AcDbLine
 10
-0.2232062826644987
 20
-49.23277106979291
 30
0.0
 11
-0.2502062826644988
 21
-49.2171826125248
 31
0.0
  0
LINE
  5
28A
330
227
100
AcDbEntity
  8
0
  6
Continuous
 62
     0
100
AcDbLine
 10
-0.2232062826644987
 20
-49.23277106979291
 30
0.0
 11
-0.2232062826644987
 21
-49.23877106979292
 31
0.0
  0
LINE
  5
28B
330
227
100
AcDbEntity
  8
0
  6
Continuous
 62
     0
100
AcDbLine
 10
-0.2232062826644987
 20
-49.2827710697929
 30
0.0
 11
-0.2232062826644987
 21
-49.28877106979291
 31
0.0
  0
LINE
  5
28C
330
227
100
AcDbEntity
  8
0
  6
Continuous
 62
     0
100
AcDbLine
 10
-0.2232062826644987
 20
-49.2827710697929
 30
0.0
 11
-0.2502062826644988
 21
-49.26718261252479
 31
0.0
  0
LINE
  5
28D
330
227
100
AcDbEntity
  8
0
  6
Continuous
 62
     0
100
AcDbLine
 10
-0.2232062826644987
 20
-49.28877106979291
 30
0.0
 11
-0.2502062826644988
 21
-49.30435952706102
 31
0.0
  0
LINE
  5
28E
330
227
100
AcDbEntity
  8
0
  6
Continuous
 62
     0
100
AcDbLine
 10
-0.2232062826644987
 20
-49.18877106979293
 30
0.0
 11
-0.2502062826644988
 21
-49.20435952706104
 31
0.0
  0
LINE
  5
28F
330
227
100
AcDbEntity
  8
0
  6
Continuous
 62
     0
100
AcDbLine
 10
-0.2232062826644987
 20
-49.18277106979292
 30
0.0
 11
-0.2502062826644988
 21
-49.16718261252481
 31
0.0
  0
LINE
  5
290
330
227
100
AcDbEntity
  8
0
  6
Continuous
 62
     0
100
AcDbLine
 10
-0.2232062826644987
 20
-49.18277106979292
 30
0.0
 11
-0.2232062826644987
 21
-49.18877106979293
 31
0.0
  0
LINE
  5
291
330
227
100
AcDbEntity
  8
0
  6
Continuous
 62
     0
100
AcDbLine
 10
-0.2232062826644987
 20
-49.13277106979293
 30
0.0
 11
-0.2232062826644987
 21
-49.13877106979294
 31
0.0
  0
LINE
  5
292
330
227
100
AcDbEntity
  8
0
  6
Continuous
 62
     0
100
AcDbLine
 10
-0.2232062826644987
 20
-49.13277106979293
 30
0.0
 11
-0.2502062826644988
 21
-49.11718261252482
 31
0.0
  0
LINE
  5
293
330
227
100
AcDbEntity
  8
0
  6
Continuous
 62
     0
100
AcDbLine
 10
-0.2232062826644987
 20
-49.13877106979294
 30
0.0
 11
-0.2502062826644988
 21
-49.15435952706105
 31
0.0
  0
LINE
  5
294
330
227
100
AcDbEntity
  8
0
  6
Continuous
 62
     0
100
AcDbLine
 10
-0.2232062826644992
 20
-49.43895306362357
 30
0.0
 11
-0.2502062826644995
 21
-49.45454152089168
 31
0.0
  0
LINE
  5
295
330
227
100
AcDbEntity
  8
0
  6
Continuous
 62
     0
100
AcDbLine
 10
-0.2232062826644992
 20
-49.43295306362356
 30
0.0
 11
-0.2502062826644995
 21
-49.41736460635545
 31
0.0
  0
LINE
  5
296
330
227
100
AcDbEntity
  8
0
  6
Continuous
 62
     0
100
AcDbLine
 10
-0.2232062826644992
 20
-49.43295306362356
 30
0.0
 11
-0.2232062826644992
 21
-49.43895306362357
 31
0.0
  0
LINE
  5
297
330
227
100
AcDbEntity
  8
0
  6
Continuous
 62
     0
100
AcDbLine
 10
-0.2232062826644992
 20
-49.48295306362355
 30
0.0
 11
-0.2232062826644992
 21
-49.48895306362356
 31
0.0
  0
LINE
  5
298
330
227
100
AcDbEntity
  8
0
  6
Continuous
 62
     0
100
AcDbLine
 10
-0.2232062826644992
 20
-49.48295306362355
 30
0.0
 11
-0.2502062826644995
 21
-49.46736460635544
 31
0.0
  0
LINE
  5
299
330
227
100
AcDbEntity
  8
0
  6
Continuous
 62
     0
100
AcDbLine
 10
-0.2232062826644992
 20
-49.48895306362356
 30
0.0
 11
-0.2502062826644995
 21
-49.50454152089167
 31
0.0
  0
LINE
  5
29A
330
227
100
AcDbEntity
  8
0
  6
Continuous
 62
     0
100
AcDbLine
 10
-0.2232062826644992
 20
-49.38895306362358
 30
0.0
 11
-0.2502062826644995
 21
-49.40454152089169
 31
0.0
  0
LINE
  5
29B
330
227
100
AcDbEntity
  8
0
  6
Continuous
 62
     0
100
AcDbLine
 10
-0.2232062826644992
 20
-49.38295306362357
 30
0.0
 11
-0.2502062826644995
 21
-49.36736460635546
 31
0.0
  0
LINE
  5
29C
330
227
100
AcDbEntity
  8
0
  6
Continuous
 62
     0
100
AcDbLine
 10
-0.2232062826644992
 20
-49.38295306362357
 30
0.0
 11
-0.2232062826644992
 21
-49.38895306362358
 31
0.0
  0
LINE
  5
29D
330
227
100
AcDbEntity
  8
0
  6
Continuous
 62
     0
100
AcDbLine
 10
-0.2232062826644992
 20
-49.33295306362358
 30
0.0
 11
-0.2232062826644992
 21
-49.33895306362359
 31
0.0
  0
LINE
  5
29E
330
227
100
AcDbEntity
  8
0
  6
Continuous
 62
     0
100
AcDbLine
 10
-0.2232062826644992
 20
-49.33295306362358
 30
0.0
 11
-0.2502062826644995
 21
-49.31736460635547
 31
0.0
  0
LINE
  5
29F
330
227
100
AcDbEntity
  8
0
  6
Continuous
 62
     0
100
AcDbLine
 10
-0.2232062826644992
 20
-49.33895306362359
 30
0.0
 11
-0.2502062826644995
 21
-49.3545415208917
 31
0.0
  0
LINE
  5
2A0
330
227
100
AcDbEntity
  8
0
  6
Continuous
 62
     0
100
AcDbLine
 10
-0.2502062826644977
 20
-48.90435952706112
 30
0.0
 11
-0.2502062826644977
 21
-48.91718261252485
 31
0.0
  0
LINE
  5
2A1
330
227
100
AcDbEntity
  8
0
  6
Continuous
 62
     0
100
AcDbLine
 10
-0.2502062826644971
 20
-48.95435952706109
 30
0.0
 11
-0.2502062826644968
 21
-48.96718261252485
 31
0.0
  0
LINE
  5
2A2
330
227
100
AcDbEntity
  8
0
  6
Continuous
 62
     0
100
AcDbLine
 10
-0.2502062826644964
 20
-49.00435952706109
 30
0.0
 11
-0.2502062826644962
 21
-49.01718261252484
 31
0.0
  0
LINE
  5
2A3
330
227
100
AcDbEntity
  8
0
  6
Continuous
 62
     0
100
AcDbLine
 10
-0.2502062826644957
 20
-49.05435952706109
 30
0.0
 11
-0.2502062826644955
 21
-49.06718261252483
 31
0.0
  0
LINE
  5
2A4
330
227
100
AcDbEntity
  8
0
  6
Continuous
 62
     0
100
AcDbLine
 10
-0.2502062826644951
 20
-49.10435952706106
 30
0.0
 11
-0.2502062826644948
 21
-49.11718261252482
 31
0.0
  0
LINE
  5
2A5
330
227
100
AcDbEntity
  8
0
  6
Continuous
 62
     0
100
AcDbLine
 10
-0.2502062826644942
 20
-49.15435952706106
 30
0.0
 11
-0.2502062826644942
 21
-49.16718261252481
 31
0.0
  0
LINE
  5
2A6
330
227
100
AcDbEntity
  8
0
  6
Continuous
 62
     0
100
AcDbLine
 10
-0.2502062826644935
 20
-49.20435952706106
 30
0.0
 11
-0.2502062826644933
 21
-49.21718261252481
 31
0.0
  0
LINE
  5
2A7
330
227
100
AcDbEntity
  8
0
  6
Continuous
 62
     0
100
AcDbLine
 10
-0.2502062826644928
 20
-49.25435952706103
 30
0.0
 11
-0.2502062826644926
 21
-49.26718261252479
 31
0.0
  0
LINE
  5
2A8
330
227
100
AcDbEntity
  8
0
  6
Continuous
 62
     0
100
AcDbLine
 10
-0.2502062826644922
 20
-49.30435952706101
 30
0.0
 11
-0.250206282664492
 21
-49.31736460635547
 31
0.0
  0
LINE
  5
2A9
330
227
100
AcDbEntity
  8
0
  6
Continuous
 62
     0
100
AcDbLine
 10
-0.2502062826644915
 20
-49.35454152089169
 30
0.0
 11
-0.2502062826644913
 21
-49.36736460635547
 31
0.0
  0
LINE
  5
2AA
330
227
100
AcDbEntity
  8
0
  6
Continuous
 62
     0
100
AcDbLine
 10
-0.25020628266449
 20
-49.45454152089167
 30
0.0
 11
-0.2502062826644897
 21
-49.46736460635545
 31
0.0
  0
LINE
  5
2AB
330
227
100
AcDbEntity
  8
0
  6
Continuous
 62
     0
100
AcDbLine
 10
-0.2502062826644906
 20
-49.40454152089168
 30
0.0
 11
-0.2502062826644906
 21
-49.41736460635546
 31
0.0
  0
LINE
  5
2AC
330
227
100
AcDbEntity
  8
0
  6
Continuous
 62
     0
100
AcDbLine
 10
-0.2232062826644996
 20
-49.53295306362354
 30
0.0
 11
-0.2502062826645
 21
-49.51736460635543
 31
0.0
  0
LINE
  5
2AD
330
227
100
AcDbEntity
  8
0
  6
Continuous
 62
     0
100
AcDbLine
 10
-0.2502062826644893
 20
-49.50454152089166
 30
0.0
 11
-0.2502062826644891
 21
-49.51736460635544
 31
0.0
  0
LINE
  5
2AE
330
227
100
AcDbEntity
  8
0
  6
Continuous
 62
     0
100
AcDbLine
 10
-0.0002062826645056
 20
-49.42954152089169
 30
0.0
 11
-0.0002062826645058
 21
-49.44236460635546
 31
0.0
  0
LINE
  5
2AF
330
227
100
AcDbEntity
  8
0
  6
Continuous
 62
     0
100
AcDbLine
 10
-0.0002062826645063
 20
-49.47954152089168
 30
0.0
 11
-0.0002062826645065
 21
-49.49236460635545
 31
0.0
  0
LINE
  5
2B0
330
227
100
AcDbEntity
  8
0
  6
Continuous
 62
     0
100
AcDbLine
 10
-0.0002062826645049
 20
-49.3795415208917
 30
0.0
 11
-0.0002062826645051
 21
-49.39236460635547
 31
0.0
  0
LINE
  5
2B1
330
227
100
AcDbEntity
  8
0
  6
Continuous
 62
     0
100
AcDbLine
 10
-0.0002062826645042
 20
-49.32935952706102
 30
0.0
 11
-0.0002062826645044
 21
-49.34236460635547
 31
0.0
  0
LINE
  5
2B2
330
227
100
AcDbEntity
  8
0
  6
Continuous
 62
     0
100
AcDbLine
 10
-0.0002062826645035
 20
-49.27935952706103
 30
0.0
 11
-0.0002062826645037
 21
-49.29218261252479
 31
0.0
  0
LINE
  5
2B3
330
227
100
AcDbEntity
  8
0
  6
Continuous
 62
     0
100
AcDbLine
 10
-0.0002062826645028
 20
-49.22935952706106
 30
0.0
 11
-0.000206282664503
 21
-49.24218261252481
 31
0.0
  0
LINE
  5
2B4
330
227
100
AcDbEntity
  8
0
  6
Continuous
 62
     0
100
AcDbLine
 10
-0.0002062826645021
 20
-49.17935952706106
 30
0.0
 11
-0.0002062826645023
 21
-49.19218261252481
 31
0.0
  0
LINE
  5
2B5
330
227
100
AcDbEntity
  8
0
  6
Continuous
 62
     0
100
AcDbLine
 10
-0.0002062826645014
 20
-49.12935952706106
 30
0.0
 11
-0.0002062826645016
 21
-49.14218261252482
 31
0.0
  0
LINE
  5
2B6
330
227
100
AcDbEntity
  8
0
  6
Continuous
 62
     0
100
AcDbLine
 10
-0.0002062826645007
 20
-49.07935952706109
 30
0.0
 11
-0.0002062826645008
 21
-49.09218261252483
 31
0.0
  0
LINE
  5
2B7
330
227
100
AcDbEntity
  8
0
  6
Continuous
 62
     0
100
AcDbLine
 10
-0.0002062826645
 20
-49.02935952706109
 30
0.0
 11
-0.0002062826645001
 21
-49.04218261252484
 31
0.0
  0
LINE
  5
2B8
330
227
100
AcDbEntity
  8
0
  6
Continuous
 62
     0
100
AcDbLine
 10
-0.0002062826644992
 20
-48.97935952706109
 30
0.0
 11
-0.0002062826644994
 21
-48.99218261252485
 31
0.0
  0
LINE
  5
2B9
330
227
100
AcDbEntity
  8
0
  6
Continuous
 62
     0
100
AcDbLine
 10
-0.0002062826644985
 20
-48.92935952706112
 30
0.0
 11
-0.0002062826644987
 21
-48.94218261252486
 31
0.0
  0
LINE
  5
2BA
330
227
100
AcDbEntity
  8
0
  6
Continuous
 62
     0
100
AcDbLine
 10
-0.0002062826644976
 20
-48.86077106979299
 30
0.0
 11
-0.000206282664498
 21
-48.89218261252486
 31
0.0
  0
LINE
  5
2BB
330
227
100
AcDbEntity
  8
0
  6
Continuous
 62
     0
100
AcDbLine
 10
-0.0272062826644972
 20
-49.36395306362359
 30
0.0
 11
-0.000206282664497
 21
-49.3795415208917
 31
0.0
  0
LINE
  5
2BC
330
227
100
AcDbEntity
  8
0
  6
Continuous
 62
     0
100
AcDbLine
 10
-0.0272062826644972
 20
-49.35795306362359
 30
0.0
 11
-0.000206282664497
 21
-49.34236460635547
 31
0.0
  0
LINE
  5
2BD
330
227
100
AcDbEntity
  8
0
  6
Continuous
 62
     0
100
AcDbLine
 10
-0.0272062826644972
 20
-49.35795306362359
 30
0.0
 11
-0.0272062826644972
 21
-49.36395306362359
 31
0.0
  0
LINE
  5
2BE
330
227
100
AcDbEntity
  8
0
  6
Continuous
 62
     0
100
AcDbLine
 10
-0.0272062826644972
 20
-49.40795306362358
 30
0.0
 11
-0.0272062826644972
 21
-49.41395306362358
 31
0.0
  0
LINE
  5
2BF
330
227
100
AcDbEntity
  8
0
  6
Continuous
 62
     0
100
AcDbLine
 10
-0.0272062826644972
 20
-49.40795306362358
 30
0.0
 11
-0.000206282664497
 21
-49.39236460635546
 31
0.0
  0
LINE
  5
2C0
330
227
100
AcDbEntity
  8
0
  6
Continuous
 62
     0
100
AcDbLine
 10
-0.0272062826644972
 20
-49.41395306362358
 30
0.0
 11
-0.000206282664497
 21
-49.42954152089169
 31
0.0
  0
LINE
  5
2C1
330
227
100
AcDbEntity
  8
0
  6
Continuous
 62
     0
100
AcDbLine
 10
-0.0272062826644972
 20
-49.51395306362356
 30
0.0
 11
-0.000206282664497
 21
-49.52954152089168
 31
0.0
  0
LINE
  5
2C2
330
227
100
AcDbEntity
  8
0
  6
Continuous
 62
     0
100
AcDbLine
 10
-0.0272062826644972
 20
-49.50795306362356
 30
0.0
 11
-0.000206282664497
 21
-49.49236460635544
 31
0.0
  0
LINE
  5
2C3
330
227
100
AcDbEntity
  8
0
  6
Continuous
 62
     0
100
AcDbLine
 10
-0.0272062826644972
 20
-49.50795306362356
 30
0.0
 11
-0.0272062826644972
 21
-49.51395306362356
 31
0.0
  0
LINE
  5
2C4
330
227
100
AcDbEntity
  8
0
  6
Continuous
 62
     0
100
AcDbLine
 10
-0.0272062826644972
 20
-49.45795306362357
 30
0.0
 11
-0.0272062826644972
 21
-49.46395306362357
 31
0.0
  0
LINE
  5
2C5
330
227
100
AcDbEntity
  8
0
  6
Continuous
 62
     0
100
AcDbLine
 10
-0.0272062826644972
 20
-49.45795306362357
 30
0.0
 11
-0.000206282664497
 21
-49.44236460635545
 31
0.0
  0
LINE
  5
2C6
330
227
100
AcDbEntity
  8
0
  6
Continuous
 62
     0
100
AcDbLine
 10
-0.0272062826644972
 20
-49.46395306362357
 30
0.0
 11
-0.000206282664497
 21
-49.47954152089168
 31
0.0
  0
LINE
  5
2C7
330
227
100
AcDbEntity
  8
0
  6
Continuous
 62
     0
100
AcDbLine
 10
-0.0272062826644978
 20
-49.16377106979294
 30
0.0
 11
-0.0002062826644975
 21
-49.17935952706105
 31
0.0
  0
LINE
  5
2C8
330
227
100
AcDbEntity
  8
0
  6
Continuous
 62
     0
100
AcDbLine
 10
-0.0272062826644978
 20
-49.15777106979295
 30
0.0
 11
-0.0002062826644975
 21
-49.14218261252482
 31
0.0
  0
LINE
  5
2C9
330
227
100
AcDbEntity
  8
0
  6
Continuous
 62
     0
100
AcDbLine
 10
-0.0272062826644978
 20
-49.15777106979295
 30
0.0
 11
-0.0272062826644978
 21
-49.16377106979294
 31
0.0
  0
LINE
  5
2CA
330
227
100
AcDbEntity
  8
0
  6
Continuous
 62
     0
100
AcDbLine
 10
-0.0272062826644978
 20
-49.20777106979294
 30
0.0
 11
-0.0272062826644978
 21
-49.21377106979293
 31
0.0
  0
LINE
  5
2CB
330
227
100
AcDbEntity
  8
0
  6
Continuous
 62
     0
100
AcDbLine
 10
-0.0272062826644978
 20
-49.20777106979294
 30
0.0
 11
-0.0002062826644975
 21
-49.19218261252481
 31
0.0
  0
LINE
  5
2CC
330
227
100
AcDbEntity
  8
0
  6
Continuous
 62
     0
100
AcDbLine
 10
-0.0272062826644978
 20
-49.21377106979293
 30
0.0
 11
-0.0002062826644975
 21
-49.22935952706104
 31
0.0
  0
LINE
  5
2CD
330
227
100
AcDbEntity
  8
0
  6
Continuous
 62
     0
100
AcDbLine
 10
-0.0272062826644978
 20
-49.31377106979291
 30
0.0
 11
-0.0002062826644975
 21
-49.32935952706102
 31
0.0
  0
LINE
  5
2CE
330
227
100
AcDbEntity
  8
0
  6
Continuous
 62
     0
100
AcDbLine
 10
-0.0272062826644978
 20
-49.30777106979292
 30
0.0
 11
-0.0002062826644975
 21
-49.29218261252479
 31
0.0
  0
LINE
  5
2CF
330
227
100
AcDbEntity
  8
0
  6
Continuous
 62
     0
100
AcDbLine
 10
-0.0272062826644978
 20
-49.30777106979292
 30
0.0
 11
-0.0272062826644978
 21
-49.31377106979291
 31
0.0
  0
LINE
  5
2D0
330
227
100
AcDbEntity
  8
0
  6
Continuous
 62
     0
100
AcDbLine
 10
-0.0272062826644978
 20
-49.25777106979293
 30
0.0
 11
-0.0272062826644978
 21
-49.26377106979292
 31
0.0
  0
LINE
  5
2D1
330
227
100
AcDbEntity
  8
0
  6
Continuous
 62
     0
100
AcDbLine
 10
-0.0272062826644978
 20
-49.25777106979293
 30
0.0
 11
-0.0002062826644975
 21
-49.2421826125248
 31
0.0
  0
LINE
  5
2D2
330
227
100
AcDbEntity
  8
0
  6
Continuous
 62
     0
100
AcDbLine
 10
-0.0272062826644978
 20
-49.26377106979292
 30
0.0
 11
-0.0002062826644975
 21
-49.27935952706103
 31
0.0
  0
LINE
  5
2D3
330
227
100
AcDbEntity
  8
0
  6
Continuous
 62
     0
100
AcDbLine
 10
-0.0272062826644983
 20
-49.06377106979296
 30
0.0
 11
-0.000206282664498
 21
-49.07935952706107
 31
0.0
  0
LINE
  5
2D4
330
227
100
AcDbEntity
  8
0
  6
Continuous
 62
     0
100
AcDbLine
 10
-0.0272062826644983
 20
-49.05777106979297
 30
0.0
 11
-0.000206282664498
 21
-49.04218261252484
 31
0.0
  0
LINE
  5
2D5
330
227
100
AcDbEntity
  8
0
  6
Continuous
 62
     0
100
AcDbLine
 10
-0.0272062826644983
 20
-49.05777106979297
 30
0.0
 11
-0.0272062826644983
 21
-49.06377106979296
 31
0.0
  0
LINE
  5
2D6
330
227
100
AcDbEntity
  8
0
  6
Continuous
 62
     0
100
AcDbLine
 10
-0.0272062826644983
 20
-49.10777106979296
 30
0.0
 11
-0.0272062826644983
 21
-49.11377106979295
 31
0.0
  0
LINE
  5
2D7
330
227
100
AcDbEntity
  8
0
  6
Continuous
 62
     0
100
AcDbLine
 10
-0.0272062826644983
 20
-49.10777106979296
 30
0.0
 11
-0.000206282664498
 21
-49.09218261252483
 31
0.0
  0
LINE
  5
2D8
330
227
100
AcDbEntity
  8
0
  6
Continuous
 62
     0
100
AcDbLine
 10
-0.0272062826644983
 20
-49.11377106979295
 30
0.0
 11
-0.000206282664498
 21
-49.12935952706106
 31
0.0
  0
LINE
  5
2D9
330
227
100
AcDbEntity
  8
0
  6
Continuous
 62
     0
100
AcDbLine
 10
-0.0272062826644983
 20
-49.01377106979297
 30
0.0
 11
-0.000206282664498
 21
-49.02935952706108
 31
0.0
  0
LINE
  5
2DA
330
227
100
AcDbEntity
  8
0
  6
Continuous
 62
     0
100
AcDbLine
 10
-0.0272062826644983
 20
-49.00777106979298
 30
0.0
 11
-0.000206282664498
 21
-48.99218261252485
 31
0.0
  0
LINE
  5
2DB
330
227
100
AcDbEntity
  8
0
  6
Continuous
 62
     0
100
AcDbLine
 10
-0.0272062826644983
 20
-49.00777106979298
 30
0.0
 11
-0.0272062826644983
 21
-49.01377106979297
 31
0.0
  0
LINE
  5
2DC
330
227
100
AcDbEntity
  8
0
  6
Continuous
 62
     0
100
AcDbLine
 10
-0.0272062826644983
 20
-48.95777106979299
 30
0.0
 11
-0.0272062826644983
 21
-48.96377106979298
 31
0.0
  0
LINE
  5
2DD
330
227
100
AcDbEntity
  8
0
  6
Continuous
 62
     0
100
AcDbLine
 10
-0.0272062826644983
 20
-48.95777106979299
 30
0.0
 11
-0.000206282664498
 21
-48.94218261252486
 31
0.0
  0
LINE
  5
2DE
330
227
100
AcDbEntity
  8
0
  6
Continuous
 62
     0
100
AcDbLine
 10
-0.0272062826644983
 20
-48.96377106979298
 30
0.0
 11
-0.000206282664498
 21
-48.97935952706109
 31
0.0
  0
LINE
  5
2DF
330
227
100
AcDbEntity
  8
0
  6
Continuous
 62
     0
100
AcDbLine
 10
-0.0272062826644983
 20
-48.91377106979299
 30
0.0
 11
-0.000206282664498
 21
-48.9293595270611
 31
0.0
  0
LINE
  5
2E0
330
227
100
AcDbEntity
  8
0
  6
Continuous
 62
     0
100
AcDbLine
 10
-0.0272062826644983
 20
-48.907771069793
 30
0.0
 11
-0.000206282664498
 21
-48.89218261252487
 31
0.0
  0
LINE
  5
2E1
330
227
100
AcDbEntity
  8
0
  6
Continuous
 62
     0
100
AcDbLine
 10
-0.0272062826644983
 20
-48.907771069793
 30
0.0
 11
-0.0272062826644983
 21
-48.91377106979299
 31
0.0
  0
LINE
  5
2E2
330
227
100
AcDbEntity
  8
0
  6
Continuous
 62
     0
100
AcDbLine
 10
0.7247937173355071
 20
-48.785771069793
 30
0.0
 11
0.6872937173355071
 21
-48.785771069793
 31
0.0
  0
LINE
  5
2E3
330
227
100
AcDbEntity
  8
0
  6
Continuous
 62
     0
100
AcDbLine
 10
0.5622937173355071
 20
-48.785771069793
 30
0.0
 11
0.5247937173355071
 21
-48.785771069793
 31
0.0
  0
ARC
  5
2E4
330
227
100
AcDbEntity
  8
0
  6
Continuous
 62
     0
100
AcDbCircle
 10
0.624793717335507
 20
-48.70377106979299
 30
0.0
 40
0.188
100
AcDbArc
 50
237.8650719958525
 51
302.1349280041476
  0
LINE
  5
2E5
330
227
100
AcDbEntity
  8
0
  6
Continuous
 62
     0
100
AcDbLine
 10
0.7247937173355071
 20
-48.785771069793
 30
0.0
 11
0.7247937173355068
 21
-48.86296905973005
 31
0.0
  0
LINE
  5
2E6
330
227
100
AcDbEntity
  8
0
  6
Continuous
 62
     0
100
AcDbLine
 10
0.5247937173355071
 20
-48.785771069793
 30
0.0
 11
0.5247937173355073
 21
-48.86296905973005
 31
0.0
  0
ARC
  5
2E7
330
227
100
AcDbEntity
  8
0
  6
Continuous
 62
     0
100
AcDbCircle
 10
0.5302937173355071
 20
-48.76777106979299
 30
0.0
 40
0.032
100
AcDbArc
 50
0.000000000000007
 51
90.0
  0
LINE
  5
2E8
330
227
100
AcDbEntity
  8
0
  6
Continuous
 62
     0
100
AcDbLine
 10
0.5622937173355071
 20
-48.76777106979299
 30
0.0
 11
0.5622937173355071
 21
-48.785771069793
 31
0.0
  0
ARC
  5
2E9
330
227
100
AcDbEntity
  8
0
  6
Continuous
 62
     0
100
AcDbCircle
 10
0.719293717335507
 20
-48.76777106979298
 30
0.0
 40
0.032
100
AcDbArc
 50
90.0
 51
180.0
  0
LINE
  5
2EA
330
227
100
AcDbEntity
  8
0
  6
Continuous
 62
     0
100
AcDbLine
 10
0.687293717335507
 20
-48.76777106979298
 30
0.0
 11
0.6872937173355071
 21
-48.785771069793
 31
0.0
  0
ENDBLK
  5
2EB
330
227
100
AcDbEntity
  8
0
 62
     0
100
AcDbBlockEnd
  0
BLOCK
  5
41E
330
41D
100
AcDbEntity
  8
0
 62
     0
100
AcDbBlockBegin
  2
snap bottom
 70
     0
 10
0.0
 20
0.0
 30
0.0
  3
snap bottom
  1

  0
ARC
  5
41F
330
41D
100
AcDbEntity
  8
0
  6
Continuous
 62
     0
100
AcDbCircle
 10
8.146588015093087
 20
-55.6325175405397
 30
0.0
 40
0.054
100
AcDbArc
 50
270.0000000000009
 51
89.99999999999909
  0
LINE
  5
420
330
41D
100
AcDbEntity
  8
0
  6
Continuous
 62
     0
100
AcDbLine
 10
8.084588015093085
 20
-55.26751754053969
 30
0.0
 11
8.084588015093089
 21
-55.87251754053971
 31
0.0
  0
ARC
  5
421
330
41D
100
AcDbEntity
  8
0
  6
Continuous
 62
     0
100
AcDbCircle
 10
6.396588015093087
 20
-55.6325175405397
 30
0.0
 40
0.054
100
AcDbArc
 50
90.0000000000009
 51
269.9999999999991
  0
LINE
  5
422
330
41D
100
AcDbEntity
  8
0
  6
Continuous
 62
     0
100
AcDbLine
 10
6.458588015093087
 20
-55.26751754053969
 30
0.0
 11
6.458588015093085
 21
-55.87251754053971
 31
0.0
  0
LINE
  5
423
330
41D
100
AcDbEntity
  8
0
  6
Continuous
 62
     0
100
AcDbLine
 10
6.031588015093086
 20
-56.00751754053971
 30
0.0
 11
8.511588015093087
 21
-56.0075175405397
 31
0.0
  0
LINE
  5
424
330
41D
100
AcDbEntity
  8
0
  6
Continuous
 62
     0
100
AcDbLine
 10
6.468588015093085
 20
-55.8825175405397
 30
0.0
 11
8.074588015093087
 21
-55.8825175405397
 31
0.0
  0
ARC
  5
425
330
41D
100
AcDbEntity
  8
0
  6
Continuous
 62
     0
100
AcDbCircle
 10
6.386588015093088
 20
-55.87251754053969
 30
0.0
 40
0.01
100
AcDbArc
 50
270.0
 51
0.0000000000002685
  0
LINE
  5
426
330
41D
100
AcDbEntity
  8
0
  6
Continuous
 62
     0
100
AcDbLine
 10
6.396588015093086
 20
-55.6865175405397
 30
0.0
 11
6.396588015093088
 21
-55.87251754053969
 31
0.0
  0
ARC
  5
427
330
41D
100
AcDbEntity
  8
0
  6
Continuous
 62
     0
100
AcDbCircle
 10
6.468588015093085
 20
-55.87251754053971
 30
0.0
 40
0.01
100
AcDbArc
 50
179.9999999999999
 51
270.0000000000005
  0
ARC
  5
428
330
41D
100
AcDbEntity
  8
0
  6
Continuous
 62
     0
100
AcDbCircle
 10
6.093588015093087
 20
-55.8725175405397
 30
0.0
 40
0.01
100
AcDbArc
 50
180.0000000000002
 51
270.0000000000013
  0
LINE
  5
429
330
41D
100
AcDbEntity
  8
0
  6
Continuous
 62
     0
100
AcDbLine
 10
6.093588015093087
 20
-55.8825175405397
 30
0.0
 11
6.386588015093088
 21
-55.8825175405397
 31
0.0
  0
ARC
  5
42A
330
41D
100
AcDbEntity
  8
0
  6
Continuous
 62
     0
100
AcDbCircle
 10
6.073588015093087
 20
-55.64251754053969
 30
0.0
 40
0.01
100
AcDbArc
 50
0.0000000000002176
 51
90.00000000000003
  0
LINE
  5
42B
330
41D
100
AcDbEntity
  8
0
  6
Continuous
 62
     0
100
AcDbLine
 10
6.083588015093087
 20
-55.64251754053969
 30
0.0
 11
6.083588015093087
 21
-55.8725175405397
 31
0.0
  0
ARC
  5
42C
330
41D
100
AcDbEntity
  8
0
  6
Continuous
 62
     0
100
AcDbCircle
 10
6.031588015093087
 20
-55.64251754053969
 30
0.0
 40
0.01
100
AcDbArc
 50
90.00000000000785
 51
180.0
  0
LINE
  5
42D
330
41D
100
AcDbEntity
  8
0
  6
Continuous
 62
     0
100
AcDbLine
 10
6.031588015093086
 20
-55.6325175405397
 30
0.0
 11
6.073588015093087
 21
-55.63251754053969
 31
0.0
  0
ARC
  5
42E
330
41D
100
AcDbEntity
  8
0
  6
Continuous
 62
     0
100
AcDbCircle
 10
6.031588015093086
 20
-55.99751754053971
 30
0.0
 40
0.01
100
AcDbArc
 50
179.9999999999998
 51
270.0
  0
LINE
  5
42F
330
41D
100
AcDbEntity
  8
0
  6
Continuous
 62
     0
100
AcDbLine
 10
6.021588015093087
 20
-55.99751754053971
 30
0.0
 11
6.021588015093088
 21
-55.64251754053969
 31
0.0
  0
ARC
  5
430
330
41D
100
AcDbEntity
  8
0
  6
Continuous
 62
     0
100
AcDbCircle
 10
8.511588015093087
 20
-55.9975175405397
 30
0.0
 40
0.01
100
AcDbArc
 50
270.0000000000002
 51
0.0
  0
ARC
  5
431
330
41D
100
AcDbEntity
  8
0
  6
Continuous
 62
     0
100
AcDbCircle
 10
8.449588015093087
 20
-55.87251754053971
 30
0.0
 40
0.01
100
AcDbArc
 50
269.9999999999987
 51
0.0
  0
ARC
  5
432
330
41D
100
AcDbEntity
  8
0
  6
Continuous
 62
     0
100
AcDbCircle
 10
8.511588015093087
 20
-55.6425175405397
 30
0.0
 40
0.01
100
AcDbArc
 50
0.0
 51
90.00000000000003
  0
LINE
  5
433
330
41D
100
AcDbEntity
  8
0
  6
Continuous
 62
     0
100
AcDbLine
 10
8.521588015093087
 20
-55.9975175405397
 30
0.0
 11
8.521588015093087
 21
-55.6425175405397
 31
0.0
  0
ARC
  5
434
330
41D
100
AcDbEntity
  8
0
  6
Continuous
 62
     0
100
AcDbCircle
 10
8.469588015093089
 20
-55.64251754053969
 30
0.0
 40
0.01
100
AcDbArc
 50
89.99999999999216
 51
180.0
  0
LINE
  5
435
330
41D
100
AcDbEntity
  8
0
  6
Continuous
 62
     0
100
AcDbLine
 10
8.511588015093087
 20
-55.63251754053971
 30
0.0
 11
8.469588015093091
 21
-55.63251754053969
 31
0.0
  0
LINE
  5
436
330
41D
100
AcDbEntity
  8
0
  6
Continuous
 62
     0
100
AcDbLine
 10
8.459588015093089
 20
-55.64251754053969
 30
0.0
 11
8.459588015093087
 21
-55.87251754053971
 31
0.0
  0
ARC
  5
437
330
41D
100
AcDbEntity
  8
0
  6
Continuous
 62
     0
100
AcDbCircle
 10
8.156588015093085
 20
-55.87251754053969
 30
0.0
 40
0.01
100
AcDbArc
 50
179.9999999999997
 51
270.0
  0
LINE
  5
438
330
41D
100
AcDbEntity
  8
0
  6
Continuous
 62
     0
100
AcDbLine
 10
8.146588015093087
 20
-55.6865175405397
 30
0.0
 11
8.146588015093087
 21
-55.87251754053969
 31
0.0
  0
ARC
  5
439
330
41D
100
AcDbEntity
  8
0
  6
Continuous
 62
     0
100
AcDbCircle
 10
8.074588015093087
 20
-55.87251754053971
 30
0.0
 40
0.01
100
AcDbArc
 50
269.9999999999995
 51
0.0000000000000649
  0
LINE
  5
43A
330
41D
100
AcDbEntity
  8
0
  6
Continuous
 62
     0
100
AcDbLine
 10
8.156588015093085
 20
-55.8825175405397
 30
0.0
 11
8.449588015093087
 21
-55.8825175405397
 31
0.0
  0
ARC
  5
43B
330
41D
100
AcDbEntity
  8
0
  6
Continuous
 62
     0
100
AcDbCircle
 10
6.406588015093085
 20
-55.31389060749866
 30
0.0
 40
0.01
100
AcDbArc
 50
149.9999999999993
 51
180.0
  0
LINE
  5
43C
330
41D
100
AcDbEntity
  8
0
  6
Continuous
 62
     0
100
AcDbLine
 10
6.396588015093085
 20
-55.31389060749866
 30
0.0
 11
6.396588015093086
 21
-55.5785175405397
 31
0.0
  0
ARC
  5
43D
330
41D
100
AcDbEntity
  8
0
  6
Continuous
 62
     0
100
AcDbCircle
 10
6.433361517784994
 20
-55.26751754053969
 30
0.0
 40
0.01
100
AcDbArc
 50
90.00000000000003
 51
150.0000000000011
  0
LINE
  5
43E
330
41D
100
AcDbEntity
  8
0
  6
Continuous
 62
     0
100
AcDbLine
 10
6.424701263747149
 20
-55.26251754053969
 30
0.0
 11
6.397927761055241
 21
-55.30889060749866
 31
0.0
  0
ARC
  5
43F
330
41D
100
AcDbEntity
  8
0
  6
Continuous
 62
     0
100
AcDbCircle
 10
6.448588015093087
 20
-55.26751754053969
 30
0.0
 40
0.01
100
AcDbArc
 50
0.0
 51
90.00000000000003
  0
LINE
  5
440
330
41D
100
AcDbEntity
  8
0
  6
Continuous
 62
     0
100
AcDbLine
 10
6.433361517784994
 20
-55.2575175405397
 30
0.0
 11
6.448588015093087
 21
-55.2575175405397
 31
0.0
  0
ARC
  5
441
330
41D
100
AcDbEntity
  8
0
  6
Continuous
 62
     0
100
AcDbCircle
 10
8.136588015093089
 20
-55.31389060749866
 30
0.0
 40
0.01
100
AcDbArc
 50
0.0
 51
30.00000000000071
  0
LINE
  5
442
330
41D
100
AcDbEntity
  8
0
  6
Continuous
 62
     0
100
AcDbLine
 10
8.146588015093088
 20
-55.31389060749866
 30
0.0
 11
8.146588015093087
 21
-55.5785175405397
 31
0.0
  0
ARC
  5
443
330
41D
100
AcDbEntity
  8
0
  6
Continuous
 62
     0
100
AcDbCircle
 10
8.109814512401179
 20
-55.26751754053969
 30
0.0
 40
0.01
100
AcDbArc
 50
29.99999999999893
 51
90.00000000000003
  0
LINE
  5
444
330
41D
100
AcDbEntity
  8
0
  6
Continuous
 62
     0
100
AcDbLine
 10
8.118474766439025
 20
-55.26251754053969
 30
0.0
 11
8.145248269130933
 21
-55.30889060749866
 31
0.0
  0
ARC
  5
445
330
41D
100
AcDbEntity
  8
0
  6
Continuous
 62
     0
100
AcDbCircle
 10
8.094588015093087
 20
-55.26751754053969
 30
0.0
 40
0.01
100
AcDbArc
 50
90.00000000000003
 51
180.0
  0
LINE
  5
446
330
41D
100
AcDbEntity
  8
0
  6
Continuous
 62
     0
100
AcDbLine
 10
8.109814512401179
 20
-55.2575175405397
 30
0.0
 11
8.094588015093087
 21
-55.2575175405397
 31
0.0
  0
ENDBLK
  5
447
330
41D
100
AcDbEntity
  8
0
 62
     0
100
AcDbBlockEnd
  0
BLOCK
  5
2EE
330
2ED
100
AcDbEntity
  8
0
 62
     0
100
AcDbBlockBegin
  2
PURLIN CLIP
 70
     0
 10
0.0
 20
0.0
 30
0.0
  3
PURLIN CLIP
  1

  0
HATCH
  5
2EF
330
2ED
100
AcDbEntity
  8
HIDDEN
  6
Continuous
100
AcDbHatch
 10
0.0
 20
0.0
 30
0.0
210
0.0
220
0.0
230
1.0
  2
ANSI31
 70
     0
 71
     1
 91
        4
 92
        7
 72
     0
 73
     1
 93
       10
 10
19.01070570468438
 20
-35.97596295904438
 10
18.88570540109838
 20
-35.97596295969756
 10
18.8857055623056
 20
-36.30322995545127
 10
18.88705236345105
 20
-36.30322996193428
 10
18.90732942125643
 20
-36.33877892462076
 10
18.93503023724924
 20
-36.33892420907537
 10
18.95567768021076
 20
-36.30358897079295
 10
18.97595490414006
 20
-36.33913892167367
 10
19.00365497882779
 20
-36.33928420224027
 10
19.0107058997314
 20
-36.32721796243881
 97
       10
330
413
330
2FF
330
33E
330
31A
330
30B
330
318
330
315
330
314
330
313
330
2FE
 92
        7
 72
     0
 73
     1
 93
       11
 10
19.01070591913038
 20
-36.45906780634894
 10
19.00991588164136
 20
-36.45906366279169
 10
18.98926754746218
 20
-36.49439889640612
 10
18.96899147753543
 20
-36.45884977297159
 10
18.94129113088619
 20
-36.45870368536682
 10
18.92064206552721
 20
-36.49403889903688
 10
18.90036582944899
 20
-36.45848948429653
 10
18.89006662644873
 20
-36.49401372240792
 10
18.8857057548116
 20
-36.49401370141629
 10
18.88570578582953
 20
-36.88775664959755
 10
19.01070607424243
 20
-36.88775664960526
 97
       11
330
308
330
30A
330
304
330
312
330
30F
330
30E
330
311
330
33D
330
325
330
416
330
324
 92
        7
 72
     0
 73
     1
 93
       10
 10
20.49507441103056
 20
-36.32721796243882
 10
20.50212533193418
 20
-36.33928420224028
 10
20.5298254066219
 20
-36.33913892167366
 10
20.55010263055119
 20
-36.30358897079295
 10
20.57075007351272
 20
-36.33892420907535
 10
20.59845088950552
 20
-36.33877892462076
 10
20.6187279473109
 20
-36.30322996193428
 10
20.62007474845635
 20
-36.30322995545127
 10
20.62007490966358
 20
-35.97596295063471
 10
20.49507460607759
 20
-35.9759629512879
 97
       10
330
413
330
3C5
330
3B0
330
3AF
330
3AE
330
3AB
330
3B8
330
3A9
330
385
330
3C4
 92
        7
 72
     0
 73
     1
 93
       11
 10
20.62007455595035
 20
-36.49401370141629
 10
20.61571368431323
 20
-36.49401372240793
 10
20.60541448131298
 20
-36.45848948429654
 10
20.58513824523474
 20
-36.49403889903688
 10
20.56448917987576
 20
-36.45870368536681
 10
20.53678883322652
 20
-36.45884977297159
 10
20.51651276329978
 20
-36.49439889640613
 10
20.4958644291206
 20
-36.45906366279168
 10
20.49507439163157
 20
-36.45906780634893
 10
20.49507423651953
 20
-36.88775664969681
 10
20.62007452493242
 20
-36.88775664970452
 97
       11
330
386
330
3B2
330
3B5
330
3B4
330
3B1
330
3BF
330
3B9
330
3BB
330
39F
330
416
330
39E
 75
     0
 76
     1
 52
0.0
 41
0.25
 77
     0
 78
     1
 53
45.0
 43
0.0
 44
0.0
 45
-0.0220970869120796
 46
0.0220970869120796
 79
     0
 47
0.0029273141127875
 98
        4
 10
18.95100687343751
 20
-36.1753171319744
 10
18.96564898883196
 20
-36.6202691505822
 10
20.53234568512306
 20
-36.15189860467928
 10
20.56455791938589
 20
-36.63783290195374
  0
ARC
  5
2F0
330
2ED
100
AcDbEntity
  8
Glazing
  6
Continuous
 62
     5
100
AcDbCircle
 10
20.17335184579016
 20
-36.40152507372832
 30
0.0
 40
0.156336
100
AcDbArc
 50
23.91620309999928
 51
338.2719830700004
  0
ARC
  5
2F1
330
2ED
100
AcDbEntity
  8
Glazing
  6
Continuous
 62
     5
100
AcDbCircle
 10
19.33242846497179
 20
-36.40152507372832
 30
0.0
 40
0.156336
100
AcDbArc
 50
201.7280169299997
 51
156.0837969000007
  0
LINE
  5
2F2
330
2ED
100
AcDbEntity
  8
0
  6
Continuous
 62
     0
100
AcDbLine
 10
19.44613504877741
 20
-36.38052598701018
 30
0.0
 11
19.37442863434178
 21
-36.3805254005121
 31
0.0
  0
LINE
  5
2F3
330
2ED
100
AcDbEntity
  8
0
  6
Continuous
 62
     0
100
AcDbLine
 10
19.44613472086772
 20
-36.42252599558732
 30
0.0
 11
19.37442830738076
 21
-36.42252540877289
 31
0.0
  0
LINE
  5
2F4
330
2ED
100
AcDbEntity
  8
0
  6
Continuous
 62
     0
100
AcDbLine
 10
19.44613504877741
 20
-36.38052598701018
 30
0.0
 11
19.37442863434178
 21
-36.3805254005121
 31
0.0
  0
LINE
  5
2F5
330
2ED
100
AcDbEntity
  8
0
  6
Continuous
 62
     0
100
AcDbLine
 10
19.44613472086772
 20
-36.42252599558732
 30
0.0
 11
19.37442830738076
 21
-36.42252540877289
 31
0.0
  0
ARC
  5
2F6
330
2ED
100
AcDbEntity
  8
Glazing
  6
Continuous
 62
     5
100
AcDbCircle
 10
19.33242846497179
 20
-36.40152507372832
 30
0.0
 40
0.156336
100
AcDbArc
 50
201.7280169299997
 51
156.0837969000007
  0
ARC
  5
2F7
330
2ED
100
AcDbEntity
  8
0
  6
Continuous
 62
     0
100
AcDbCircle
 10
19.31603673414988
 20
-36.40152537176336
 30
0.0
 40
0.131782
100
AcDbArc
 50
350.830114900001
 51
9.168986900000877
  0
ARC
  5
2F8
330
2ED
100
AcDbEntity
  8
0
  6
Continuous
 62
     0
100
AcDbCircle
 10
19.31603673414988
 20
-36.40152537176336
 30
0.0
 40
0.131782
100
AcDbArc
 50
350.830114900001
 51
9.168986900000877
  0
ARC
  5
2F9
330
2ED
100
AcDbEntity
  8
0
  6
Continuous
 62
     0
100
AcDbCircle
 10
18.75288995820901
 20
-36.45719316911877
 30
0.0
 40
0.1302118990505079
100
AcDbArc
 50
180.0
 51
270.0
  0
ARC
  5
2FA
330
2ED
100
AcDbEntity
  8
0
  6
Continuous
 62
     0
100
AcDbCircle
 10
18.75288995820901
 20
-36.34261696721978
 30
0.0
 40
0.1302118990505079
100
AcDbArc
 50
90.00000000000305
 51
180.0000000000031
  0
LINE
  5
2FB
330
2ED
100
AcDbEntity
  8
0
  6
Continuous
 62
     0
100
AcDbLine
 10
18.6226780591585
 20
-36.45719316911877
 30
0.0
 11
18.6226780591585
 21
-36.34261696721978
 31
0.0
  0
LINE
  5
2FC
330
2ED
100
AcDbEntity
  8
0
  6
Continuous
 62
     0
100
AcDbLine
 10
19.14755172537928
 20
-36.45919291485061
 30
0.0
 11
19.17392223858312
 21
-36.45933162716215
 31
0.0
  0
LINE
  5
2FD
330
2ED
100
AcDbEntity
  8
0
  6
Continuous
 62
     0
100
AcDbLine
 10
19.17392223858312
 20
-36.45933162716215
 30
0.0
 11
19.17885259383533
 21
-36.46797647162633
 31
0.0
  0
LINE
  5
2FE
102
{ACAD_REACTORS
330
2EF
102
}
330
2ED
100
AcDbEntity
  8
0
  6
Continuous
 62
     0
100
AcDbLine
 10
19.01070570468436
 20
-35.9759629209838
 30
0.0
 11
19.0107058997314
 21
-36.32721796243885
 31
0.0
  0
LINE
  5
2FF
102
{ACAD_REACTORS
330
2EF
102
}
330
2ED
100
AcDbEntity
  8
0
  6
Continuous
 62
     0
100
AcDbLine
 10
18.88570556231255
 20
-36.30324406083718
 30
0.0
 11
18.88570540109838
 21
-35.97596295063471
 31
0.0
  0
LINE
  5
300
330
2ED
100
AcDbEntity
  8
0
  6
Continuous
 62
     0
100
AcDbLine
 10
19.10679432800186
 20
-36.45957169976127
 30
0.0
 11
19.12707040109192
 21
-36.49512083268225
 31
0.0
  0
LINE
  5
301
330
2ED
100
AcDbEntity
  8
0
  6
Continuous
 62
     0
100
AcDbLine
 10
19.12707040109192
 20
-36.49512083268225
 30
0.0
 11
19.14771897452253
 21
-36.45978644722018
 31
0.0
  0
LINE
  5
302
330
2ED
100
AcDbEntity
  8
0
  6
Continuous
 62
     0
100
AcDbLine
 10
19.00991595793209
 20
-36.45906353223632
 30
0.0
 11
19.04458022089976
 21
-36.33949793053233
 31
0.0
  0
LINE
  5
303
330
2ED
100
AcDbEntity
  8
0
  6
Continuous
 62
     0
100
AcDbLine
 10
19.03761580736515
 20
-36.45920894226198
 30
0.0
 11
19.07228006938418
 21
-36.33964334087435
 31
0.0
  0
LINE
  5
304
102
{ACAD_REACTORS
330
2EF
102
}
330
2ED
100
AcDbEntity
  8
0
  6
Continuous
 62
     0
100
AcDbLine
 10
18.96899147753543
 20
-36.45884977297159
 30
0.0
 11
18.98926754746218
 21
-36.49439889640613
 31
0.0
  0
LINE
  5
305
330
2ED
100
AcDbEntity
  8
0
  6
Continuous
 62
     0
100
AcDbLine
 10
18.98926754746218
 20
-36.49439889640613
 30
0.0
 11
19.02430316309441
 21
-36.30394896784586
 31
0.0
  0
LINE
  5
306
330
2ED
100
AcDbEntity
  8
0
  6
Continuous
 62
     0
100
AcDbLine
 10
19.05789286422189
 20
-36.49475790526478
 30
0.0
 11
19.07854045293715
 21
-36.45942369003724
 31
0.0
  0
LINE
  5
307
330
2ED
100
AcDbEntity
  8
0
  6
Continuous
 62
     0
100
AcDbLine
 10
19.07854045293715
 20
-36.45942369003724
 30
0.0
 11
19.10679432800186
 21
-36.45957169976127
 31
0.0
  0
LINE
  5
308
102
{ACAD_REACTORS
330
2EF
102
}
330
2ED
100
AcDbEntity
  8
0
  6
Continuous
 62
     0
100
AcDbLine
 10
19.00936291606712
 20
-36.4590607626198
 30
0.0
 11
19.03761580736515
 21
-36.45920894226198
 31
0.0
  0
LINE
  5
309
330
2ED
100
AcDbEntity
  8
0
  6
Continuous
 62
     0
100
AcDbLine
 10
19.03761580736515
 20
-36.45920894226198
 30
0.0
 11
19.05789286422189
 21
-36.49475790526478
 31
0.0
  0
LINE
  5
30A
102
{ACAD_REACTORS
330
2EF
102
}
330
2ED
100
AcDbEntity
  8
0
  6
Continuous
 62
     0
100
AcDbLine
 10
18.98926754746218
 20
-36.49439889640613
 30
0.0
 11
19.00991595793209
 21
-36.45906353223632
 31
0.0
  0
LINE
  5
30B
102
{ACAD_REACTORS
330
2EF
102
}
330
2ED
100
AcDbEntity
  8
0
  6
Continuous
 62
     0
100
AcDbLine
 10
18.9355823116058
 20
-36.3389271045793
 30
0.0
 11
18.90732942125644
 21
-36.33877892462076
 31
0.0
  0
LINE
  5
30C
330
2ED
100
AcDbEntity
  8
0
  6
Continuous
 62
     0
100
AcDbLine
 10
18.90732942125644
 20
-36.33877892462076
 30
0.0
 11
18.88705251602454
 21
-36.40872053571006
 31
0.0
  0
LINE
  5
30D
330
2ED
100
AcDbEntity
  8
0
  6
Continuous
 62
     0
100
AcDbLine
 10
19.07283311124913
 20
-36.33964611049087
 30
0.0
 11
19.04458022089976
 21
-36.33949793053233
 31
0.0
  0
LINE
  5
30E
102
{ACAD_REACTORS
330
2EF
102
}
330
2ED
100
AcDbEntity
  8
0
  6
Continuous
 62
     0
100
AcDbLine
 10
18.9003659956004
 20
-36.45848977560236
 30
0.0
 11
18.92064206552721
 21
-36.49403889903688
 31
0.0
  0
LINE
  5
30F
102
{ACAD_REACTORS
330
2EF
102
}
330
2ED
100
AcDbEntity
  8
0
  6
Continuous
 62
     0
100
AcDbLine
 10
18.92064206552721
 20
-36.49403889903688
 30
0.0
 11
18.94129064117244
 21
-36.45870452337765
 31
0.0
  0
LINE
  5
310
330
2ED
100
AcDbEntity
  8
0
  6
Continuous
 62
     0
100
AcDbLine
 10
19.04458022089976
 20
-36.33949793053233
 30
0.0
 11
19.02430316309441
 21
-36.30394896784586
 31
0.0
  0
LINE
  5
311
102
{ACAD_REACTORS
330
2EF
102
}
330
2ED
100
AcDbEntity
  8
0
  6
Continuous
 62
     0
100
AcDbLine
 10
18.89006662644873
 20
-36.49401372240793
 30
0.0
 11
18.9350302576194
 21
-36.33892417421466
 31
0.0
  0
LINE
  5
312
102
{ACAD_REACTORS
330
2EF
102
}
330
2ED
100
AcDbEntity
  8
0
  6
Continuous
 62
     0
100
AcDbLine
 10
18.94073743413215
 20
-36.45870076525056
 30
0.0
 11
18.96899147753543
 21
-36.45884977297159
 31
0.0
  0
LINE
  5
313
102
{ACAD_REACTORS
330
2EF
102
}
330
2ED
100
AcDbEntity
  8
0
  6
Continuous
 62
     0
100
AcDbLine
 10
19.02430316309441
 20
-36.30394896784586
 30
0.0
 11
19.0036555743791
 21
-36.33928318307339
 31
0.0
  0
LINE
  5
314
102
{ACAD_REACTORS
330
2EF
102
}
330
2ED
100
AcDbEntity
  8
0
  6
Continuous
 62
     0
100
AcDbLine
 10
19.00420779448947
 20
-36.33928710163218
 30
0.0
 11
18.97595490414006
 21
-36.33913892167367
 31
0.0
  0
LINE
  5
315
102
{ACAD_REACTORS
330
2EF
102
}
330
2ED
100
AcDbEntity
  8
0
  6
Continuous
 62
     0
100
AcDbLine
 10
18.97595490414006
 20
-36.33913892167367
 30
0.0
 11
18.95567768021076
 21
-36.30358897079296
 31
0.0
  0
LINE
  5
316
330
2ED
100
AcDbEntity
  8
0
  6
Continuous
 62
     0
100
AcDbLine
 10
18.94129064117244
 20
-36.45870452337765
 30
0.0
 11
18.97595490414006
 21
-36.33913892167367
 31
0.0
  0
LINE
  5
317
330
2ED
100
AcDbEntity
  8
0
  6
Continuous
 62
     0
100
AcDbLine
 10
18.92064206552721
 20
-36.49403889903688
 30
0.0
 11
18.95567768021076
 21
-36.30358897079296
 31
0.0
  0
LINE
  5
318
102
{ACAD_REACTORS
330
2EF
102
}
330
2ED
100
AcDbEntity
  8
0
  6
Continuous
 62
     0
100
AcDbLine
 10
18.95567768021076
 20
-36.30358897079296
 30
0.0
 11
18.9350302576194
 21
-36.33892417421466
 31
0.0
  0
LINE
  5
319
330
2ED
100
AcDbEntity
  8
0
  6
Continuous
 62
     0
100
AcDbLine
 10
18.96899147753543
 20
-36.45884977297159
 30
0.0
 11
19.0036555743791
 21
-36.33928318307339
 31
0.0
  0
LINE
  5
31A
102
{ACAD_REACTORS
330
2EF
102
}
330
2ED
100
AcDbEntity
  8
0
  6
Continuous
 62
     0
100
AcDbLine
 10
18.90732942125644
 20
-36.33877892462076
 30
0.0
 11
18.88705236345105
 21
-36.30322996193428
 31
0.0
  0
LINE
  5
31B
330
2ED
100
AcDbEntity
  8
0
  6
Continuous
 62
     0
100
AcDbLine
 10
18.88705236345105
 20
-36.30322996193428
 30
0.0
 11
18.88705251602454
 21
-36.40872053571006
 31
0.0
  0
LINE
  5
31C
330
2ED
100
AcDbEntity
  8
0
  6
Continuous
 62
     0
100
AcDbLine
 10
19.12707040109192
 20
-36.49512083268225
 30
0.0
 11
19.16210617968481
 21
-36.30467188282973
 31
0.0
  0
LINE
  5
31D
330
2ED
100
AcDbEntity
  8
0
  6
Continuous
 62
     0
100
AcDbLine
 10
19.14201064495591
 20
-36.34000902842184
 30
0.0
 11
19.11375775776979
 21
-36.33986085794983
 31
0.0
  0
LINE
  5
31E
330
2ED
100
AcDbEntity
  8
0
  6
Continuous
 62
     0
100
AcDbLine
 10
19.10679432800186
 20
-36.45957169976127
 30
0.0
 11
19.14145859413279
 21
-36.34000610754374
 31
0.0
  0
LINE
  5
31F
330
2ED
100
AcDbEntity
  8
0
  6
Continuous
 62
     0
100
AcDbLine
 10
19.16210617968481
 20
-36.30467188282973
 30
0.0
 11
19.14145859413279
 21
-36.34000610754374
 31
0.0
  0
LINE
  5
320
330
2ED
100
AcDbEntity
  8
0
  6
Continuous
 62
     0
100
AcDbLine
 10
19.07854045293715
 20
-36.45942369003724
 30
0.0
 11
19.11320471590483
 21
-36.33985808833327
 31
0.0
  0
LINE
  5
321
330
2ED
100
AcDbEntity
  8
0
  6
Continuous
 62
     0
100
AcDbLine
 10
19.05789286422189
 20
-36.49475790526478
 30
0.0
 11
19.09292864597806
 21
-36.30430896489878
 31
0.0
  0
LINE
  5
322
330
2ED
100
AcDbEntity
  8
0
  6
Continuous
 62
     0
100
AcDbLine
 10
19.11320471590483
 20
-36.33985808833327
 30
0.0
 11
19.09292864597806
 21
-36.30430896489878
 31
0.0
  0
LINE
  5
323
330
2ED
100
AcDbEntity
  8
0
  6
Continuous
 62
     0
100
AcDbLine
 10
19.09292864597806
 20
-36.30430896489878
 30
0.0
 11
19.07228006938418
 21
-36.33964334087435
 31
0.0
  0
LINE
  5
324
102
{ACAD_REACTORS
330
2EF
102
}
330
2ED
100
AcDbEntity
  8
0
  6
Continuous
 62
     0
100
AcDbLine
 10
19.01070591913038
 20
-36.45906780634886
 30
0.0
 11
19.01070607424243
 21
-36.8877566496968
 31
0.0
  0
LINE
  5
325
102
{ACAD_REACTORS
330
2EF
102
}
330
2ED
100
AcDbEntity
  8
0
  6
Continuous
 62
     0
100
AcDbLine
 10
18.88570578582954
 20
-36.88775664970452
 30
0.0
 11
18.8857057548116
 21
-36.49401370141631
 31
0.0
  0
LINE
  5
326
330
2ED
100
AcDbEntity
  8
0
  6
Continuous
 62
     0
100
AcDbLine
 10
19.25775589311198
 20
-36.39989771059901
 30
0.0
 11
19.22334173974316
 21
-36.45959099591167
 31
0.0
  0
LINE
  5
327
330
2ED
100
AcDbEntity
  8
0
  6
Continuous
 62
     0
100
AcDbLine
 10
19.18272283311606
 20
-36.33811188666718
 30
0.0
 11
19.2237883669855
 21
-36.33832637417011
 31
0.0
  0
LINE
  5
328
330
2ED
100
AcDbEntity
  8
0
  6
Continuous
 62
     0
100
AcDbLine
 10
19.29042829560181
 20
-36.42252474694454
 30
0.0
 11
19.24471040892353
 21
-36.42252502704208
 31
0.0
  0
LINE
  5
329
330
2ED
100
AcDbEntity
  8
0
  6
Continuous
 62
     0
100
AcDbLine
 10
19.29042862667478
 20
-36.38052474785397
 30
0.0
 11
19.24706805514196
 21
-36.38052497030624
 31
0.0
  0
LINE
  5
32A
330
2ED
100
AcDbEntity
  8
0
  6
Continuous
 62
     0
100
AcDbLine
 10
19.2237883669855
 20
-36.33832637417011
 30
0.0
 11
19.25775589311198
 21
-36.39989771059901
 31
0.0
  0
ARC
  5
32B
330
2ED
100
AcDbEntity
  8
0
  6
Continuous
 62
     0
100
AcDbCircle
 10
19.33242871633834
 20
-36.38546378537057
 30
0.0
 40
0.131782
100
AcDbArc
 50
260.8301149300001
 51
279.1689869290015
  0
LINE
  5
32C
330
2ED
100
AcDbEntity
  8
0
  6
Continuous
 62
     0
100
AcDbLine
 10
19.31142813372154
 20
-36.44352491170969
 30
0.0
 11
19.31142792354484
 21
-36.51556078800541
 31
0.0
  0
ARC
  5
32D
330
2ED
100
AcDbEntity
  8
0
  6
Continuous
 62
     0
100
AcDbCircle
 10
19.29042813259559
 20
-36.44352475091678
 30
0.0
 40
0.021
100
AcDbArc
 50
359.9995508999989
 51
89.99955090000099
  0
ARC
  5
32E
330
2ED
100
AcDbEntity
  8
0
  6
Continuous
 62
     0
100
AcDbCircle
 10
19.37442879829664
 20
-36.35952539622349
 30
0.0
 40
0.021
100
AcDbArc
 50
179.9995508999997
 51
269.9995509299998
  0
LINE
  5
32F
330
2ED
100
AcDbEntity
  8
0
  6
Continuous
 62
     0
100
AcDbLine
 10
19.31142972602673
 20
-36.2878387154978
 30
0.0
 11
19.31142879175555
 21
-36.3595249043583
 31
0.0
  0
LINE
  5
330
330
2ED
100
AcDbEntity
  8
0
  6
Continuous
 62
     0
100
AcDbLine
 10
19.3534297282786
 20
-36.28783903708356
 30
0.0
 11
19.35342879717071
 21
-36.35952523543063
 31
0.0
  0
ARC
  5
331
330
2ED
100
AcDbEntity
  8
0
  6
Continuous
 62
     0
100
AcDbCircle
 10
19.33242795076976
 20
-36.41793620995294
 30
0.0
 40
0.131782
100
AcDbArc
 50
80.83011490000023
 51
99.16898690000129
  0
ARC
  5
332
330
2ED
100
AcDbEntity
  8
0
  6
Continuous
 62
     0
100
AcDbCircle
 10
19.37442814342592
 20
-36.44352541306139
 30
0.0
 40
0.021
100
AcDbArc
 50
89.99955090000099
 51
179.9995508999997
  0
LINE
  5
333
330
2ED
100
AcDbEntity
  8
2
  6
CENTER
 62
     4
100
AcDbLine
 10
19.39660967868074
 20
-36.4015256195114
 30
0.0
 11
19.26824741738682
 21
-36.40152551613942
 31
0.0
  0
ARC
  5
334
330
2ED
100
AcDbEntity
  8
0
  6
Continuous
 62
     0
100
AcDbCircle
 10
19.29042879062959
 20
-36.35952474356539
 30
0.0
 40
0.021
100
AcDbArc
 50
269.9995509299998
 51
359.9995508999989
  0
LINE
  5
335
330
2ED
100
AcDbEntity
  8
0
  6
Continuous
 62
     0
100
AcDbLine
 10
19.35342813913668
 20
-36.44352524278197
 30
0.0
 11
19.35342792896
 21
-36.51556111907773
 31
0.0
  0
LINE
  5
336
330
2ED
100
AcDbEntity
  8
2
  6
CENTER
 62
     4
100
AcDbLine
 10
19.33242917845984
 20
-36.33734484663234
 30
0.0
 11
19.33242791760775
 21
-36.46570628901856
 31
0.0
  0
LINE
  5
337
330
2ED
100
AcDbEntity
  8
0
  6
Continuous
 62
     0
100
AcDbLine
 10
19.14771897452253
 20
-36.45978644722018
 30
0.0
 11
19.18238323654155
 21
-36.34022084583254
 31
0.0
  0
LINE
  5
338
330
2ED
100
AcDbEntity
  8
0
  6
Continuous
 62
     0
100
AcDbLine
 10
19.18238323654155
 20
-36.34022084583254
 30
0.0
 11
19.16210617968481
 21
-36.30467188282973
 31
0.0
  0
LINE
  5
339
330
2ED
100
AcDbEntity
  8
0
  6
Continuous
 62
     0
100
AcDbLine
 10
19.17392223858312
 20
-36.45933162716215
 30
0.0
 11
19.17904424646606
 21
-36.43148847403376
 31
0.0
  0
LINE
  5
33A
330
2ED
100
AcDbEntity
  8
0
  6
Continuous
 62
     0
100
AcDbLine
 10
19.17885259383533
 20
-36.46797647162633
 30
0.0
 11
19.17904424646606
 21
-36.43148847403376
 31
0.0
  0
LINE
  5
33B
330
2ED
100
AcDbEntity
  8
0
  6
Continuous
 62
     0
100
AcDbLine
 10
19.17889779403028
 20
-36.45935782513894
 30
0.0
 11
19.22334173974316
 21
-36.45959099591167
 31
0.0
  0
LINE
  5
33C
330
2ED
100
AcDbEntity
  8
0
  6
Continuous
 62
     0
100
AcDbLine
 10
18.752889958209
 20
-36.21240506816928
 30
0.0
 11
18.75288995820901
 21
-36.58740506816928
 31
0.0
  0
LINE
  5
33D
102
{ACAD_REACTORS
330
2EF
102
}
330
2ED
100
AcDbEntity
  8
0
  6
Continuous
 62
     0
100
AcDbLine
 10
18.75288995820901
 20
-36.49401306208977
 30
0.0
 11
18.89006662644873
 21
-36.49401372240793
 31
0.0
  0
LINE
  5
33E
102
{ACAD_REACTORS
330
2EF
102
}
330
2ED
100
AcDbEntity
  8
0
  6
Continuous
 62
     0
100
AcDbLine
 10
18.752889958209
 20
-36.30322931612568
 30
0.0
 11
18.88705236345105
 21
-36.30322996193428
 31
0.0
  0
ARC
  5
33F
330
2ED
100
AcDbEntity
  8
0
  6
Continuous
 62
     0
100
AcDbCircle
 10
18.75288995820901
 20
-36.45719316911877
 30
0.0
 40
0.1302118990505079
100
AcDbArc
 50
180.0
 51
270.0
  0
ARC
  5
340
330
2ED
100
AcDbEntity
  8
0
  6
Continuous
 62
     0
100
AcDbCircle
 10
18.75288995820901
 20
-36.34261696721978
 30
0.0
 40
0.1302118990505079
100
AcDbArc
 50
90.00000000000305
 51
180.0000000000031
  0
LINE
  5
341
330
2ED
100
AcDbEntity
  8
0
  6
Continuous
 62
     0
100
AcDbLine
 10
18.6226780591585
 20
-36.45719316911877
 30
0.0
 11
18.6226780591585
 21
-36.34261696721978
 31
0.0
  0
LINE
  5
342
330
2ED
100
AcDbEntity
  8
0
  6
Continuous
 62
     0
100
AcDbLine
 10
19.14755172537928
 20
-36.45919291485061
 30
0.0
 11
19.17392223858312
 21
-36.45933162716215
 31
0.0
  0
LINE
  5
343
330
2ED
100
AcDbEntity
  8
0
  6
Continuous
 62
     0
100
AcDbLine
 10
19.17392223858312
 20
-36.45933162716215
 30
0.0
 11
19.17885259383533
 21
-36.46797647162633
 31
0.0
  0
LINE
  5
344
330
2ED
100
AcDbEntity
  8
0
  6
Continuous
 62
     0
100
AcDbLine
 10
19.01070570468436
 20
-35.9759629209838
 30
0.0
 11
19.0107058997314
 21
-36.32721796243885
 31
0.0
  0
LINE
  5
345
330
2ED
100
AcDbEntity
  8
0
  6
Continuous
 62
     0
100
AcDbLine
 10
18.88570556231255
 20
-36.30324406083718
 30
0.0
 11
18.88570540109838
 21
-35.97596295063471
 31
0.0
  0
LINE
  5
346
330
2ED
100
AcDbEntity
  8
0
  6
Continuous
 62
     0
100
AcDbLine
 10
19.10679432800186
 20
-36.45957169976127
 30
0.0
 11
19.12707040109192
 21
-36.49512083268225
 31
0.0
  0
LINE
  5
347
330
2ED
100
AcDbEntity
  8
0
  6
Continuous
 62
     0
100
AcDbLine
 10
19.12707040109192
 20
-36.49512083268225
 30
0.0
 11
19.14771897452253
 21
-36.45978644722018
 31
0.0
  0
LINE
  5
348
330
2ED
100
AcDbEntity
  8
0
  6
Continuous
 62
     0
100
AcDbLine
 10
19.00991595793209
 20
-36.45906353223632
 30
0.0
 11
19.04458022089976
 21
-36.33949793053233
 31
0.0
  0
LINE
  5
349
330
2ED
100
AcDbEntity
  8
0
  6
Continuous
 62
     0
100
AcDbLine
 10
19.03761580736515
 20
-36.45920894226198
 30
0.0
 11
19.07228006938418
 21
-36.33964334087435
 31
0.0
  0
LINE
  5
34A
330
2ED
100
AcDbEntity
  8
0
  6
Continuous
 62
     0
100
AcDbLine
 10
18.96899147753543
 20
-36.45884977297159
 30
0.0
 11
18.98926754746218
 21
-36.49439889640613
 31
0.0
  0
LINE
  5
34B
330
2ED
100
AcDbEntity
  8
0
  6
Continuous
 62
     0
100
AcDbLine
 10
18.98926754746218
 20
-36.49439889640613
 30
0.0
 11
19.02430316309441
 21
-36.30394896784586
 31
0.0
  0
LINE
  5
34C
330
2ED
100
AcDbEntity
  8
0
  6
Continuous
 62
     0
100
AcDbLine
 10
19.05789286422189
 20
-36.49475790526478
 30
0.0
 11
19.07854045293715
 21
-36.45942369003724
 31
0.0
  0
LINE
  5
34D
330
2ED
100
AcDbEntity
  8
0
  6
Continuous
 62
     0
100
AcDbLine
 10
19.07854045293715
 20
-36.45942369003724
 30
0.0
 11
19.10679432800186
 21
-36.45957169976127
 31
0.0
  0
LINE
  5
34E
330
2ED
100
AcDbEntity
  8
0
  6
Continuous
 62
     0
100
AcDbLine
 10
19.00936291606712
 20
-36.4590607626198
 30
0.0
 11
19.03761580736515
 21
-36.45920894226198
 31
0.0
  0
LINE
  5
34F
330
2ED
100
AcDbEntity
  8
0
  6
Continuous
 62
     0
100
AcDbLine
 10
19.03761580736515
 20
-36.45920894226198
 30
0.0
 11
19.05789286422189
 21
-36.49475790526478
 31
0.0
  0
LINE
  5
350
330
2ED
100
AcDbEntity
  8
0
  6
Continuous
 62
     0
100
AcDbLine
 10
18.98926754746218
 20
-36.49439889640613
 30
0.0
 11
19.00991595793209
 21
-36.45906353223632
 31
0.0
  0
LINE
  5
351
330
2ED
100
AcDbEntity
  8
0
  6
Continuous
 62
     0
100
AcDbLine
 10
18.9355823116058
 20
-36.3389271045793
 30
0.0
 11
18.90732942125644
 21
-36.33877892462076
 31
0.0
  0
LINE
  5
352
330
2ED
100
AcDbEntity
  8
0
  6
Continuous
 62
     0
100
AcDbLine
 10
18.90732942125644
 20
-36.33877892462076
 30
0.0
 11
18.88705251602454
 21
-36.40872053571006
 31
0.0
  0
LINE
  5
353
330
2ED
100
AcDbEntity
  8
0
  6
Continuous
 62
     0
100
AcDbLine
 10
19.07283311124913
 20
-36.33964611049087
 30
0.0
 11
19.04458022089976
 21
-36.33949793053233
 31
0.0
  0
LINE
  5
354
330
2ED
100
AcDbEntity
  8
0
  6
Continuous
 62
     0
100
AcDbLine
 10
18.9003659956004
 20
-36.45848977560236
 30
0.0
 11
18.92064206552721
 21
-36.49403889903688
 31
0.0
  0
LINE
  5
355
330
2ED
100
AcDbEntity
  8
0
  6
Continuous
 62
     0
100
AcDbLine
 10
18.92064206552721
 20
-36.49403889903688
 30
0.0
 11
18.94129064117244
 21
-36.45870452337765
 31
0.0
  0
LINE
  5
356
330
2ED
100
AcDbEntity
  8
0
  6
Continuous
 62
     0
100
AcDbLine
 10
19.04458022089976
 20
-36.33949793053233
 30
0.0
 11
19.02430316309441
 21
-36.30394896784586
 31
0.0
  0
LINE
  5
357
330
2ED
100
AcDbEntity
  8
0
  6
Continuous
 62
     0
100
AcDbLine
 10
18.89006662644873
 20
-36.49401372240793
 30
0.0
 11
18.9350302576194
 21
-36.33892417421466
 31
0.0
  0
LINE
  5
358
330
2ED
100
AcDbEntity
  8
0
  6
Continuous
 62
     0
100
AcDbLine
 10
18.94073743413215
 20
-36.45870076525056
 30
0.0
 11
18.96899147753543
 21
-36.45884977297159
 31
0.0
  0
LINE
  5
359
330
2ED
100
AcDbEntity
  8
0
  6
Continuous
 62
     0
100
AcDbLine
 10
19.02430316309441
 20
-36.30394896784586
 30
0.0
 11
19.0036555743791
 21
-36.33928318307339
 31
0.0
  0
LINE
  5
35A
330
2ED
100
AcDbEntity
  8
0
  6
Continuous
 62
     0
100
AcDbLine
 10
19.00420779448947
 20
-36.33928710163218
 30
0.0
 11
18.97595490414006
 21
-36.33913892167367
 31
0.0
  0
LINE
  5
35B
330
2ED
100
AcDbEntity
  8
0
  6
Continuous
 62
     0
100
AcDbLine
 10
18.97595490414006
 20
-36.33913892167367
 30
0.0
 11
18.95567768021076
 21
-36.30358897079296
 31
0.0
  0
LINE
  5
35C
330
2ED
100
AcDbEntity
  8
0
  6
Continuous
 62
     0
100
AcDbLine
 10
18.94129064117244
 20
-36.45870452337765
 30
0.0
 11
18.97595490414006
 21
-36.33913892167367
 31
0.0
  0
LINE
  5
35D
330
2ED
100
AcDbEntity
  8
0
  6
Continuous
 62
     0
100
AcDbLine
 10
18.92064206552721
 20
-36.49403889903688
 30
0.0
 11
18.95567768021076
 21
-36.30358897079296
 31
0.0
  0
LINE
  5
35E
330
2ED
100
AcDbEntity
  8
0
  6
Continuous
 62
     0
100
AcDbLine
 10
18.95567768021076
 20
-36.30358897079296
 30
0.0
 11
18.9350302576194
 21
-36.33892417421466
 31
0.0
  0
LINE
  5
35F
330
2ED
100
AcDbEntity
  8
0
  6
Continuous
 62
     0
100
AcDbLine
 10
18.96899147753543
 20
-36.45884977297159
 30
0.0
 11
19.0036555743791
 21
-36.33928318307339
 31
0.0
  0
LINE
  5
360
330
2ED
100
AcDbEntity
  8
0
  6
Continuous
 62
     0
100
AcDbLine
 10
18.90732942125644
 20
-36.33877892462076
 30
0.0
 11
18.88705236345105
 21
-36.30322996193428
 31
0.0
  0
LINE
  5
361
330
2ED
100
AcDbEntity
  8
0
  6
Continuous
 62
     0
100
AcDbLine
 10
18.88705236345105
 20
-36.30322996193428
 30
0.0
 11
18.88705251602454
 21
-36.40872053571006
 31
0.0
  0
LINE
  5
362
330
2ED
100
AcDbEntity
  8
0
  6
Continuous
 62
     0
100
AcDbLine
 10
19.12707040109192
 20
-36.49512083268225
 30
0.0
 11
19.16210617968481
 21
-36.30467188282973
 31
0.0
  0
LINE
  5
363
330
2ED
100
AcDbEntity
  8
0
  6
Continuous
 62
     0
100
AcDbLine
 10
19.14201064495591
 20
-36.34000902842184
 30
0.0
 11
19.11375775776979
 21
-36.33986085794983
 31
0.0
  0
LINE
  5
364
330
2ED
100
AcDbEntity
  8
0
  6
Continuous
 62
     0
100
AcDbLine
 10
19.10679432800186
 20
-36.45957169976127
 30
0.0
 11
19.14145859413279
 21
-36.34000610754374
 31
0.0
  0
LINE
  5
365
330
2ED
100
AcDbEntity
  8
0
  6
Continuous
 62
     0
100
AcDbLine
 10
19.16210617968481
 20
-36.30467188282973
 30
0.0
 11
19.14145859413279
 21
-36.34000610754374
 31
0.0
  0
LINE
  5
366
330
2ED
100
AcDbEntity
  8
0
  6
Continuous
 62
     0
100
AcDbLine
 10
19.07854045293715
 20
-36.45942369003724
 30
0.0
 11
19.11320471590483
 21
-36.33985808833327
 31
0.0
  0
LINE
  5
367
330
2ED
100
AcDbEntity
  8
0
  6
Continuous
 62
     0
100
AcDbLine
 10
19.05789286422189
 20
-36.49475790526478
 30
0.0
 11
19.09292864597806
 21
-36.30430896489878
 31
0.0
  0
LINE
  5
368
330
2ED
100
AcDbEntity
  8
0
  6
Continuous
 62
     0
100
AcDbLine
 10
19.11320471590483
 20
-36.33985808833327
 30
0.0
 11
19.09292864597806
 21
-36.30430896489878
 31
0.0
  0
LINE
  5
369
330
2ED
100
AcDbEntity
  8
0
  6
Continuous
 62
     0
100
AcDbLine
 10
19.09292864597806
 20
-36.30430896489878
 30
0.0
 11
19.07228006938418
 21
-36.33964334087435
 31
0.0
  0
LINE
  5
36A
330
2ED
100
AcDbEntity
  8
0
  6
Continuous
 62
     0
100
AcDbLine
 10
19.01070591913038
 20
-36.45906780634886
 30
0.0
 11
19.01070607424243
 21
-36.8877566496968
 31
0.0
  0
LINE
  5
36B
330
2ED
100
AcDbEntity
  8
0
  6
Continuous
 62
     0
100
AcDbLine
 10
18.88570578582954
 20
-36.88775664970452
 30
0.0
 11
18.8857057548116
 21
-36.49401370141631
 31
0.0
  0
LINE
  5
36C
330
2ED
100
AcDbEntity
  8
0
  6
Continuous
 62
     0
100
AcDbLine
 10
19.25775589311198
 20
-36.39989771059901
 30
0.0
 11
19.22334173974316
 21
-36.45959099591167
 31
0.0
  0
LINE
  5
36D
330
2ED
100
AcDbEntity
  8
0
  6
Continuous
 62
     0
100
AcDbLine
 10
19.18272283311606
 20
-36.33811188666718
 30
0.0
 11
19.2237883669855
 21
-36.33832637417011
 31
0.0
  0
LINE
  5
36E
330
2ED
100
AcDbEntity
  8
0
  6
Continuous
 62
     0
100
AcDbLine
 10
19.29042829560181
 20
-36.42252474694454
 30
0.0
 11
19.24471040892353
 21
-36.42252502704208
 31
0.0
  0
LINE
  5
36F
330
2ED
100
AcDbEntity
  8
0
  6
Continuous
 62
     0
100
AcDbLine
 10
19.29042862667478
 20
-36.38052474785397
 30
0.0
 11
19.24706805514196
 21
-36.38052497030624
 31
0.0
  0
LINE
  5
370
330
2ED
100
AcDbEntity
  8
0
  6
Continuous
 62
     0
100
AcDbLine
 10
19.2237883669855
 20
-36.33832637417011
 30
0.0
 11
19.25775589311198
 21
-36.39989771059901
 31
0.0
  0
ARC
  5
371
330
2ED
100
AcDbEntity
  8
0
  6
Continuous
 62
     0
100
AcDbCircle
 10
19.33242871633834
 20
-36.38546378537057
 30
0.0
 40
0.131782
100
AcDbArc
 50
260.8301149300001
 51
279.1689869290015
  0
LINE
  5
372
330
2ED
100
AcDbEntity
  8
0
  6
Continuous
 62
     0
100
AcDbLine
 10
19.31142813372154
 20
-36.44352491170969
 30
0.0
 11
19.31142792354484
 21
-36.51556078800541
 31
0.0
  0
ARC
  5
373
330
2ED
100
AcDbEntity
  8
0
  6
Continuous
 62
     0
100
AcDbCircle
 10
19.29042813259559
 20
-36.44352475091678
 30
0.0
 40
0.021
100
AcDbArc
 50
359.9995508999989
 51
89.99955090000099
  0
ARC
  5
374
330
2ED
100
AcDbEntity
  8
0
  6
Continuous
 62
     0
100
AcDbCircle
 10
19.37442879829664
 20
-36.35952539622349
 30
0.0
 40
0.021
100
AcDbArc
 50
179.9995508999997
 51
269.9995509299998
  0
LINE
  5
375
330
2ED
100
AcDbEntity
  8
0
  6
Continuous
 62
     0
100
AcDbLine
 10
19.31142972602673
 20
-36.2878387154978
 30
0.0
 11
19.31142879175555
 21
-36.3595249043583
 31
0.0
  0
LINE
  5
376
330
2ED
100
AcDbEntity
  8
0
  6
Continuous
 62
     0
100
AcDbLine
 10
19.3534297282786
 20
-36.28783903708356
 30
0.0
 11
19.35342879717071
 21
-36.35952523543063
 31
0.0
  0
ARC
  5
377
330
2ED
100
AcDbEntity
  8
0
  6
Continuous
 62
     0
100
AcDbCircle
 10
19.33242795076976
 20
-36.41793620995294
 30
0.0
 40
0.131782
100
AcDbArc
 50
80.83011490000023
 51
99.16898690000129
  0
ARC
  5
378
330
2ED
100
AcDbEntity
  8
0
  6
Continuous
 62
     0
100
AcDbCircle
 10
19.37442814342592
 20
-36.44352541306139
 30
0.0
 40
0.021
100
AcDbArc
 50
89.99955090000099
 51
179.9995508999997
  0
LINE
  5
379
330
2ED
100
AcDbEntity
  8
2
  6
CENTER
 62
     4
100
AcDbLine
 10
19.39660967868074
 20
-36.4015256195114
 30
0.0
 11
19.26824741738682
 21
-36.40152551613942
 31
0.0
  0
ARC
  5
37A
330
2ED
100
AcDbEntity
  8
0
  6
Continuous
 62
     0
100
AcDbCircle
 10
19.29042879062959
 20
-36.35952474356539
 30
0.0
 40
0.021
100
AcDbArc
 50
269.9995509299998
 51
359.9995508999989
  0
LINE
  5
37B
330
2ED
100
AcDbEntity
  8
0
  6
Continuous
 62
     0
100
AcDbLine
 10
19.35342813913668
 20
-36.44352524278197
 30
0.0
 11
19.35342792896
 21
-36.51556111907773
 31
0.0
  0
LINE
  5
37C
330
2ED
100
AcDbEntity
  8
2
  6
CENTER
 62
     4
100
AcDbLine
 10
19.33242917845984
 20
-36.33734484663234
 30
0.0
 11
19.33242791760775
 21
-36.46570628901856
 31
0.0
  0
LINE
  5
37D
330
2ED
100
AcDbEntity
  8
0
  6
Continuous
 62
     0
100
AcDbLine
 10
19.14771897452253
 20
-36.45978644722018
 30
0.0
 11
19.18238323654155
 21
-36.34022084583254
 31
0.0
  0
LINE
  5
37E
330
2ED
100
AcDbEntity
  8
0
  6
Continuous
 62
     0
100
AcDbLine
 10
19.18238323654155
 20
-36.34022084583254
 30
0.0
 11
19.16210617968481
 21
-36.30467188282973
 31
0.0
  0
LINE
  5
37F
330
2ED
100
AcDbEntity
  8
0
  6
Continuous
 62
     0
100
AcDbLine
 10
19.17392223858312
 20
-36.45933162716215
 30
0.0
 11
19.17904424646606
 21
-36.43148847403376
 31
0.0
  0
LINE
  5
380
330
2ED
100
AcDbEntity
  8
0
  6
Continuous
 62
     0
100
AcDbLine
 10
19.17885259383533
 20
-36.46797647162633
 30
0.0
 11
19.17904424646606
 21
-36.43148847403376
 31
0.0
  0
LINE
  5
381
330
2ED
100
AcDbEntity
  8
0
  6
Continuous
 62
     0
100
AcDbLine
 10
19.17889779403028
 20
-36.45935782513894
 30
0.0
 11
19.22334173974316
 21
-36.45959099591167
 31
0.0
  0
LINE
  5
382
330
2ED
100
AcDbEntity
  8
0
  6
Continuous
 62
     0
100
AcDbLine
 10
18.752889958209
 20
-36.21240506816928
 30
0.0
 11
18.75288995820901
 21
-36.58740506816928
 31
0.0
  0
LINE
  5
383
330
2ED
100
AcDbEntity
  8
0
  6
Continuous
 62
     0
100
AcDbLine
 10
18.75288995820901
 20
-36.49401306208977
 30
0.0
 11
18.89006662644873
 21
-36.49401372240793
 31
0.0
  0
LINE
  5
384
330
2ED
100
AcDbEntity
  8
0
  6
Continuous
 62
     0
100
AcDbLine
 10
18.752889958209
 20
-36.30322931612568
 30
0.0
 11
18.88705236345105
 21
-36.30322996193428
 31
0.0
  0
LINE
  5
385
102
{ACAD_REACTORS
330
2EF
102
}
330
2ED
100
AcDbEntity
  8
0
  6
Continuous
 62
     0
100
AcDbLine
 10
20.75289035255295
 20
-36.30322931612568
 30
0.0
 11
20.6187279473109
 21
-36.30322996193428
 31
0.0
  0
LINE
  5
386
102
{ACAD_REACTORS
330
2EF
102
}
330
2ED
100
AcDbEntity
  8
0
  6
Continuous
 62
     0
100
AcDbLine
 10
20.75289035255295
 20
-36.49401306208977
 30
0.0
 11
20.61571368431323
 21
-36.49401372240793
 31
0.0
  0
LINE
  5
387
330
2ED
100
AcDbEntity
  8
0
  6
Continuous
 62
     0
100
AcDbLine
 10
20.75289035255295
 20
-36.21240506816928
 30
0.0
 11
20.75289035255294
 21
-36.58740506816928
 31
0.0
  0
LINE
  5
388
330
2ED
100
AcDbEntity
  8
0
  6
Continuous
 62
     0
100
AcDbLine
 10
20.32688251673167
 20
-36.45935782513894
 30
0.0
 11
20.2824385710188
 21
-36.45959099591167
 31
0.0
  0
LINE
  5
389
330
2ED
100
AcDbEntity
  8
0
  6
Continuous
 62
     0
100
AcDbLine
 10
20.32692771692662
 20
-36.46797647162633
 30
0.0
 11
20.32673606429589
 21
-36.43148847403376
 31
0.0
  0
LINE
  5
38A
330
2ED
100
AcDbEntity
  8
0
  6
Continuous
 62
     0
100
AcDbLine
 10
20.33185807217884
 20
-36.45933162716215
 30
0.0
 11
20.32673606429589
 21
-36.43148847403376
 31
0.0
  0
LINE
  5
38B
330
2ED
100
AcDbEntity
  8
0
  6
Continuous
 62
     0
100
AcDbLine
 10
20.32339707422041
 20
-36.34022084583254
 30
0.0
 11
20.34367413107714
 21
-36.30467188282973
 31
0.0
  0
LINE
  5
38C
330
2ED
100
AcDbEntity
  8
0
  6
Continuous
 62
     0
100
AcDbLine
 10
20.35806133623943
 20
-36.45978644722018
 30
0.0
 11
20.32339707422041
 21
-36.34022084583254
 31
0.0
  0
LINE
  5
38D
330
2ED
100
AcDbEntity
  8
2
  6
CENTER
 62
     4
100
AcDbLine
 10
20.17335113230212
 20
-36.33734484663234
 30
0.0
 11
20.17335239315421
 21
-36.46570628901856
 31
0.0
  0
LINE
  5
38E
330
2ED
100
AcDbEntity
  8
0
  6
Continuous
 62
     0
100
AcDbLine
 10
20.15235217162528
 20
-36.44352524278197
 30
0.0
 11
20.15235238180195
 21
-36.51556111907773
 31
0.0
  0
ARC
  5
38F
330
2ED
100
AcDbEntity
  8
0
  6
Continuous
 62
     0
100
AcDbCircle
 10
20.21535152013236
 20
-36.35952474356539
 30
0.0
 40
0.021
100
AcDbArc
 50
180.000449100001
 51
270.0004490700002
  0
LINE
  5
390
330
2ED
100
AcDbEntity
  8
2
  6
CENTER
 62
     4
100
AcDbLine
 10
20.10917063208121
 20
-36.4015256195114
 30
0.0
 11
20.23753289337513
 21
-36.40152551613942
 31
0.0
  0
ARC
  5
391
330
2ED
100
AcDbEntity
  8
0
  6
Continuous
 62
     0
100
AcDbCircle
 10
20.13135216733604
 20
-36.44352541306139
 30
0.0
 40
0.021
100
AcDbArc
 50
0.0004491000002257
 51
90.00044909999902
  0
ARC
  5
392
330
2ED
100
AcDbEntity
  8
0
  6
Continuous
 62
     0
100
AcDbCircle
 10
20.17335235999219
 20
-36.41793620995294
 30
0.0
 40
0.131782
100
AcDbArc
 50
80.83101309999872
 51
99.16988509999978
  0
LINE
  5
393
330
2ED
100
AcDbEntity
  8
0
  6
Continuous
 62
     0
100
AcDbLine
 10
20.15235058248336
 20
-36.28783903708356
 30
0.0
 11
20.15235151359124
 21
-36.35952523543063
 31
0.0
  0
LINE
  5
394
330
2ED
100
AcDbEntity
  8
0
  6
Continuous
 62
     0
100
AcDbLine
 10
20.19435058473523
 20
-36.2878387154978
 30
0.0
 11
20.19435151900641
 21
-36.3595249043583
 31
0.0
  0
ARC
  5
395
330
2ED
100
AcDbEntity
  8
0
  6
Continuous
 62
     0
100
AcDbCircle
 10
20.13135151246531
 20
-36.35952539622349
 30
0.0
 40
0.021
100
AcDbArc
 50
270.0004490700002
 51
0.0004491000002257
  0
ARC
  5
396
330
2ED
100
AcDbEntity
  8
0
  6
Continuous
 62
     0
100
AcDbCircle
 10
20.21535217816637
 20
-36.44352475091678
 30
0.0
 40
0.021
100
AcDbArc
 50
90.00044909999902
 51
180.000449100001
  0
LINE
  5
397
330
2ED
100
AcDbEntity
  8
0
  6
Continuous
 62
     0
100
AcDbLine
 10
20.19435217704042
 20
-36.44352491170969
 30
0.0
 11
20.19435238721711
 21
-36.51556078800541
 31
0.0
  0
ARC
  5
398
330
2ED
100
AcDbEntity
  8
0
  6
Continuous
 62
     0
100
AcDbCircle
 10
20.17335159442362
 20
-36.38546378537057
 30
0.0
 40
0.131782
100
AcDbArc
 50
260.8310130709985
 51
279.1698850699999
  0
LINE
  5
399
330
2ED
100
AcDbEntity
  8
0
  6
Continuous
 62
     0
100
AcDbLine
 10
20.28199194377646
 20
-36.33832637417011
 30
0.0
 11
20.24802441764998
 21
-36.39989771059901
 31
0.0
  0
LINE
  5
39A
330
2ED
100
AcDbEntity
  8
0
  6
Continuous
 62
     0
100
AcDbLine
 10
20.21535168408717
 20
-36.38052474785397
 30
0.0
 11
20.25871225561999
 21
-36.38052497030624
 31
0.0
  0
LINE
  5
39B
330
2ED
100
AcDbEntity
  8
0
  6
Continuous
 62
     0
100
AcDbLine
 10
20.21535201516015
 20
-36.42252474694454
 30
0.0
 11
20.26106990183842
 21
-36.42252502704208
 31
0.0
  0
LINE
  5
39C
330
2ED
100
AcDbEntity
  8
0
  6
Continuous
 62
     0
100
AcDbLine
 10
20.32305747764589
 20
-36.33811188666718
 30
0.0
 11
20.28199194377646
 21
-36.33832637417011
 31
0.0
  0
LINE
  5
39D
330
2ED
100
AcDbEntity
  8
0
  6
Continuous
 62
     0
100
AcDbLine
 10
20.24802441764998
 20
-36.39989771059901
 30
0.0
 11
20.2824385710188
 21
-36.45959099591167
 31
0.0
  0
LINE
  5
39E
102
{ACAD_REACTORS
330
2EF
102
}
330
2ED
100
AcDbEntity
  8
0
  6
Continuous
 62
     0
100
AcDbLine
 10
20.62007452493242
 20
-36.88775664970452
 30
0.0
 11
20.62007455595036
 21
-36.49401370141631
 31
0.0
  0
LINE
  5
39F
102
{ACAD_REACTORS
330
2EF
102
}
330
2ED
100
AcDbEntity
  8
0
  6
Continuous
 62
     0
100
AcDbLine
 10
20.49507439163157
 20
-36.45906780634886
 30
0.0
 11
20.49507423651952
 21
-36.8877566496968
 31
0.0
  0
LINE
  5
3A0
330
2ED
100
AcDbEntity
  8
0
  6
Continuous
 62
     0
100
AcDbLine
 10
20.41285166478389
 20
-36.30430896489878
 30
0.0
 11
20.43350024137778
 21
-36.33964334087435
 31
0.0
  0
LINE
  5
3A1
330
2ED
100
AcDbEntity
  8
0
  6
Continuous
 62
     0
100
AcDbLine
 10
20.39257559485712
 20
-36.33985808833327
 30
0.0
 11
20.41285166478389
 21
-36.30430896489878
 31
0.0
  0
LINE
  5
3A2
330
2ED
100
AcDbEntity
  8
0
  6
Continuous
 62
     0
100
AcDbLine
 10
20.44788744654007
 20
-36.49475790526478
 30
0.0
 11
20.41285166478389
 21
-36.30430896489878
 31
0.0
  0
LINE
  5
3A3
330
2ED
100
AcDbEntity
  8
0
  6
Continuous
 62
     0
100
AcDbLine
 10
20.42723985782481
 20
-36.45942369003724
 30
0.0
 11
20.39257559485712
 21
-36.33985808833327
 31
0.0
  0
LINE
  5
3A4
330
2ED
100
AcDbEntity
  8
0
  6
Continuous
 62
     0
100
AcDbLine
 10
20.34367413107714
 20
-36.30467188282973
 30
0.0
 11
20.36432171662917
 21
-36.34000610754374
 31
0.0
  0
LINE
  5
3A5
330
2ED
100
AcDbEntity
  8
0
  6
Continuous
 62
     0
100
AcDbLine
 10
20.3989859827601
 20
-36.45957169976127
 30
0.0
 11
20.36432171662917
 21
-36.34000610754374
 31
0.0
  0
LINE
  5
3A6
330
2ED
100
AcDbEntity
  8
0
  6
Continuous
 62
     0
100
AcDbLine
 10
20.36376966580604
 20
-36.34000902842184
 30
0.0
 11
20.39202255299216
 21
-36.33986085794983
 31
0.0
  0
LINE
  5
3A7
330
2ED
100
AcDbEntity
  8
0
  6
Continuous
 62
     0
100
AcDbLine
 10
20.37870990967003
 20
-36.49512083268225
 30
0.0
 11
20.34367413107714
 21
-36.30467188282973
 31
0.0
  0
LINE
  5
3A8
330
2ED
100
AcDbEntity
  8
0
  6
Continuous
 62
     0
100
AcDbLine
 10
20.6187279473109
 20
-36.30322996193428
 30
0.0
 11
20.61872779473741
 21
-36.40872053571006
 31
0.0
  0
LINE
  5
3A9
102
{ACAD_REACTORS
330
2EF
102
}
330
2ED
100
AcDbEntity
  8
0
  6
Continuous
 62
     0
100
AcDbLine
 10
20.59845088950552
 20
-36.33877892462076
 30
0.0
 11
20.6187279473109
 21
-36.30322996193428
 31
0.0
  0
LINE
  5
3AA
330
2ED
100
AcDbEntity
  8
0
  6
Continuous
 62
     0
100
AcDbLine
 10
20.53678883322653
 20
-36.45884977297159
 30
0.0
 11
20.50212473638285
 21
-36.33928318307339
 31
0.0
  0
LINE
  5
3AB
102
{ACAD_REACTORS
330
2EF
102
}
330
2ED
100
AcDbEntity
  8
0
  6
Continuous
 62
     0
100
AcDbLine
 10
20.55010263055119
 20
-36.30358897079296
 30
0.0
 11
20.57075005314256
 21
-36.33892417421466
 31
0.0
  0
LINE
  5
3AC
330
2ED
100
AcDbEntity
  8
0
  6
Continuous
 62
     0
100
AcDbLine
 10
20.58513824523474
 20
-36.49403889903688
 30
0.0
 11
20.55010263055119
 21
-36.30358897079296
 31
0.0
  0
LINE
  5
3AD
330
2ED
100
AcDbEntity
  8
0
  6
Continuous
 62
     0
100
AcDbLine
 10
20.56448966958952
 20
-36.45870452337765
 30
0.0
 11
20.5298254066219
 21
-36.33913892167367
 31
0.0
  0
LINE
  5
3AE
102
{ACAD_REACTORS
330
2EF
102
}
330
2ED
100
AcDbEntity
  8
0
  6
Continuous
 62
     0
100
AcDbLine
 10
20.5298254066219
 20
-36.33913892167367
 30
0.0
 11
20.55010263055119
 21
-36.30358897079296
 31
0.0
  0
LINE
  5
3AF
102
{ACAD_REACTORS
330
2EF
102
}
330
2ED
100
AcDbEntity
  8
0
  6
Continuous
 62
     0
100
AcDbLine
 10
20.50157251627249
 20
-36.33928710163218
 30
0.0
 11
20.5298254066219
 21
-36.33913892167367
 31
0.0
  0
LINE
  5
3B0
102
{ACAD_REACTORS
330
2EF
102
}
330
2ED
100
AcDbEntity
  8
0
  6
Continuous
 62
     0
100
AcDbLine
 10
20.48147714766754
 20
-36.30394896784586
 30
0.0
 11
20.50212473638285
 21
-36.33928318307339
 31
0.0
  0
LINE
  5
3B1
102
{ACAD_REACTORS
330
2EF
102
}
330
2ED
100
AcDbEntity
  8
0
  6
Continuous
 62
     0
100
AcDbLine
 10
20.5650428766298
 20
-36.45870076525056
 30
0.0
 11
20.53678883322653
 21
-36.45884977297159
 31
0.0
  0
LINE
  5
3B2
102
{ACAD_REACTORS
330
2EF
102
}
330
2ED
100
AcDbEntity
  8
0
  6
Continuous
 62
     0
100
AcDbLine
 10
20.61571368431323
 20
-36.49401372240793
 30
0.0
 11
20.57075005314256
 21
-36.33892417421466
 31
0.0
  0
LINE
  5
3B3
330
2ED
100
AcDbEntity
  8
0
  6
Continuous
 62
     0
100
AcDbLine
 10
20.46120008986219
 20
-36.33949793053233
 30
0.0
 11
20.48147714766754
 21
-36.30394896784586
 31
0.0
  0
LINE
  5
3B4
102
{ACAD_REACTORS
330
2EF
102
}
330
2ED
100
AcDbEntity
  8
0
  6
Continuous
 62
     0
100
AcDbLine
 10
20.58513824523474
 20
-36.49403889903688
 30
0.0
 11
20.56448966958952
 21
-36.45870452337765
 31
0.0
  0
LINE
  5
3B5
102
{ACAD_REACTORS
330
2EF
102
}
330
2ED
100
AcDbEntity
  8
0
  6
Continuous
 62
     0
100
AcDbLine
 10
20.60541431516155
 20
-36.45848977560236
 30
0.0
 11
20.58513824523474
 21
-36.49403889903688
 31
0.0
  0
LINE
  5
3B6
330
2ED
100
AcDbEntity
  8
0
  6
Continuous
 62
     0
100
AcDbLine
 10
20.43294719951283
 20
-36.33964611049087
 30
0.0
 11
20.46120008986219
 21
-36.33949793053233
 31
0.0
  0
LINE
  5
3B7
330
2ED
100
AcDbEntity
  8
0
  6
Continuous
 62
     0
100
AcDbLine
 10
20.59845088950552
 20
-36.33877892462076
 30
0.0
 11
20.61872779473741
 21
-36.40872053571006
 31
0.0
  0
LINE
  5
3B8
102
{ACAD_REACTORS
330
2EF
102
}
330
2ED
100
AcDbEntity
  8
0
  6
Continuous
 62
     0
100
AcDbLine
 10
20.57019799915615
 20
-36.3389271045793
 30
0.0
 11
20.59845088950552
 21
-36.33877892462076
 31
0.0
  0
LINE
  5
3B9
102
{ACAD_REACTORS
330
2EF
102
}
330
2ED
100
AcDbEntity
  8
0
  6
Continuous
 62
     0
100
AcDbLine
 10
20.51651276329978
 20
-36.49439889640613
 30
0.0
 11
20.49586435282986
 21
-36.45906353223632
 31
0.0
  0
LINE
  5
3BA
330
2ED
100
AcDbEntity
  8
0
  6
Continuous
 62
     0
100
AcDbLine
 10
20.4681645033968
 20
-36.45920894226198
 30
0.0
 11
20.44788744654007
 21
-36.49475790526478
 31
0.0
  0
LINE
  5
3BB
102
{ACAD_REACTORS
330
2EF
102
}
330
2ED
100
AcDbEntity
  8
0
  6
Continuous
 62
     0
100
AcDbLine
 10
20.49641739469484
 20
-36.4590607626198
 30
0.0
 11
20.4681645033968
 21
-36.45920894226198
 31
0.0
  0
LINE
  5
3BC
330
2ED
100
AcDbEntity
  8
0
  6
Continuous
 62
     0
100
AcDbLine
 10
20.42723985782481
 20
-36.45942369003724
 30
0.0
 11
20.3989859827601
 21
-36.45957169976127
 31
0.0
  0
LINE
  5
3BD
330
2ED
100
AcDbEntity
  8
0
  6
Continuous
 62
     0
100
AcDbLine
 10
20.44788744654007
 20
-36.49475790526478
 30
0.0
 11
20.42723985782481
 21
-36.45942369003724
 31
0.0
  0
LINE
  5
3BE
330
2ED
100
AcDbEntity
  8
0
  6
Continuous
 62
     0
100
AcDbLine
 10
20.51651276329978
 20
-36.49439889640613
 30
0.0
 11
20.48147714766754
 21
-36.30394896784586
 31
0.0
  0
LINE
  5
3BF
102
{ACAD_REACTORS
330
2EF
102
}
330
2ED
100
AcDbEntity
  8
0
  6
Continuous
 62
     0
100
AcDbLine
 10
20.53678883322653
 20
-36.45884977297159
 30
0.0
 11
20.51651276329978
 21
-36.49439889640613
 31
0.0
  0
LINE
  5
3C0
330
2ED
100
AcDbEntity
  8
0
  6
Continuous
 62
     0
100
AcDbLine
 10
20.4681645033968
 20
-36.45920894226198
 30
0.0
 11
20.43350024137778
 21
-36.33964334087435
 31
0.0
  0
LINE
  5
3C1
330
2ED
100
AcDbEntity
  8
0
  6
Continuous
 62
     0
100
AcDbLine
 10
20.49586435282986
 20
-36.45906353223632
 30
0.0
 11
20.46120008986219
 21
-36.33949793053233
 31
0.0
  0
LINE
  5
3C2
330
2ED
100
AcDbEntity
  8
0
  6
Continuous
 62
     0
100
AcDbLine
 10
20.37870990967003
 20
-36.49512083268225
 30
0.0
 11
20.35806133623943
 21
-36.45978644722018
 31
0.0
  0
LINE
  5
3C3
330
2ED
100
AcDbEntity
  8
0
  6
Continuous
 62
     0
100
AcDbLine
 10
20.3989859827601
 20
-36.45957169976127
 30
0.0
 11
20.37870990967003
 21
-36.49512083268225
 31
0.0
  0
LINE
  5
3C4
102
{ACAD_REACTORS
330
2EF
102
}
330
2ED
100
AcDbEntity
  8
0
  6
Continuous
 62
     0
100
AcDbLine
 10
20.6200747484494
 20
-36.30324406083718
 30
0.0
 11
20.62007490966358
 21
-35.97596295063471
 31
0.0
  0
LINE
  5
3C5
102
{ACAD_REACTORS
330
2EF
102
}
330
2ED
100
AcDbEntity
  8
0
  6
Continuous
 62
     0
100
AcDbLine
 10
20.4950746060776
 20
-35.9759629209838
 30
0.0
 11
20.49507441103056
 21
-36.32721796243885
 31
0.0
  0
LINE
  5
3C6
330
2ED
100
AcDbEntity
  8
0
  6
Continuous
 62
     0
100
AcDbLine
 10
20.33185807217884
 20
-36.45933162716215
 30
0.0
 11
20.32692771692662
 21
-36.46797647162633
 31
0.0
  0
LINE
  5
3C7
330
2ED
100
AcDbEntity
  8
0
  6
Continuous
 62
     0
100
AcDbLine
 10
20.35822858538268
 20
-36.45919291485061
 30
0.0
 11
20.33185807217884
 21
-36.45933162716215
 31
0.0
  0
LINE
  5
3C8
330
2ED
100
AcDbEntity
  8
0
  6
Continuous
 62
     0
100
AcDbLine
 10
20.88310225160345
 20
-36.45719316911877
 30
0.0
 11
20.88310225160346
 21
-36.34261696721978
 31
0.0
  0
ARC
  5
3C9
330
2ED
100
AcDbEntity
  8
0
  6
Continuous
 62
     0
100
AcDbCircle
 10
20.75289035255294
 20
-36.34261696721978
 30
0.0
 40
0.1302118990505079
100
AcDbArc
 50
359.9999999999968
 51
89.99999999999694
  0
ARC
  5
3CA
330
2ED
100
AcDbEntity
  8
0
  6
Continuous
 62
     0
100
AcDbCircle
 10
20.75289035255294
 20
-36.45719316911877
 30
0.0
 40
0.1302118990505079
100
AcDbArc
 50
270.0
 51
0.0
  0
LINE
  5
3CB
330
2ED
100
AcDbEntity
  8
0
  6
Continuous
 62
     0
100
AcDbLine
 10
20.75289035255295
 20
-36.30322931612568
 30
0.0
 11
20.6187279473109
 21
-36.30322996193428
 31
0.0
  0
LINE
  5
3CC
330
2ED
100
AcDbEntity
  8
0
  6
Continuous
 62
     0
100
AcDbLine
 10
20.75289035255295
 20
-36.49401306208977
 30
0.0
 11
20.61571368431323
 21
-36.49401372240793
 31
0.0
  0
LINE
  5
3CD
330
2ED
100
AcDbEntity
  8
0
  6
Continuous
 62
     0
100
AcDbLine
 10
20.75289035255295
 20
-36.21240506816928
 30
0.0
 11
20.75289035255294
 21
-36.58740506816928
 31
0.0
  0
LINE
  5
3CE
330
2ED
100
AcDbEntity
  8
0
  6
Continuous
 62
     0
100
AcDbLine
 10
20.32688251673167
 20
-36.45935782513894
 30
0.0
 11
20.2824385710188
 21
-36.45959099591167
 31
0.0
  0
LINE
  5
3CF
330
2ED
100
AcDbEntity
  8
0
  6
Continuous
 62
     0
100
AcDbLine
 10
20.32692771692662
 20
-36.46797647162633
 30
0.0
 11
20.32673606429589
 21
-36.43148847403376
 31
0.0
  0
LINE
  5
3D0
330
2ED
100
AcDbEntity
  8
0
  6
Continuous
 62
     0
100
AcDbLine
 10
20.33185807217884
 20
-36.45933162716215
 30
0.0
 11
20.32673606429589
 21
-36.43148847403376
 31
0.0
  0
LINE
  5
3D1
330
2ED
100
AcDbEntity
  8
0
  6
Continuous
 62
     0
100
AcDbLine
 10
20.32339707422041
 20
-36.34022084583254
 30
0.0
 11
20.34367413107714
 21
-36.30467188282973
 31
0.0
  0
LINE
  5
3D2
330
2ED
100
AcDbEntity
  8
0
  6
Continuous
 62
     0
100
AcDbLine
 10
20.35806133623943
 20
-36.45978644722018
 30
0.0
 11
20.32339707422041
 21
-36.34022084583254
 31
0.0
  0
LINE
  5
3D3
330
2ED
100
AcDbEntity
  8
2
  6
CENTER
 62
     4
100
AcDbLine
 10
20.17335113230212
 20
-36.33734484663234
 30
0.0
 11
20.17335239315421
 21
-36.46570628901856
 31
0.0
  0
LINE
  5
3D4
330
2ED
100
AcDbEntity
  8
0
  6
Continuous
 62
     0
100
AcDbLine
 10
20.15235217162528
 20
-36.44352524278197
 30
0.0
 11
20.15235238180195
 21
-36.51556111907773
 31
0.0
  0
ARC
  5
3D5
330
2ED
100
AcDbEntity
  8
0
  6
Continuous
 62
     0
100
AcDbCircle
 10
20.21535152013236
 20
-36.35952474356539
 30
0.0
 40
0.021
100
AcDbArc
 50
180.000449100001
 51
270.0004490700002
  0
LINE
  5
3D6
330
2ED
100
AcDbEntity
  8
2
  6
CENTER
 62
     4
100
AcDbLine
 10
20.10917063208121
 20
-36.4015256195114
 30
0.0
 11
20.23753289337513
 21
-36.40152551613942
 31
0.0
  0
ARC
  5
3D7
330
2ED
100
AcDbEntity
  8
0
  6
Continuous
 62
     0
100
AcDbCircle
 10
20.13135216733604
 20
-36.44352541306139
 30
0.0
 40
0.021
100
AcDbArc
 50
0.0004491000002257
 51
90.00044909999902
  0
ARC
  5
3D8
330
2ED
100
AcDbEntity
  8
0
  6
Continuous
 62
     0
100
AcDbCircle
 10
20.17335235999219
 20
-36.41793620995294
 30
0.0
 40
0.131782
100
AcDbArc
 50
80.83101309999872
 51
99.16988509999978
  0
LINE
  5
3D9
330
2ED
100
AcDbEntity
  8
0
  6
Continuous
 62
     0
100
AcDbLine
 10
20.15235058248336
 20
-36.28783903708356
 30
0.0
 11
20.15235151359124
 21
-36.35952523543063
 31
0.0
  0
LINE
  5
3DA
330
2ED
100
AcDbEntity
  8
0
  6
Continuous
 62
     0
100
AcDbLine
 10
20.19435058473523
 20
-36.2878387154978
 30
0.0
 11
20.19435151900641
 21
-36.3595249043583
 31
0.0
  0
ARC
  5
3DB
330
2ED
100
AcDbEntity
  8
0
  6
Continuous
 62
     0
100
AcDbCircle
 10
20.13135151246531
 20
-36.35952539622349
 30
0.0
 40
0.021
100
AcDbArc
 50
270.0004490700002
 51
0.0004491000002257
  0
ARC
  5
3DC
330
2ED
100
AcDbEntity
  8
0
  6
Continuous
 62
     0
100
AcDbCircle
 10
20.21535217816637
 20
-36.44352475091678
 30
0.0
 40
0.021
100
AcDbArc
 50
90.00044909999902
 51
180.000449100001
  0
LINE
  5
3DD
330
2ED
100
AcDbEntity
  8
0
  6
Continuous
 62
     0
100
AcDbLine
 10
20.19435217704042
 20
-36.44352491170969
 30
0.0
 11
20.19435238721711
 21
-36.51556078800541
 31
0.0
  0
ARC
  5
3DE
330
2ED
100
AcDbEntity
  8
0
  6
Continuous
 62
     0
100
AcDbCircle
 10
20.17335159442362
 20
-36.38546378537057
 30
0.0
 40
0.131782
100
AcDbArc
 50
260.8310130709985
 51
279.1698850699999
  0
LINE
  5
3DF
330
2ED
100
AcDbEntity
  8
0
  6
Continuous
 62
     0
100
AcDbLine
 10
20.28199194377646
 20
-36.33832637417011
 30
0.0
 11
20.24802441764998
 21
-36.39989771059901
 31
0.0
  0
LINE
  5
3E0
330
2ED
100
AcDbEntity
  8
0
  6
Continuous
 62
     0
100
AcDbLine
 10
20.21535168408717
 20
-36.38052474785397
 30
0.0
 11
20.25871225561999
 21
-36.38052497030624
 31
0.0
  0
LINE
  5
3E1
330
2ED
100
AcDbEntity
  8
0
  6
Continuous
 62
     0
100
AcDbLine
 10
20.21535201516015
 20
-36.42252474694454
 30
0.0
 11
20.26106990183842
 21
-36.42252502704208
 31
0.0
  0
LINE
  5
3E2
330
2ED
100
AcDbEntity
  8
0
  6
Continuous
 62
     0
100
AcDbLine
 10
20.32305747764589
 20
-36.33811188666718
 30
0.0
 11
20.28199194377646
 21
-36.33832637417011
 31
0.0
  0
LINE
  5
3E3
330
2ED
100
AcDbEntity
  8
0
  6
Continuous
 62
     0
100
AcDbLine
 10
20.24802441764998
 20
-36.39989771059901
 30
0.0
 11
20.2824385710188
 21
-36.45959099591167
 31
0.0
  0
LINE
  5
3E4
330
2ED
100
AcDbEntity
  8
0
  6
Continuous
 62
     0
100
AcDbLine
 10
20.62007452493242
 20
-36.88775664970452
 30
0.0
 11
20.62007455595036
 21
-36.49401370141631
 31
0.0
  0
LINE
  5
3E5
330
2ED
100
AcDbEntity
  8
0
  6
Continuous
 62
     0
100
AcDbLine
 10
20.49507439163157
 20
-36.45906780634886
 30
0.0
 11
20.49507423651952
 21
-36.8877566496968
 31
0.0
  0
LINE
  5
3E6
330
2ED
100
AcDbEntity
  8
0
  6
Continuous
 62
     0
100
AcDbLine
 10
20.41285166478389
 20
-36.30430896489878
 30
0.0
 11
20.43350024137778
 21
-36.33964334087435
 31
0.0
  0
LINE
  5
3E7
330
2ED
100
AcDbEntity
  8
0
  6
Continuous
 62
     0
100
AcDbLine
 10
20.39257559485712
 20
-36.33985808833327
 30
0.0
 11
20.41285166478389
 21
-36.30430896489878
 31
0.0
  0
LINE
  5
3E8
330
2ED
100
AcDbEntity
  8
0
  6
Continuous
 62
     0
100
AcDbLine
 10
20.44788744654007
 20
-36.49475790526478
 30
0.0
 11
20.41285166478389
 21
-36.30430896489878
 31
0.0
  0
LINE
  5
3E9
330
2ED
100
AcDbEntity
  8
0
  6
Continuous
 62
     0
100
AcDbLine
 10
20.42723985782481
 20
-36.45942369003724
 30
0.0
 11
20.39257559485712
 21
-36.33985808833327
 31
0.0
  0
LINE
  5
3EA
330
2ED
100
AcDbEntity
  8
0
  6
Continuous
 62
     0
100
AcDbLine
 10
20.34367413107714
 20
-36.30467188282973
 30
0.0
 11
20.36432171662917
 21
-36.34000610754374
 31
0.0
  0
LINE
  5
3EB
330
2ED
100
AcDbEntity
  8
0
  6
Continuous
 62
     0
100
AcDbLine
 10
20.3989859827601
 20
-36.45957169976127
 30
0.0
 11
20.36432171662917
 21
-36.34000610754374
 31
0.0
  0
LINE
  5
3EC
330
2ED
100
AcDbEntity
  8
0
  6
Continuous
 62
     0
100
AcDbLine
 10
20.36376966580604
 20
-36.34000902842184
 30
0.0
 11
20.39202255299216
 21
-36.33986085794983
 31
0.0
  0
LINE
  5
3ED
330
2ED
100
AcDbEntity
  8
0
  6
Continuous
 62
     0
100
AcDbLine
 10
20.37870990967003
 20
-36.49512083268225
 30
0.0
 11
20.34367413107714
 21
-36.30467188282973
 31
0.0
  0
LINE
  5
3EE
330
2ED
100
AcDbEntity
  8
0
  6
Continuous
 62
     0
100
AcDbLine
 10
20.6187279473109
 20
-36.30322996193428
 30
0.0
 11
20.61872779473741
 21
-36.40872053571006
 31
0.0
  0
LINE
  5
3EF
330
2ED
100
AcDbEntity
  8
0
  6
Continuous
 62
     0
100
AcDbLine
 10
20.59845088950552
 20
-36.33877892462076
 30
0.0
 11
20.6187279473109
 21
-36.30322996193428
 31
0.0
  0
LINE
  5
3F0
330
2ED
100
AcDbEntity
  8
0
  6
Continuous
 62
     0
100
AcDbLine
 10
20.53678883322653
 20
-36.45884977297159
 30
0.0
 11
20.50212473638285
 21
-36.33928318307339
 31
0.0
  0
LINE
  5
3F1
330
2ED
100
AcDbEntity
  8
0
  6
Continuous
 62
     0
100
AcDbLine
 10
20.55010263055119
 20
-36.30358897079296
 30
0.0
 11
20.57075005314256
 21
-36.33892417421466
 31
0.0
  0
LINE
  5
3F2
330
2ED
100
AcDbEntity
  8
0
  6
Continuous
 62
     0
100
AcDbLine
 10
20.58513824523474
 20
-36.49403889903688
 30
0.0
 11
20.55010263055119
 21
-36.30358897079296
 31
0.0
  0
LINE
  5
3F3
330
2ED
100
AcDbEntity
  8
0
  6
Continuous
 62
     0
100
AcDbLine
 10
20.56448966958952
 20
-36.45870452337765
 30
0.0
 11
20.5298254066219
 21
-36.33913892167367
 31
0.0
  0
LINE
  5
3F4
330
2ED
100
AcDbEntity
  8
0
  6
Continuous
 62
     0
100
AcDbLine
 10
20.5298254066219
 20
-36.33913892167367
 30
0.0
 11
20.55010263055119
 21
-36.30358897079296
 31
0.0
  0
LINE
  5
3F5
330
2ED
100
AcDbEntity
  8
0
  6
Continuous
 62
     0
100
AcDbLine
 10
20.50157251627249
 20
-36.33928710163218
 30
0.0
 11
20.5298254066219
 21
-36.33913892167367
 31
0.0
  0
LINE
  5
3F6
330
2ED
100
AcDbEntity
  8
0
  6
Continuous
 62
     0
100
AcDbLine
 10
20.48147714766754
 20
-36.30394896784586
 30
0.0
 11
20.50212473638285
 21
-36.33928318307339
 31
0.0
  0
LINE
  5
3F7
330
2ED
100
AcDbEntity
  8
0
  6
Continuous
 62
     0
100
AcDbLine
 10
20.5650428766298
 20
-36.45870076525056
 30
0.0
 11
20.53678883322653
 21
-36.45884977297159
 31
0.0
  0
LINE
  5
3F8
330
2ED
100
AcDbEntity
  8
0
  6
Continuous
 62
     0
100
AcDbLine
 10
20.61571368431323
 20
-36.49401372240793
 30
0.0
 11
20.57075005314256
 21
-36.33892417421466
 31
0.0
  0
LINE
  5
3F9
330
2ED
100
AcDbEntity
  8
0
  6
Continuous
 62
     0
100
AcDbLine
 10
20.46120008986219
 20
-36.33949793053233
 30
0.0
 11
20.48147714766754
 21
-36.30394896784586
 31
0.0
  0
LINE
  5
3FA
330
2ED
100
AcDbEntity
  8
0
  6
Continuous
 62
     0
100
AcDbLine
 10
20.58513824523474
 20
-36.49403889903688
 30
0.0
 11
20.56448966958952
 21
-36.45870452337765
 31
0.0
  0
LINE
  5
3FB
330
2ED
100
AcDbEntity
  8
0
  6
Continuous
 62
     0
100
AcDbLine
 10
20.60541431516155
 20
-36.45848977560236
 30
0.0
 11
20.58513824523474
 21
-36.49403889903688
 31
0.0
  0
LINE
  5
3FC
330
2ED
100
AcDbEntity
  8
0
  6
Continuous
 62
     0
100
AcDbLine
 10
20.43294719951283
 20
-36.33964611049087
 30
0.0
 11
20.46120008986219
 21
-36.33949793053233
 31
0.0
  0
LINE
  5
3FD
330
2ED
100
AcDbEntity
  8
0
  6
Continuous
 62
     0
100
AcDbLine
 10
20.59845088950552
 20
-36.33877892462076
 30
0.0
 11
20.61872779473741
 21
-36.40872053571006
 31
0.0
  0
LINE
  5
3FE
330
2ED
100
AcDbEntity
  8
0
  6
Continuous
 62
     0
100
AcDbLine
 10
20.57019799915615
 20
-36.3389271045793
 30
0.0
 11
20.59845088950552
 21
-36.33877892462076
 31
0.0
  0
LINE
  5
3FF
330
2ED
100
AcDbEntity
  8
0
  6
Continuous
 62
     0
100
AcDbLine
 10
20.51651276329978
 20
-36.49439889640613
 30
0.0
 11
20.49586435282986
 21
-36.45906353223632
 31
0.0
  0
LINE
  5
400
330
2ED
100
AcDbEntity
  8
0
  6
Continuous
 62
     0
100
AcDbLine
 10
20.4681645033968
 20
-36.45920894226198
 30
0.0
 11
20.44788744654007
 21
-36.49475790526478
 31
0.0
  0
LINE
  5
401
330
2ED
100
AcDbEntity
  8
0
  6
Continuous
 62
     0
100
AcDbLine
 10
20.49641739469484
 20
-36.4590607626198
 30
0.0
 11
20.4681645033968
 21
-36.45920894226198
 31
0.0
  0
LINE
  5
402
330
2ED
100
AcDbEntity
  8
0
  6
Continuous
 62
     0
100
AcDbLine
 10
20.42723985782481
 20
-36.45942369003724
 30
0.0
 11
20.3989859827601
 21
-36.45957169976127
 31
0.0
  0
LINE
  5
403
330
2ED
100
AcDbEntity
  8
0
  6
Continuous
 62
     0
100
AcDbLine
 10
20.44788744654007
 20
-36.49475790526478
 30
0.0
 11
20.42723985782481
 21
-36.45942369003724
 31
0.0
  0
LINE
  5
404
330
2ED
100
AcDbEntity
  8
0
  6
Continuous
 62
     0
100
AcDbLine
 10
20.51651276329978
 20
-36.49439889640613
 30
0.0
 11
20.48147714766754
 21
-36.30394896784586
 31
0.0
  0
LINE
  5
405
330
2ED
100
AcDbEntity
  8
0
  6
Continuous
 62
     0
100
AcDbLine
 10
20.53678883322653
 20
-36.45884977297159
 30
0.0
 11
20.51651276329978
 21
-36.49439889640613
 31
0.0
  0
LINE
  5
406
330
2ED
100
AcDbEntity
  8
0
  6
Continuous
 62
     0
100
AcDbLine
 10
20.4681645033968
 20
-36.45920894226198
 30
0.0
 11
20.43350024137778
 21
-36.33964334087435
 31
0.0
  0
LINE
  5
407
330
2ED
100
AcDbEntity
  8
0
  6
Continuous
 62
     0
100
AcDbLine
 10
20.49586435282986
 20
-36.45906353223632
 30
0.0
 11
20.46120008986219
 21
-36.33949793053233
 31
0.0
  0
LINE
  5
408
330
2ED
100
AcDbEntity
  8
0
  6
Continuous
 62
     0
100
AcDbLine
 10
20.37870990967003
 20
-36.49512083268225
 30
0.0
 11
20.35806133623943
 21
-36.45978644722018
 31
0.0
  0
LINE
  5
409
330
2ED
100
AcDbEntity
  8
0
  6
Continuous
 62
     0
100
AcDbLine
 10
20.3989859827601
 20
-36.45957169976127
 30
0.0
 11
20.37870990967003
 21
-36.49512083268225
 31
0.0
  0
LINE
  5
40A
330
2ED
100
AcDbEntity
  8
0
  6
Continuous
 62
     0
100
AcDbLine
 10
20.6200747484494
 20
-36.30324406083718
 30
0.0
 11
20.62007490966358
 21
-35.97596295063471
 31
0.0
  0
LINE
  5
40B
330
2ED
100
AcDbEntity
  8
0
  6
Continuous
 62
     0
100
AcDbLine
 10
20.4950746060776
 20
-35.9759629209838
 30
0.0
 11
20.49507441103056
 21
-36.32721796243885
 31
0.0
  0
LINE
  5
40C
330
2ED
100
AcDbEntity
  8
0
  6
Continuous
 62
     0
100
AcDbLine
 10
20.33185807217884
 20
-36.45933162716215
 30
0.0
 11
20.32692771692662
 21
-36.46797647162633
 31
0.0
  0
LINE
  5
40D
330
2ED
100
AcDbEntity
  8
0
  6
Continuous
 62
     0
100
AcDbLine
 10
20.35822858538268
 20
-36.45919291485061
 30
0.0
 11
20.33185807217884
 21
-36.45933162716215
 31
0.0
  0
LINE
  5
40E
330
2ED
100
AcDbEntity
  8
0
  6
Continuous
 62
     0
100
AcDbLine
 10
20.88310225160345
 20
-36.45719316911877
 30
0.0
 11
20.88310225160346
 21
-36.34261696721978
 31
0.0
  0
ARC
  5
40F
330
2ED
100
AcDbEntity
  8
0
  6
Continuous
 62
     0
100
AcDbCircle
 10
20.75289035255294
 20
-36.34261696721978
 30
0.0
 40
0.1302118990505079
100
AcDbArc
 50
359.9999999999968
 51
89.99999999999694
  0
ARC
  5
410
330
2ED
100
AcDbEntity
  8
0
  6
Continuous
 62
     0
100
AcDbCircle
 10
20.75289035255294
 20
-36.45719316911877
 30
0.0
 40
0.1302118990505079
100
AcDbArc
 50
270.0
 51
0.0
  0
ARC
  5
411
330
2ED
100
AcDbEntity
  8
0
  6
Continuous
 62
     0
100
AcDbCircle
 10
20.18974357661207
 20
-36.40152537176336
 30
0.0
 40
0.131782
100
AcDbArc
 50
170.8310130999991
 51
189.1698850999989
  0
ARC
  5
412
330
2ED
100
AcDbEntity
  8
0
  6
Continuous
 62
     0
100
AcDbCircle
 10
20.18974357661207
 20
-36.40152537176336
 30
0.0
 40
0.131782
100
AcDbArc
 50
170.8310130999991
 51
189.1698850999989
  0
LINE
  5
413
102
{ACAD_REACTORS
330
2EF
102
}
330
2ED
100
AcDbEntity
  8
0
  6
Continuous
 62
     0
100
AcDbLine
 10
18.88570615665127
 20
-35.97596295969756
 30
0.0
 11
20.62007490966358
 21
-35.97596295063471
 31
0.0
  0
LINE
  5
414
330
2ED
100
AcDbEntity
  8
0
  6
Continuous
 62
     0
100
AcDbLine
 10
20.05964558989424
 20
-36.42252599558732
 30
0.0
 11
20.13135200338119
 21
-36.42252540877289
 31
0.0
  0
LINE
  5
415
330
2ED
100
AcDbEntity
  8
0
  6
Continuous
 62
     0
100
AcDbLine
 10
20.05964526198455
 20
-36.38052598701018
 30
0.0
 11
20.13135167642018
 21
-36.3805254005121
 31
0.0
  0
LINE
  5
416
102
{ACAD_REACTORS
330
2EF
102
}
330
2ED
100
AcDbEntity
  8
0
  6
Continuous
 62
     0
100
AcDbLine
 10
20.62007452493242
 20
-36.88775664970452
 30
0.0
 11
18.88570578582954
 21
-36.88775664959755
 31
0.0
  0
ARC
  5
417
330
2ED
100
AcDbEntity
  8
Glazing
  6
Continuous
 62
     5
100
AcDbCircle
 10
20.17335184579016
 20
-36.40152507372832
 30
0.0
 40
0.156336
100
AcDbArc
 50
23.91620309999928
 51
338.2719830700004
  0
LINE
  5
418
330
2ED
100
AcDbEntity
  8
0
  6
Continuous
 62
     0
100
AcDbLine
 10
20.05964558989424
 20
-36.42252599558732
 30
0.0
 11
20.13135200338119
 21
-36.42252540877289
 31
0.0
  0
LINE
  5
419
330
2ED
100
AcDbEntity
  8
0
  6
Continuous
 62
     0
100
AcDbLine
 10
20.05964526198455
 20
-36.38052598701018
 30
0.0
 11
20.13135167642018
 21
-36.3805254005121
 31
0.0
  0
LINE
  5
41A
330
2ED
100
AcDbEntity
  8
0
  6
Continuous
 62
     0
100
AcDbLine
 10
20.62007452493242
 20
-36.88775664970452
 30
0.0
 11
18.88570578582954
 21
-36.88775664959755
 31
0.0
  0
ENDBLK
  5
41B
330
2ED
100
AcDbEntity
  8
0
 62
     0
100
AcDbBlockEnd
  0
BLOCK
  5
565
330
564
100
AcDbEntity
  8
0
100
AcDbBlockBegin
  2
*X7
 70
     1
 10
0.0
 20
0.0
 30
0.0
  3
*X7
  1

  0
LINE
  5
566
330
564
100
AcDbEntity
  8
0
 62
     0
100
AcDbLine
 10
6.455653718588217
 20
3.485805237604717
 30
0.0
 11
6.482008789598947
 21
3.512160308615448
 31
0.0
  0
LINE
  5
567
330
564
100
AcDbEntity
  8
0
 62
     0
100
AcDbLine
 10
6.420298379528889
 20
3.485805237604717
 30
0.0
 11
6.482008789598947
 21
3.547515647674775
 31
0.0
  0
LINE
  5
568
330
564
100
AcDbEntity
  8
0
 62
     0
100
AcDbLine
 10
6.384943040469562
 20
3.485805237604717
 30
0.0
 11
6.482008789598947
 21
3.582870986734103
 31
0.0
  0
LINE
  5
569
330
564
100
AcDbEntity
  8
0
 62
     0
100
AcDbLine
 10
6.349587701410235
 20
3.485805237604717
 30
0.0
 11
6.482008789598947
 21
3.61822632579343
 31
0.0
  0
LINE
  5
56A
330
564
100
AcDbEntity
  8
0
 62
     0
100
AcDbLine
 10
6.314232362350908
 20
3.485805237604717
 30
0.0
 11
6.482008789598947
 21
3.653581664852757
 31
0.0
  0
LINE
  5
56B
330
564
100
AcDbEntity
  8
0
 62
     0
100
AcDbLine
 10
6.27887702329158
 20
3.485805237604717
 30
0.0
 11
6.482008789598947
 21
3.688937003912085
 31
0.0
  0
LINE
  5
56C
330
564
100
AcDbEntity
  8
0
 62
     0
100
AcDbLine
 10
6.243521684232253
 20
3.485805237604717
 30
0.0
 11
6.482008789598947
 21
3.724292342971412
 31
0.0
  0
LINE
  5
56D
330
564
100
AcDbEntity
  8
0
 62
     0
100
AcDbLine
 10
6.208166345172926
 20
3.485805237604717
 30
0.0
 11
6.482008789598947
 21
3.75964768203074
 31
0.0
  0
LINE
  5
56E
330
564
100
AcDbEntity
  8
0
 62
     0
100
AcDbLine
 10
6.172811006113598
 20
3.485805237604717
 30
0.0
 11
6.482008789598947
 21
3.795003021090066
 31
0.0
  0
LINE
  5
56F
330
564
100
AcDbEntity
  8
0
 62
     0
100
AcDbLine
 10
6.13745566705427
 20
3.485805237604717
 30
0.0
 11
6.482008789598947
 21
3.830358360149394
 31
0.0
  0
LINE
  5
570
330
564
100
AcDbEntity
  8
0
 62
     0
100
AcDbLine
 10
6.107041342511141
 20
3.490746252120915
 30
0.0
 11
6.477067775082751
 21
3.860772684692525
 31
0.0
  0
LINE
  5
571
330
564
100
AcDbEntity
  8
0
 62
     0
100
AcDbLine
 10
6.10944813505911
 20
3.528508383728212
 30
0.0
 11
6.439305643475454
 21
3.858365892144556
 31
0.0
  0
LINE
  5
572
330
564
100
AcDbEntity
  8
0
 62
     0
100
AcDbLine
 10
6.116884707869568
 20
3.571300295597997
 30
0.0
 11
6.396513731605669
 21
3.850929319334097
 31
0.0
  0
LINE
  5
573
330
564
100
AcDbEntity
  8
0
 62
     0
100
AcDbLine
 10
6.132862699926207
 20
3.622633626713963
 30
0.0
 11
6.345180400489703
 21
3.834951327277459
 31
0.0
  0
LINE
  5
574
330
564
100
AcDbEntity
  8
0
 62
     0
100
AcDbLine
 10
6.172699196925758
 20
3.697825462772842
 30
0.0
 11
6.269988564430825
 21
3.795114830277908
 31
0.0
  0
LINE
  5
575
330
564
100
AcDbEntity
  8
0
 62
     0
100
AcDbLine
 10
6.482008789598947
 20
3.47680496955612
 30
0.0
 11
6.491009057647545
 21
3.485805237604717
 31
0.0
  0
LINE
  5
576
330
564
100
AcDbEntity
  8
0
 62
     0
100
AcDbLine
 10
6.482008789598947
 20
3.441449630496793
 30
0.0
 11
6.526364396706872
 21
3.485805237604717
 31
0.0
  0
LINE
  5
577
330
564
100
AcDbEntity
  8
0
 62
     0
100
AcDbLine
 10
6.482008789598947
 20
3.406094291437466
 30
0.0
 11
6.5617197357662
 21
3.485805237604717
 31
0.0
  0
LINE
  5
578
330
564
100
AcDbEntity
  8
0
 62
     0
100
AcDbLine
 10
6.482008789598947
 20
3.370738952378138
 30
0.0
 11
6.597075074825526
 21
3.485805237604717
 31
0.0
  0
LINE
  5
579
330
564
100
AcDbEntity
  8
0
 62
     0
100
AcDbLine
 10
6.482008789598947
 20
3.335383613318811
 30
0.0
 11
6.632430413884853
 21
3.485805237604717
 31
0.0
  0
LINE
  5
57A
330
564
100
AcDbEntity
  8
0
 62
     0
100
AcDbLine
 10
6.482008789598947
 20
3.300028274259484
 30
0.0
 11
6.667785752944181
 21
3.485805237604717
 31
0.0
  0
LINE
  5
57B
330
564
100
AcDbEntity
  8
0
 62
     0
100
AcDbLine
 10
6.482008789598947
 20
3.264672935200156
 30
0.0
 11
6.703141092003509
 21
3.485805237604717
 31
0.0
  0
LINE
  5
57C
330
564
100
AcDbEntity
  8
0
 62
     0
100
AcDbLine
 10
6.482008789598947
 20
3.229317596140829
 30
0.0
 11
6.738496431062836
 21
3.485805237604717
 31
0.0
  0
LINE
  5
57D
330
564
100
AcDbEntity
  8
0
 62
     0
100
AcDbLine
 10
6.482008789598947
 20
3.193962257081501
 30
0.0
 11
6.773851770122163
 21
3.485805237604717
 31
0.0
  0
LINE
  5
57E
330
564
100
AcDbEntity
  8
0
 62
     0
100
AcDbLine
 10
6.482008789598947
 20
3.158606918022174
 30
0.0
 11
6.809207109181491
 21
3.485805237604717
 31
0.0
  0
LINE
  5
57F
330
564
100
AcDbEntity
  8
0
 62
     0
100
AcDbLine
 10
6.482008789598947
 20
3.123251578962847
 30
0.0
 11
6.844562448240818
 21
3.485805237604717
 31
0.0
  0
LINE
  5
580
330
564
100
AcDbEntity
  8
0
 62
     0
100
AcDbLine
 10
6.505664664989164
 20
3.111552115293735
 30
0.0
 11
6.85626191190993
 21
3.462149362214502
 31
0.0
  0
LINE
  5
581
330
564
100
AcDbEntity
  8
0
 62
     0
100
AcDbLine
 10
6.545725937059539
 20
3.116258048304783
 30
0.0
 11
6.851555978898883
 21
3.422088090144127
 31
0.0
  0
LINE
  5
582
330
564
100
AcDbEntity
  8
0
 62
     0
100
AcDbLine
 10
6.592175968206674
 20
3.127352740392591
 30
0.0
 11
6.840461286811075
 21
3.375638058996992
 31
0.0
  0
LINE
  5
583
330
564
100
AcDbEntity
  8
0
 62
     0
100
AcDbLine
 10
6.651444518775554
 20
3.151265951902144
 30
0.0
 11
6.816548075301522
 21
3.316369508428111
 31
0.0
  0
ENDBLK
  5
584
330
564
100
AcDbEntity
  8
0
100
AcDbBlockEnd
  0
BLOCK
  5
561
330
560
100
AcDbEntity
  8
0
100
AcDbBlockBegin
  2
work point
 70
     0
 10
0.0
 20
0.0
 30
0.0
  3
work point
  1

  0
LINE
  5
562
330
560
100
AcDbEntity
  8
0
100
AcDbLine
 10
0.6056250806605572
 20
-88.19980482706348
 30
0.0
 11
1.070572365767889
 21
-88.19980482706348
 31
0.0
  0
INSERT
  5
563
330
560
100
AcDbEntity
  8
0
100
AcDbBlockReference
  2
*X7
 10
-0.7831360848958014
 20
-89.07165010974274
 30
0.0
 41
0.2501130221717222
 42
0.2501130221716889
 43
0.2501130221716889
  0
CIRCLE
  5
585
330
560
100
AcDbEntity
  8
0
100
AcDbCircle
 10
0.8380987232142231
 20
-88.19980482706348
 30
0.0
 40
0.0937923833143834
  0
LINE
  5
586
330
560
100
AcDbEntity
  8
0
100
AcDbLine
 10
0.8380987232142231
 20
-87.96733118450983
 30
0.0
 11
0.8380987232142231
 21
-88.43227846961726
 31
0.0
  0
ENDBLK
  5
587
330
560
100
AcDbEntity
  8
0
100
AcDbBlockEnd
  0
BLOCK
  5
492
330
491
100
AcDbEntity
  8
0
100
AcDbBlockBegin
  2
SCREWWW
 70
     0
 10
0.0
 20
0.0
 30
0.0
  3
SCREWWW
  1

  0
ARC
  5
493
330
491
100
AcDbEntity
  8
0
100
AcDbCircle
 10
166.4559463366058
 20
-90.14438468205892
 30
0.0
 40
0.2117576809490643
100
AcDbArc
 50
59.29554528941316
 51
120.7044547105868
  0
ARC
  5
494
330
491
100
AcDbEntity
  8
0
100
AcDbCircle
 10
166.2937580256683
 20
-89.9966985828842
 30
0.0
 40
0.0640715817743613
100
AcDbArc
 50
32.45779082493548
 51
147.5422091750645
  0
LINE
  5
495
330
491
100
AcDbEntity
  8
0
100
AcDbLine
 10
166.6181346475433
 20
-89.93262700110985
 30
0.0
 11
166.2937580256683
 21
-89.93262700110985
 31
0.0
  0
ARC
  5
496
330
491
100
AcDbEntity
  8
0
100
AcDbCircle
 10
166.6181346475433
 20
-89.99669858288424
 30
0.0
 40
0.0640715817743712
100
AcDbArc
 50
32.45779082496137
 51
147.5422091750451
  0
LINE
  5
497
330
491
100
AcDbEntity
  8
0
100
AcDbLine
 10
166.6721974178558
 20
-90.10059659095359
 30
0.0
 11
166.2396952553558
 21
-90.10059659095359
 31
0.0
  0
LINE
  5
498
330
491
100
AcDbEntity
  8
0
100
AcDbLine
 10
166.6721974178558
 20
-89.96231276520878
 30
0.0
 11
166.6721974178558
 21
-90.10059659095359
 31
0.0
  0
LINE
  5
499
330
491
100
AcDbEntity
  8
0
100
AcDbLine
 10
166.3478207959808
 20
-89.96231276520878
 30
0.0
 11
166.3478207959808
 21
-90.10059659095359
 31
0.0
  0
LINE
  5
49A
330
491
100
AcDbEntity
  8
0
100
AcDbLine
 10
166.5640718772308
 20
-89.96231276520878
 30
0.0
 11
166.5640718772308
 21
-90.10059659095359
 31
0.0
  0
LINE
  5
49B
330
491
100
AcDbEntity
  8
0
100
AcDbLine
 10
166.2396952553558
 20
-89.96231276520878
 30
0.0
 11
166.2396952553558
 21
-90.10059659095359
 31
0.0
  0
LINE
  5
49C
330
491
100
AcDbEntity
  8
0
  6
Continuous
 62
     0
100
AcDbLine
 10
166.3309463366057
 20
-90.10059659095359
 30
0.0
 11
166.3309463366058
 21
-91.81645753060838
 31
0.0
  0
LINE
  5
49D
330
491
100
AcDbEntity
  8
0
  6
Continuous
 62
     0
100
AcDbLine
 10
166.5809463366058
 20
-90.10059659095361
 30
0.0
 11
166.5809463366058
 21
-91.81645753060838
 31
0.0
  0
LINE
  5
49E
330
491
100
AcDbEntity
  8
0
  6
Continuous
100
AcDbLine
 10
166.5529463366058
 20
-92.66021687470821
 30
0.0
 11
166.3589463366058
 21
-92.63521687470818
 31
0.0
  0
LINE
  5
49F
330
491
100
AcDbEntity
  8
0
  6
Continuous
 62
     0
100
AcDbLine
 10
166.5529463366058
 20
-92.65306217416986
 30
0.0
 11
166.5529463366058
 21
-92.66021687470821
 31
0.0
  0
LINE
  5
4A0
330
491
100
AcDbEntity
  8
0
  6
Continuous
 62
     0
100
AcDbLine
 10
166.3589463366058
 20
-92.62806217416985
 30
0.0
 11
166.3589463366058
 21
-92.63521687470818
 31
0.0
  0
LINE
  5
4A1
330
491
100
AcDbEntity
  8
0
  6
Continuous
100
AcDbLine
 10
166.3589463366058
 20
-92.62806217416985
 30
0.0
 11
166.5529463366058
 21
-92.65306217416986
 31
0.0
  0
LINE
  5
4A2
330
491
100
AcDbEntity
  8
0
  6
Continuous
100
AcDbLine
 10
166.5799463366058
 20
-92.63747371690174
 30
0.0
 11
166.3319463366058
 21
-92.61247371690172
 31
0.0
  0
LINE
  5
4A3
330
491
100
AcDbEntity
  8
0
  6
Continuous
100
AcDbLine
 10
166.3319463366059
 20
-92.60080533197633
 30
0.0
 11
166.5799463366058
 21
-92.62580533197629
 31
0.0
  0
LINE
  5
4A4
330
491
100
AcDbEntity
  8
0
  6
Continuous
100
AcDbLine
 10
166.5529463366058
 20
-92.61021687470821
 30
0.0
 11
166.3589463366058
 21
-92.58521687470819
 31
0.0
  0
LINE
  5
4A5
330
491
100
AcDbEntity
  8
0
  6
Continuous
100
AcDbLine
 10
166.3589463366058
 20
-92.57806217416989
 30
0.0
 11
166.5529463366058
 21
-92.60306217416987
 31
0.0
  0
LINE
  5
4A6
330
491
100
AcDbEntity
  8
0
  6
Continuous
100
AcDbLine
 10
166.5799463366058
 20
-92.58747371690173
 30
0.0
 11
166.3319463366058
 21
-92.56247371690172
 31
0.0
  0
LINE
  5
4A7
330
491
100
AcDbEntity
  8
0
  6
Continuous
100
AcDbLine
 10
166.3319463366059
 20
-92.55080533197631
 30
0.0
 11
166.5799463366058
 21
-92.5758053319763
 31
0.0
  0
LINE
  5
4A8
330
491
100
AcDbEntity
  8
0
  6
Continuous
100
AcDbLine
 10
166.5529463366058
 20
-92.5602168747082
 30
0.0
 11
166.3589463366058
 21
-92.53521687470819
 31
0.0
  0
LINE
  5
4A9
330
491
100
AcDbEntity
  8
0
  6
Continuous
100
AcDbLine
 10
166.3589463366058
 20
-92.52806217416987
 30
0.0
 11
166.5529463366058
 21
-92.55306217416984
 31
0.0
  0
LINE
  5
4AA
330
491
100
AcDbEntity
  8
0
  6
Continuous
100
AcDbLine
 10
166.5799463366058
 20
-92.53747371690176
 30
0.0
 11
166.3319463366058
 21
-92.51247371690173
 31
0.0
  0
LINE
  5
4AB
330
491
100
AcDbEntity
  8
0
  6
Continuous
100
AcDbLine
 10
166.3319463366059
 20
-92.50080533197632
 30
0.0
 11
166.5799463366058
 21
-92.52580533197635
 31
0.0
  0
LINE
  5
4AC
330
491
100
AcDbEntity
  8
0
  6
Continuous
100
AcDbLine
 10
166.5529463366058
 20
-92.51021687470824
 30
0.0
 11
166.3589463366058
 21
-92.48521687470827
 31
0.0
  0
LINE
  5
4AD
330
491
100
AcDbEntity
  8
0
  6
Continuous
100
AcDbLine
 10
166.3589463366058
 20
-92.47806217416988
 30
0.0
 11
166.5529463366058
 21
-92.50306217416987
 31
0.0
  0
LINE
  5
4AE
330
491
100
AcDbEntity
  8
0
  6
Continuous
100
AcDbLine
 10
166.5799463366058
 20
-92.48747371690178
 30
0.0
 11
166.3319463366058
 21
-92.46247371690175
 31
0.0
  0
LINE
  5
4AF
330
491
100
AcDbEntity
  8
0
  6
Continuous
100
AcDbLine
 10
166.3319463366058
 20
-92.45080533197635
 30
0.0
 11
166.5799463366058
 21
-92.47580533197636
 31
0.0
  0
LINE
  5
4B0
330
491
100
AcDbEntity
  8
0
  6
Continuous
100
AcDbLine
 10
166.5529463366058
 20
-92.46021687470825
 30
0.0
 11
166.3589463366058
 21
-92.43521687470826
 31
0.0
  0
LINE
  5
4B1
330
491
100
AcDbEntity
  8
0
  6
Continuous
100
AcDbLine
 10
166.3589463366058
 20
-92.42806217416989
 30
0.0
 11
166.5529463366058
 21
-92.45306217416988
 31
0.0
  0
LINE
  5
4B2
330
491
100
AcDbEntity
  8
0
  6
Continuous
100
AcDbLine
 10
166.5799463366058
 20
-92.43747371690178
 30
0.0
 11
166.3319463366058
 21
-92.41247371690176
 31
0.0
  0
LINE
  5
4B3
330
491
100
AcDbEntity
  8
0
  6
Continuous
100
AcDbLine
 10
166.3319463366059
 20
-92.40080533197634
 30
0.0
 11
166.5799463366058
 21
-92.42580533197637
 31
0.0
  0
LINE
  5
4B4
330
491
100
AcDbEntity
  8
0
  6
Continuous
100
AcDbLine
 10
166.5529463366058
 20
-92.41021687470826
 30
0.0
 11
166.3589463366058
 21
-92.38521687470823
 31
0.0
  0
LINE
  5
4B5
330
491
100
AcDbEntity
  8
0
  6
Continuous
100
AcDbLine
 10
166.3589463366058
 20
-92.3780621741699
 30
0.0
 11
166.5529463366058
 21
-92.40306217416989
 31
0.0
  0
LINE
  5
4B6
330
491
100
AcDbEntity
  8
0
  6
Continuous
100
AcDbLine
 10
166.5799463366058
 20
-92.38747371690179
 30
0.0
 11
166.3319463366058
 21
-92.36247371690176
 31
0.0
  0
LINE
  5
4B7
330
491
100
AcDbEntity
  8
0
  6
Continuous
100
AcDbLine
 10
166.3319463366059
 20
-92.35080533197637
 30
0.0
 11
166.5799463366058
 21
-92.37580533197638
 31
0.0
  0
LINE
  5
4B8
330
491
100
AcDbEntity
  8
0
  6
Continuous
100
AcDbLine
 10
166.5529463366058
 20
-92.36021687470824
 30
0.0
 11
166.3589463366058
 21
-92.33521687470824
 31
0.0
  0
LINE
  5
4B9
330
491
100
AcDbEntity
  8
0
  6
Continuous
100
AcDbLine
 10
166.3589463366058
 20
-92.32806217416991
 30
0.0
 11
166.5529463366058
 21
-92.35306217416987
 31
0.0
  0
LINE
  5
4BA
330
491
100
AcDbEntity
  8
0
  6
Continuous
100
AcDbLine
 10
166.5799463366058
 20
-92.33747371690181
 30
0.0
 11
166.3319463366058
 21
-92.31247371690178
 31
0.0
  0
LINE
  5
4BB
330
491
100
AcDbEntity
  8
0
  6
Continuous
100
AcDbLine
 10
166.3319463366058
 20
-92.30062333814569
 30
0.0
 11
166.5799463366058
 21
-92.3256233381457
 31
0.0
  0
LINE
  5
4BC
330
491
100
AcDbEntity
  8
0
  6
Continuous
100
AcDbLine
 10
166.3589463366058
 20
-92.28503488087758
 30
0.0
 11
166.5529463366058
 21
-92.31003488087758
 31
0.0
  0
LINE
  5
4BD
330
491
100
AcDbEntity
  8
0
  6
Continuous
100
AcDbLine
 10
166.5529463366058
 20
-92.30288018033922
 30
0.0
 11
166.3589463366058
 21
-92.27788018033923
 31
0.0
  0
LINE
  5
4BE
330
491
100
AcDbEntity
  8
0
  6
Continuous
100
AcDbLine
 10
166.3319463366058
 20
-92.2622917230711
 30
0.0
 11
166.5799463366058
 21
-92.2872917230711
 31
0.0
  0
LINE
  5
4BF
330
491
100
AcDbEntity
  8
0
  6
Continuous
100
AcDbLine
 10
166.5799463366058
 20
-92.27562333814569
 30
0.0
 11
166.3319463366058
 21
-92.25062333814566
 31
0.0
  0
LINE
  5
4C0
330
491
100
AcDbEntity
  8
0
  6
Continuous
100
AcDbLine
 10
166.3589463366058
 20
-92.23503488087763
 30
0.0
 11
166.5529463366058
 21
-92.2600348808776
 31
0.0
  0
LINE
  5
4C1
330
491
100
AcDbEntity
  8
0
  6
Continuous
100
AcDbLine
 10
166.5529463366058
 20
-92.25288018033923
 30
0.0
 11
166.3589463366058
 21
-92.22788018033924
 31
0.0
  0
LINE
  5
4C2
330
491
100
AcDbEntity
  8
0
  6
Continuous
100
AcDbLine
 10
166.3319463366059
 20
-92.21229172307115
 30
0.0
 11
166.5799463366058
 21
-92.23729172307113
 31
0.0
  0
LINE
  5
4C3
330
491
100
AcDbEntity
  8
0
  6
Continuous
100
AcDbLine
 10
166.3319463366058
 20
-92.20062333814572
 30
0.0
 11
166.5799463366058
 21
-92.2256233381457
 31
0.0
  0
LINE
  5
4C4
330
491
100
AcDbEntity
  8
0
  6
Continuous
100
AcDbLine
 10
166.5529463366058
 20
-92.21003488087761
 30
0.0
 11
166.3589463366058
 21
-92.18503488087762
 31
0.0
  0
LINE
  5
4C5
330
491
100
AcDbEntity
  8
0
  6
Continuous
100
AcDbLine
 10
166.3589463366058
 20
-92.17788018033926
 30
0.0
 11
166.5529463366058
 21
-92.20288018033928
 31
0.0
  0
LINE
  5
4C6
330
491
100
AcDbEntity
  8
0
  6
Continuous
100
AcDbLine
 10
166.5799463366058
 20
-92.18729172307112
 30
0.0
 11
166.3319463366058
 21
-92.16229172307114
 31
0.0
  0
LINE
  5
4C7
330
491
100
AcDbEntity
  8
0
  6
Continuous
100
AcDbLine
 10
166.3319463366058
 20
-92.15062333814577
 30
0.0
 11
166.5799463366058
 21
-92.17562333814571
 31
0.0
  0
LINE
  5
4C8
330
491
100
AcDbEntity
  8
0
  6
Continuous
100
AcDbLine
 10
166.5529463366058
 20
-92.16003488087762
 30
0.0
 11
166.3589463366058
 21
-92.13503488087759
 31
0.0
  0
LINE
  5
4C9
330
491
100
AcDbEntity
  8
0
  6
Continuous
100
AcDbLine
 10
166.3589463366058
 20
-92.12788018033926
 30
0.0
 11
166.5529463366058
 21
-92.15288018033929
 31
0.0
  0
LINE
  5
4CA
330
491
100
AcDbEntity
  8
0
  6
Continuous
100
AcDbLine
 10
166.5799463366058
 20
-92.13729172307116
 30
0.0
 11
166.3319463366058
 21
-92.11229172307112
 31
0.0
  0
LINE
  5
4CB
330
491
100
AcDbEntity
  8
0
  6
Continuous
100
AcDbLine
 10
166.3319463366058
 20
-92.10062333814571
 30
0.0
 11
166.5799463366058
 21
-92.12562333814574
 31
0.0
  0
LINE
  5
4CC
330
491
100
AcDbEntity
  8
0
  6
Continuous
100
AcDbLine
 10
166.5529463366058
 20
-92.11003488087762
 30
0.0
 11
166.3589463366058
 21
-92.08503488087762
 31
0.0
  0
LINE
  5
4CD
330
491
100
AcDbEntity
  8
0
  6
Continuous
100
AcDbLine
 10
166.3589463366058
 20
-92.07788018033927
 30
0.0
 11
166.5529463366058
 21
-92.10288018033926
 31
0.0
  0
LINE
  5
4CE
330
491
100
AcDbEntity
  8
0
  6
Continuous
100
AcDbLine
 10
166.5799463366058
 20
-92.08729172307117
 30
0.0
 11
166.3319463366058
 21
-92.06229172307111
 31
0.0
  0
LINE
  5
4CF
330
491
100
AcDbEntity
  8
0
  6
Continuous
100
AcDbLine
 10
166.3319463366059
 20
-92.05062333814572
 30
0.0
 11
166.5799463366058
 21
-92.07562333814571
 31
0.0
  0
LINE
  5
4D0
330
491
100
AcDbEntity
  8
0
  6
Continuous
100
AcDbLine
 10
166.5529463366058
 20
-92.06003488087763
 30
0.0
 11
166.3589463366058
 21
-92.03503488087767
 31
0.0
  0
LINE
  5
4D1
330
491
100
AcDbEntity
  8
0
  6
Continuous
100
AcDbLine
 10
166.3589463366058
 20
-92.02788018033928
 30
0.0
 11
166.5529463366058
 21
-92.05288018033924
 31
0.0
  0
LINE
  5
4D2
330
491
100
AcDbEntity
  8
0
  6
Continuous
100
AcDbLine
 10
166.5799463366058
 20
-92.03729172307115
 30
0.0
 11
166.3319463366058
 21
-92.01229172307115
 31
0.0
  0
LINE
  5
4D3
330
491
100
AcDbEntity
  8
0
  6
Continuous
100
AcDbLine
 10
166.3319463366058
 20
-92.00062333814576
 30
0.0
 11
166.5799463366058
 21
-92.02562333814574
 31
0.0
  0
LINE
  5
4D4
330
491
100
AcDbEntity
  8
0
  6
Continuous
100
AcDbLine
 10
166.5529463366058
 20
-92.01003488087765
 30
0.0
 11
166.3589463366058
 21
-91.98503488087764
 31
0.0
  0
LINE
  5
4D5
330
491
100
AcDbEntity
  8
0
  6
Continuous
100
AcDbLine
 10
166.3589463366058
 20
-91.9778801803393
 30
0.0
 11
166.5529463366058
 21
-92.00288018033933
 31
0.0
  0
LINE
  5
4D6
330
491
100
AcDbEntity
  8
0
  6
Continuous
100
AcDbLine
 10
166.5799463366058
 20
-91.98729172307112
 30
0.0
 11
166.3319463366058
 21
-91.96229172307118
 31
0.0
  0
LINE
  5
4D7
330
491
100
AcDbEntity
  8
0
  6
Continuous
100
AcDbLine
 10
166.3319463366058
 20
-91.95062333814576
 30
0.0
 11
166.5799463366058
 21
-91.97562333814579
 31
0.0
  0
LINE
  5
4D8
330
491
100
AcDbEntity
  8
0
  6
Continuous
100
AcDbLine
 10
166.5529463366058
 20
-91.96003488087765
 30
0.0
 11
166.3589463366058
 21
-91.93503488087765
 31
0.0
  0
LINE
  5
4D9
330
491
100
AcDbEntity
  8
0
  6
Continuous
100
AcDbLine
 10
166.3589463366058
 20
-91.92788018033928
 30
0.0
 11
166.5529463366058
 21
-91.95288018033933
 31
0.0
  0
LINE
  5
4DA
330
491
100
AcDbEntity
  8
0
  6
Continuous
100
AcDbLine
 10
166.3319463366058
 20
-91.91229172307117
 30
0.0
 11
166.5799463366058
 21
-91.9372917230712
 31
0.0
  0
LINE
  5
4DB
330
491
100
AcDbEntity
  8
0
  6
Continuous
100
AcDbLine
 10
166.3319463366059
 20
-91.90062333814577
 30
0.0
 11
166.5799463366058
 21
-91.92562333814576
 31
0.0
  0
LINE
  5
4DC
330
491
100
AcDbEntity
  8
0
  6
Continuous
100
AcDbLine
 10
166.3319463366059
 20
-91.84937462683981
 30
0.0
 11
166.5799463366058
 21
-91.84937462683967
 31
0.0
  0
LINE
  5
4DD
330
491
100
AcDbEntity
  8
0
  6
Continuous
100
AcDbLine
 10
166.3319463366058
 20
-91.86229172307116
 30
0.0
 11
166.5799463366058
 21
-91.88729172307114
 31
0.0
  0
LINE
  5
4DE
330
491
100
AcDbEntity
  8
0
  6
Continuous
100
AcDbLine
 10
166.3589463366058
 20
-91.88503488087768
 30
0.0
 11
166.5529463366058
 21
-91.91003488087766
 31
0.0
  0
LINE
  5
4DF
330
491
100
AcDbEntity
  8
0
  6
Continuous
100
AcDbLine
 10
166.3589463366058
 20
-91.87788018033932
 30
0.0
 11
166.5529463366058
 21
-91.90288018033928
 31
0.0
  0
LINE
  5
4E0
330
491
100
AcDbEntity
  8
0
  6
Continuous
100
AcDbLine
 10
166.5809463366058
 20
-91.81645753060838
 30
0.0
 11
166.5799463366058
 21
-91.83645753060824
 31
0.0
  0
LINE
  5
4E1
330
491
100
AcDbEntity
  8
0
  6
Continuous
100
AcDbLine
 10
166.3309463366058
 20
-91.81645753060838
 30
0.0
 11
166.3319463366059
 21
-91.83645753060847
 31
0.0
  0
LINE
  5
4E2
330
491
100
AcDbEntity
  8
0
  6
Continuous
 62
     0
100
AcDbLine
 10
166.3319463366058
 20
-91.86229172307116
 30
0.0
 11
166.3319463366059
 21
-91.83645753060847
 31
0.0
  0
LINE
  5
4E3
330
491
100
AcDbEntity
  8
0
  6
Continuous
 62
     0
100
AcDbLine
 10
166.5799463366058
 20
-91.83645753060824
 30
0.0
 11
166.5799463366058
 21
-91.88729172307114
 31
0.0
  0
LINE
  5
4E4
330
491
100
AcDbEntity
  8
0
  6
Continuous
 62
     0
100
AcDbLine
 10
166.3589463366058
 20
-92.57806217416989
 30
0.0
 11
166.3319463366058
 21
-92.56247371690172
 31
0.0
  0
LINE
  5
4E5
330
491
100
AcDbEntity
  8
0
  6
Continuous
 62
     0
100
AcDbLine
 10
166.3589463366058
 20
-92.57806217416989
 30
0.0
 11
166.3589463366058
 21
-92.58521687470819
 31
0.0
  0
LINE
  5
4E6
330
491
100
AcDbEntity
  8
0
  6
Continuous
 62
     0
100
AcDbLine
 10
166.3589463366058
 20
-92.58521687470819
 30
0.0
 11
166.3319463366059
 21
-92.60080533197633
 31
0.0
  0
LINE
  5
4E7
330
491
100
AcDbEntity
  8
0
  6
Continuous
 62
     0
100
AcDbLine
 10
166.3319463366059
 20
-92.60080533197633
 30
0.0
 11
166.3319463366058
 21
-92.61247371690172
 31
0.0
  0
LINE
  5
4E8
330
491
100
AcDbEntity
  8
0
  6
Continuous
 62
     0
100
AcDbLine
 10
166.3589463366058
 20
-92.62806217416985
 30
0.0
 11
166.3319463366058
 21
-92.61247371690172
 31
0.0
  0
LINE
  5
4E9
330
491
100
AcDbEntity
  8
0
  6
Continuous
 62
     0
100
AcDbLine
 10
166.3319463366059
 20
-92.55080533197631
 30
0.0
 11
166.3319463366058
 21
-92.56247371690172
 31
0.0
  0
LINE
  5
4EA
330
491
100
AcDbEntity
  8
0
  6
Continuous
 62
     0
100
AcDbLine
 10
166.3589463366058
 20
-92.53521687470819
 30
0.0
 11
166.3319463366059
 21
-92.55080533197631
 31
0.0
  0
LINE
  5
4EB
330
491
100
AcDbEntity
  8
0
  6
Continuous
 62
     0
100
AcDbLine
 10
166.3589463366058
 20
-92.52806217416987
 30
0.0
 11
166.3589463366058
 21
-92.53521687470819
 31
0.0
  0
LINE
  5
4EC
330
491
100
AcDbEntity
  8
0
  6
Continuous
 62
     0
100
AcDbLine
 10
166.3589463366058
 20
-92.52806217416987
 30
0.0
 11
166.3319463366058
 21
-92.51247371690173
 31
0.0
  0
LINE
  5
4ED
330
491
100
AcDbEntity
  8
0
  6
Continuous
 62
     0
100
AcDbLine
 10
166.3319463366059
 20
-92.50080533197632
 30
0.0
 11
166.3319463366058
 21
-92.51247371690173
 31
0.0
  0
LINE
  5
4EE
330
491
100
AcDbEntity
  8
0
  6
Continuous
 62
     0
100
AcDbLine
 10
166.3589463366058
 20
-92.48521687470827
 30
0.0
 11
166.3319463366059
 21
-92.50080533197632
 31
0.0
  0
LINE
  5
4EF
330
491
100
AcDbEntity
  8
0
  6
Continuous
 62
     0
100
AcDbLine
 10
166.3589463366058
 20
-92.47806217416988
 30
0.0
 11
166.3589463366058
 21
-92.48521687470827
 31
0.0
  0
LINE
  5
4F0
330
491
100
AcDbEntity
  8
0
  6
Continuous
 62
     0
100
AcDbLine
 10
166.3589463366058
 20
-92.47806217416988
 30
0.0
 11
166.3319463366058
 21
-92.46247371690175
 31
0.0
  0
LINE
  5
4F1
330
491
100
AcDbEntity
  8
0
  6
Continuous
 62
     0
100
AcDbLine
 10
166.3319463366058
 20
-92.45080533197635
 30
0.0
 11
166.3319463366058
 21
-92.46247371690175
 31
0.0
  0
LINE
  5
4F2
330
491
100
AcDbEntity
  8
0
  6
Continuous
 62
     0
100
AcDbLine
 10
166.3589463366058
 20
-92.43521687470826
 30
0.0
 11
166.3319463366058
 21
-92.45080533197635
 31
0.0
  0
LINE
  5
4F3
330
491
100
AcDbEntity
  8
0
  6
Continuous
 62
     0
100
AcDbLine
 10
166.3589463366058
 20
-92.42806217416989
 30
0.0
 11
166.3589463366058
 21
-92.43521687470826
 31
0.0
  0
LINE
  5
4F4
330
491
100
AcDbEntity
  8
0
  6
Continuous
 62
     0
100
AcDbLine
 10
166.3589463366058
 20
-92.42806217416989
 30
0.0
 11
166.3319463366058
 21
-92.41247371690176
 31
0.0
  0
LINE
  5
4F5
330
491
100
AcDbEntity
  8
0
  6
Continuous
 62
     0
100
AcDbLine
 10
166.3319463366059
 20
-92.40080533197634
 30
0.0
 11
166.3319463366058
 21
-92.41247371690176
 31
0.0
  0
LINE
  5
4F6
330
491
100
AcDbEntity
  8
0
  6
Continuous
 62
     0
100
AcDbLine
 10
166.3589463366058
 20
-92.38521687470823
 30
0.0
 11
166.3319463366059
 21
-92.40080533197634
 31
0.0
  0
LINE
  5
4F7
330
491
100
AcDbEntity
  8
0
  6
Continuous
 62
     0
100
AcDbLine
 10
166.3589463366058
 20
-92.3780621741699
 30
0.0
 11
166.3589463366058
 21
-92.38521687470823
 31
0.0
  0
LINE
  5
4F8
330
491
100
AcDbEntity
  8
0
  6
Continuous
 62
     0
100
AcDbLine
 10
166.3589463366058
 20
-92.3780621741699
 30
0.0
 11
166.3319463366058
 21
-92.36247371690176
 31
0.0
  0
LINE
  5
4F9
330
491
100
AcDbEntity
  8
0
  6
Continuous
 62
     0
100
AcDbLine
 10
166.3319463366059
 20
-92.35080533197637
 30
0.0
 11
166.3319463366058
 21
-92.36247371690176
 31
0.0
  0
LINE
  5
4FA
330
491
100
AcDbEntity
  8
0
  6
Continuous
 62
     0
100
AcDbLine
 10
166.3589463366058
 20
-92.33521687470824
 30
0.0
 11
166.3319463366059
 21
-92.35080533197637
 31
0.0
  0
LINE
  5
4FB
330
491
100
AcDbEntity
  8
0
  6
Continuous
 62
     0
100
AcDbLine
 10
166.3589463366058
 20
-92.32806217416991
 30
0.0
 11
166.3589463366058
 21
-92.33521687470824
 31
0.0
  0
LINE
  5
4FC
330
491
100
AcDbEntity
  8
0
  6
Continuous
 62
     0
100
AcDbLine
 10
166.3589463366058
 20
-92.32806217416991
 30
0.0
 11
166.3319463366058
 21
-92.31247371690178
 31
0.0
  0
LINE
  5
4FD
330
491
100
AcDbEntity
  8
0
  6
Continuous
 62
     0
100
AcDbLine
 10
166.3319463366058
 20
-92.30062333814569
 30
0.0
 11
166.3319463366058
 21
-92.31247371690178
 31
0.0
  0
LINE
  5
4FE
330
491
100
AcDbEntity
  8
0
  6
Continuous
 62
     0
100
AcDbLine
 10
166.3589463366058
 20
-92.28503488087758
 30
0.0
 11
166.3319463366058
 21
-92.30062333814569
 31
0.0
  0
LINE
  5
4FF
330
491
100
AcDbEntity
  8
0
  6
Continuous
 62
     0
100
AcDbLine
 10
166.3589463366058
 20
-92.27788018033923
 30
0.0
 11
166.3589463366058
 21
-92.28503488087758
 31
0.0
  0
LINE
  5
500
330
491
100
AcDbEntity
  8
0
  6
Continuous
 62
     0
100
AcDbLine
 10
166.3589463366058
 20
-92.27788018033923
 30
0.0
 11
166.3319463366058
 21
-92.2622917230711
 31
0.0
  0
LINE
  5
501
330
491
100
AcDbEntity
  8
0
  6
Continuous
 62
     0
100
AcDbLine
 10
166.3319463366058
 20
-92.25062333814566
 30
0.0
 11
166.3319463366058
 21
-92.2622917230711
 31
0.0
  0
LINE
  5
502
330
491
100
AcDbEntity
  8
0
  6
Continuous
 62
     0
100
AcDbLine
 10
166.3589463366058
 20
-92.23503488087763
 30
0.0
 11
166.3319463366058
 21
-92.25062333814566
 31
0.0
  0
LINE
  5
503
330
491
100
AcDbEntity
  8
0
  6
Continuous
 62
     0
100
AcDbLine
 10
166.3589463366058
 20
-92.22788018033924
 30
0.0
 11
166.3589463366058
 21
-92.23503488087763
 31
0.0
  0
LINE
  5
504
330
491
100
AcDbEntity
  8
0
  6
Continuous
 62
     0
100
AcDbLine
 10
166.3589463366058
 20
-92.22788018033924
 30
0.0
 11
166.3319463366059
 21
-92.21229172307115
 31
0.0
  0
LINE
  5
505
330
491
100
AcDbEntity
  8
0
  6
Continuous
 62
     0
100
AcDbLine
 10
166.3319463366058
 20
-92.20062333814572
 30
0.0
 11
166.3319463366059
 21
-92.21229172307115
 31
0.0
  0
LINE
  5
506
330
491
100
AcDbEntity
  8
0
  6
Continuous
 62
     0
100
AcDbLine
 10
166.3589463366058
 20
-92.18503488087762
 30
0.0
 11
166.3319463366058
 21
-92.20062333814572
 31
0.0
  0
LINE
  5
507
330
491
100
AcDbEntity
  8
0
  6
Continuous
 62
     0
100
AcDbLine
 10
166.3589463366058
 20
-92.17788018033926
 30
0.0
 11
166.3589463366058
 21
-92.18503488087762
 31
0.0
  0
LINE
  5
508
330
491
100
AcDbEntity
  8
0
  6
Continuous
 62
     0
100
AcDbLine
 10
166.3589463366058
 20
-92.17788018033926
 30
0.0
 11
166.3319463366058
 21
-92.16229172307114
 31
0.0
  0
LINE
  5
509
330
491
100
AcDbEntity
  8
0
  6
Continuous
 62
     0
100
AcDbLine
 10
166.3319463366058
 20
-92.15062333814577
 30
0.0
 11
166.3319463366058
 21
-92.16229172307114
 31
0.0
  0
LINE
  5
50A
330
491
100
AcDbEntity
  8
0
  6
Continuous
 62
     0
100
AcDbLine
 10
166.3589463366058
 20
-92.13503488087759
 30
0.0
 11
166.3319463366058
 21
-92.15062333814577
 31
0.0
  0
LINE
  5
50B
330
491
100
AcDbEntity
  8
0
  6
Continuous
 62
     0
100
AcDbLine
 10
166.3589463366058
 20
-92.12788018033926
 30
0.0
 11
166.3589463366058
 21
-92.13503488087759
 31
0.0
  0
LINE
  5
50C
330
491
100
AcDbEntity
  8
0
  6
Continuous
 62
     0
100
AcDbLine
 10
166.3589463366058
 20
-92.12788018033926
 30
0.0
 11
166.3319463366058
 21
-92.11229172307112
 31
0.0
  0
LINE
  5
50D
330
491
100
AcDbEntity
  8
0
  6
Continuous
 62
     0
100
AcDbLine
 10
166.3319463366058
 20
-92.10062333814571
 30
0.0
 11
166.3319463366058
 21
-92.11229172307112
 31
0.0
  0
LINE
  5
50E
330
491
100
AcDbEntity
  8
0
  6
Continuous
 62
     0
100
AcDbLine
 10
166.3589463366058
 20
-92.08503488087762
 30
0.0
 11
166.3319463366058
 21
-92.10062333814571
 31
0.0
  0
LINE
  5
50F
330
491
100
AcDbEntity
  8
0
  6
Continuous
 62
     0
100
AcDbLine
 10
166.3589463366058
 20
-92.07788018033927
 30
0.0
 11
166.3589463366058
 21
-92.08503488087762
 31
0.0
  0
LINE
  5
510
330
491
100
AcDbEntity
  8
0
  6
Continuous
 62
     0
100
AcDbLine
 10
166.3589463366058
 20
-92.07788018033927
 30
0.0
 11
166.3319463366058
 21
-92.06229172307111
 31
0.0
  0
LINE
  5
511
330
491
100
AcDbEntity
  8
0
  6
Continuous
 62
     0
100
AcDbLine
 10
166.3319463366059
 20
-92.05062333814572
 30
0.0
 11
166.3319463366058
 21
-92.06229172307111
 31
0.0
  0
LINE
  5
512
330
491
100
AcDbEntity
  8
0
  6
Continuous
 62
     0
100
AcDbLine
 10
166.3589463366058
 20
-92.03503488087767
 30
0.0
 11
166.3319463366059
 21
-92.05062333814572
 31
0.0
  0
LINE
  5
513
330
491
100
AcDbEntity
  8
0
  6
Continuous
 62
     0
100
AcDbLine
 10
166.3589463366058
 20
-92.02788018033928
 30
0.0
 11
166.3589463366058
 21
-92.03503488087767
 31
0.0
  0
LINE
  5
514
330
491
100
AcDbEntity
  8
0
  6
Continuous
 62
     0
100
AcDbLine
 10
166.3589463366058
 20
-92.02788018033928
 30
0.0
 11
166.3319463366058
 21
-92.01229172307115
 31
0.0
  0
LINE
  5
515
330
491
100
AcDbEntity
  8
0
  6
Continuous
 62
     0
100
AcDbLine
 10
166.3319463366058
 20
-92.00062333814576
 30
0.0
 11
166.3319463366058
 21
-92.01229172307115
 31
0.0
  0
LINE
  5
516
330
491
100
AcDbEntity
  8
0
  6
Continuous
 62
     0
100
AcDbLine
 10
166.3589463366058
 20
-91.98503488087764
 30
0.0
 11
166.3319463366058
 21
-92.00062333814576
 31
0.0
  0
LINE
  5
517
330
491
100
AcDbEntity
  8
0
  6
Continuous
 62
     0
100
AcDbLine
 10
166.3589463366058
 20
-91.9778801803393
 30
0.0
 11
166.3589463366058
 21
-91.98503488087764
 31
0.0
  0
LINE
  5
518
330
491
100
AcDbEntity
  8
0
  6
Continuous
 62
     0
100
AcDbLine
 10
166.3589463366058
 20
-91.9778801803393
 30
0.0
 11
166.3319463366058
 21
-91.96229172307118
 31
0.0
  0
LINE
  5
519
330
491
100
AcDbEntity
  8
0
  6
Continuous
 62
     0
100
AcDbLine
 10
166.3319463366058
 20
-91.95062333814576
 30
0.0
 11
166.3319463366058
 21
-91.96229172307118
 31
0.0
  0
LINE
  5
51A
330
491
100
AcDbEntity
  8
0
  6
Continuous
 62
     0
100
AcDbLine
 10
166.3589463366058
 20
-91.93503488087765
 30
0.0
 11
166.3319463366058
 21
-91.95062333814576
 31
0.0
  0
LINE
  5
51B
330
491
100
AcDbEntity
  8
0
  6
Continuous
 62
     0
100
AcDbLine
 10
166.3589463366058
 20
-91.92788018033928
 30
0.0
 11
166.3589463366058
 21
-91.93503488087765
 31
0.0
  0
LINE
  5
51C
330
491
100
AcDbEntity
  8
0
  6
Continuous
 62
     0
100
AcDbLine
 10
166.3589463366058
 20
-91.92788018033928
 30
0.0
 11
166.3319463366058
 21
-91.91229172307117
 31
0.0
  0
LINE
  5
51D
330
491
100
AcDbEntity
  8
0
  6
Continuous
 62
     0
100
AcDbLine
 10
166.3319463366059
 20
-91.90062333814577
 30
0.0
 11
166.3319463366058
 21
-91.91229172307117
 31
0.0
  0
LINE
  5
51E
330
491
100
AcDbEntity
  8
0
  6
Continuous
 62
     0
100
AcDbLine
 10
166.3589463366058
 20
-91.88503488087768
 30
0.0
 11
166.3319463366059
 21
-91.90062333814577
 31
0.0
  0
LINE
  5
51F
330
491
100
AcDbEntity
  8
0
  6
Continuous
 62
     0
100
AcDbLine
 10
166.3589463366058
 20
-91.87788018033932
 30
0.0
 11
166.3589463366058
 21
-91.88503488087768
 31
0.0
  0
LINE
  5
520
330
491
100
AcDbEntity
  8
0
  6
Continuous
 62
     0
100
AcDbLine
 10
166.3589463366058
 20
-91.87788018033932
 30
0.0
 11
166.3319463366058
 21
-91.86229172307116
 31
0.0
  0
LINE
  5
521
330
491
100
AcDbEntity
  8
0
  6
Continuous
 62
     0
100
AcDbLine
 10
166.5529463366058
 20
-91.90288018033928
 30
0.0
 11
166.5799463366058
 21
-91.88729172307114
 31
0.0
  0
LINE
  5
522
330
491
100
AcDbEntity
  8
0
  6
Continuous
 62
     0
100
AcDbLine
 10
166.5529463366058
 20
-91.90288018033928
 30
0.0
 11
166.5529463366058
 21
-91.91003488087766
 31
0.0
  0
LINE
  5
523
330
491
100
AcDbEntity
  8
0
  6
Continuous
 62
     0
100
AcDbLine
 10
166.5529463366058
 20
-91.91003488087766
 30
0.0
 11
166.5799463366058
 21
-91.92562333814576
 31
0.0
  0
LINE
  5
524
330
491
100
AcDbEntity
  8
0
  6
Continuous
 62
     0
100
AcDbLine
 10
166.5799463366058
 20
-91.92562333814576
 30
0.0
 11
166.5799463366058
 21
-91.9372917230712
 31
0.0
  0
LINE
  5
525
330
491
100
AcDbEntity
  8
0
  6
Continuous
 62
     0
100
AcDbLine
 10
166.5529463366058
 20
-91.95288018033933
 30
0.0
 11
166.5799463366058
 21
-91.9372917230712
 31
0.0
  0
LINE
  5
526
330
491
100
AcDbEntity
  8
0
  6
Continuous
 62
     0
100
AcDbLine
 10
166.5529463366058
 20
-91.95288018033933
 30
0.0
 11
166.5529463366058
 21
-91.96003488087765
 31
0.0
  0
LINE
  5
527
330
491
100
AcDbEntity
  8
0
  6
Continuous
 62
     0
100
AcDbLine
 10
166.5529463366058
 20
-91.96003488087765
 30
0.0
 11
166.5799463366058
 21
-91.97562333814579
 31
0.0
  0
LINE
  5
528
330
491
100
AcDbEntity
  8
0
  6
Continuous
 62
     0
100
AcDbLine
 10
166.5799463366058
 20
-91.97562333814579
 30
0.0
 11
166.5799463366058
 21
-91.98729172307112
 31
0.0
  0
LINE
  5
529
330
491
100
AcDbEntity
  8
0
  6
Continuous
 62
     0
100
AcDbLine
 10
166.5529463366058
 20
-92.00288018033933
 30
0.0
 11
166.5799463366058
 21
-91.98729172307112
 31
0.0
  0
LINE
  5
52A
330
491
100
AcDbEntity
  8
0
  6
Continuous
 62
     0
100
AcDbLine
 10
166.5529463366058
 20
-92.00288018033933
 30
0.0
 11
166.5529463366058
 21
-92.01003488087765
 31
0.0
  0
LINE
  5
52B
330
491
100
AcDbEntity
  8
0
  6
Continuous
 62
     0
100
AcDbLine
 10
166.5529463366058
 20
-92.01003488087765
 30
0.0
 11
166.5799463366058
 21
-92.02562333814574
 31
0.0
  0
LINE
  5
52C
330
491
100
AcDbEntity
  8
0
  6
Continuous
 62
     0
100
AcDbLine
 10
166.5799463366058
 20
-92.02562333814574
 30
0.0
 11
166.5799463366058
 21
-92.03729172307115
 31
0.0
  0
LINE
  5
52D
330
491
100
AcDbEntity
  8
0
  6
Continuous
 62
     0
100
AcDbLine
 10
166.5529463366058
 20
-92.05288018033924
 30
0.0
 11
166.5799463366058
 21
-92.03729172307115
 31
0.0
  0
LINE
  5
52E
330
491
100
AcDbEntity
  8
0
  6
Continuous
 62
     0
100
AcDbLine
 10
166.5529463366058
 20
-92.05288018033924
 30
0.0
 11
166.5529463366058
 21
-92.06003488087763
 31
0.0
  0
LINE
  5
52F
330
491
100
AcDbEntity
  8
0
  6
Continuous
 62
     0
100
AcDbLine
 10
166.5529463366058
 20
-92.06003488087763
 30
0.0
 11
166.5799463366058
 21
-92.07562333814571
 31
0.0
  0
LINE
  5
530
330
491
100
AcDbEntity
  8
0
  6
Continuous
 62
     0
100
AcDbLine
 10
166.5799463366058
 20
-92.07562333814571
 30
0.0
 11
166.5799463366058
 21
-92.08729172307117
 31
0.0
  0
LINE
  5
531
330
491
100
AcDbEntity
  8
0
  6
Continuous
 62
     0
100
AcDbLine
 10
166.5529463366058
 20
-92.10288018033926
 30
0.0
 11
166.5799463366058
 21
-92.08729172307117
 31
0.0
  0
LINE
  5
532
330
491
100
AcDbEntity
  8
0
  6
Continuous
 62
     0
100
AcDbLine
 10
166.5529463366058
 20
-92.10288018033926
 30
0.0
 11
166.5529463366058
 21
-92.11003488087762
 31
0.0
  0
LINE
  5
533
330
491
100
AcDbEntity
  8
0
  6
Continuous
 62
     0
100
AcDbLine
 10
166.5529463366058
 20
-92.11003488087762
 30
0.0
 11
166.5799463366058
 21
-92.12562333814574
 31
0.0
  0
LINE
  5
534
330
491
100
AcDbEntity
  8
0
  6
Continuous
 62
     0
100
AcDbLine
 10
166.5799463366058
 20
-92.12562333814574
 30
0.0
 11
166.5799463366058
 21
-92.13729172307116
 31
0.0
  0
LINE
  5
535
330
491
100
AcDbEntity
  8
0
  6
Continuous
 62
     0
100
AcDbLine
 10
166.5529463366058
 20
-92.15288018033929
 30
0.0
 11
166.5799463366058
 21
-92.13729172307116
 31
0.0
  0
LINE
  5
536
330
491
100
AcDbEntity
  8
0
  6
Continuous
 62
     0
100
AcDbLine
 10
166.5529463366058
 20
-92.15288018033929
 30
0.0
 11
166.5529463366058
 21
-92.16003488087762
 31
0.0
  0
LINE
  5
537
330
491
100
AcDbEntity
  8
0
  6
Continuous
 62
     0
100
AcDbLine
 10
166.5529463366058
 20
-92.16003488087762
 30
0.0
 11
166.5799463366058
 21
-92.17562333814571
 31
0.0
  0
LINE
  5
538
330
491
100
AcDbEntity
  8
0
  6
Continuous
 62
     0
100
AcDbLine
 10
166.5799463366058
 20
-92.17562333814571
 30
0.0
 11
166.5799463366058
 21
-92.18729172307112
 31
0.0
  0
LINE
  5
539
330
491
100
AcDbEntity
  8
0
  6
Continuous
 62
     0
100
AcDbLine
 10
166.5529463366058
 20
-92.20288018033928
 30
0.0
 11
166.5799463366058
 21
-92.18729172307112
 31
0.0
  0
LINE
  5
53A
330
491
100
AcDbEntity
  8
0
  6
Continuous
 62
     0
100
AcDbLine
 10
166.5529463366058
 20
-92.20288018033928
 30
0.0
 11
166.5529463366058
 21
-92.21003488087761
 31
0.0
  0
LINE
  5
53B
330
491
100
AcDbEntity
  8
0
  6
Continuous
 62
     0
100
AcDbLine
 10
166.5529463366058
 20
-92.21003488087761
 30
0.0
 11
166.5799463366058
 21
-92.2256233381457
 31
0.0
  0
LINE
  5
53C
330
491
100
AcDbEntity
  8
0
  6
Continuous
 62
     0
100
AcDbLine
 10
166.5799463366058
 20
-92.2256233381457
 30
0.0
 11
166.5799463366058
 21
-92.23729172307113
 31
0.0
  0
LINE
  5
53D
330
491
100
AcDbEntity
  8
0
  6
Continuous
 62
     0
100
AcDbLine
 10
166.5529463366058
 20
-92.25288018033923
 30
0.0
 11
166.5799463366058
 21
-92.23729172307113
 31
0.0
  0
LINE
  5
53E
330
491
100
AcDbEntity
  8
0
  6
Continuous
 62
     0
100
AcDbLine
 10
166.5529463366058
 20
-92.25288018033923
 30
0.0
 11
166.5529463366058
 21
-92.2600348808776
 31
0.0
  0
LINE
  5
53F
330
491
100
AcDbEntity
  8
0
  6
Continuous
 62
     0
100
AcDbLine
 10
166.5529463366058
 20
-92.2600348808776
 30
0.0
 11
166.5799463366058
 21
-92.27562333814569
 31
0.0
  0
LINE
  5
540
330
491
100
AcDbEntity
  8
0
  6
Continuous
 62
     0
100
AcDbLine
 10
166.5799463366058
 20
-92.27562333814569
 30
0.0
 11
166.5799463366058
 21
-92.2872917230711
 31
0.0
  0
LINE
  5
541
330
491
100
AcDbEntity
  8
0
  6
Continuous
 62
     0
100
AcDbLine
 10
166.5529463366058
 20
-92.30288018033922
 30
0.0
 11
166.5799463366058
 21
-92.2872917230711
 31
0.0
  0
LINE
  5
542
330
491
100
AcDbEntity
  8
0
  6
Continuous
 62
     0
100
AcDbLine
 10
166.5529463366058
 20
-92.30288018033922
 30
0.0
 11
166.5529463366058
 21
-92.31003488087758
 31
0.0
  0
LINE
  5
543
330
491
100
AcDbEntity
  8
0
  6
Continuous
 62
     0
100
AcDbLine
 10
166.5529463366058
 20
-92.31003488087758
 30
0.0
 11
166.5799463366058
 21
-92.3256233381457
 31
0.0
  0
LINE
  5
544
330
491
100
AcDbEntity
  8
0
  6
Continuous
 62
     0
100
AcDbLine
 10
166.5799463366058
 20
-92.3256233381457
 30
0.0
 11
166.5799463366058
 21
-92.33747371690181
 31
0.0
  0
LINE
  5
545
330
491
100
AcDbEntity
  8
0
  6
Continuous
 62
     0
100
AcDbLine
 10
166.5529463366058
 20
-92.35306217416987
 30
0.0
 11
166.5799463366058
 21
-92.33747371690181
 31
0.0
  0
LINE
  5
546
330
491
100
AcDbEntity
  8
0
  6
Continuous
 62
     0
100
AcDbLine
 10
166.5529463366058
 20
-92.35306217416987
 30
0.0
 11
166.5529463366058
 21
-92.36021687470824
 31
0.0
  0
LINE
  5
547
330
491
100
AcDbEntity
  8
0
  6
Continuous
 62
     0
100
AcDbLine
 10
166.5529463366058
 20
-92.36021687470824
 30
0.0
 11
166.5799463366058
 21
-92.37580533197638
 31
0.0
  0
LINE
  5
548
330
491
100
AcDbEntity
  8
0
  6
Continuous
 62
     0
100
AcDbLine
 10
166.5529463366058
 20
-92.40306217416989
 30
0.0
 11
166.5799463366058
 21
-92.38747371690179
 31
0.0
  0
LINE
  5
549
330
491
100
AcDbEntity
  8
0
  6
Continuous
 62
     0
100
AcDbLine
 10
166.5799463366058
 20
-92.37580533197638
 30
0.0
 11
166.5799463366058
 21
-92.38747371690179
 31
0.0
  0
LINE
  5
54A
330
491
100
AcDbEntity
  8
0
  6
Continuous
 62
     0
100
AcDbLine
 10
166.5529463366058
 20
-92.40306217416989
 30
0.0
 11
166.5529463366058
 21
-92.41021687470826
 31
0.0
  0
LINE
  5
54B
330
491
100
AcDbEntity
  8
0
  6
Continuous
 62
     0
100
AcDbLine
 10
166.5529463366058
 20
-92.41021687470826
 30
0.0
 11
166.5799463366058
 21
-92.42580533197637
 31
0.0
  0
LINE
  5
54C
330
491
100
AcDbEntity
  8
0
  6
Continuous
 62
     0
100
AcDbLine
 10
166.5799463366058
 20
-92.42580533197637
 30
0.0
 11
166.5799463366058
 21
-92.43747371690178
 31
0.0
  0
LINE
  5
54D
330
491
100
AcDbEntity
  8
0
  6
Continuous
 62
     0
100
AcDbLine
 10
166.5529463366058
 20
-92.45306217416988
 30
0.0
 11
166.5799463366058
 21
-92.43747371690178
 31
0.0
  0
LINE
  5
54E
330
491
100
AcDbEntity
  8
0
  6
Continuous
 62
     0
100
AcDbLine
 10
166.5529463366058
 20
-92.45306217416988
 30
0.0
 11
166.5529463366058
 21
-92.46021687470825
 31
0.0
  0
LINE
  5
54F
330
491
100
AcDbEntity
  8
0
  6
Continuous
 62
     0
100
AcDbLine
 10
166.5529463366058
 20
-92.46021687470825
 30
0.0
 11
166.5799463366058
 21
-92.47580533197636
 31
0.0
  0
LINE
  5
550
330
491
100
AcDbEntity
  8
0
  6
Continuous
 62
     0
100
AcDbLine
 10
166.5799463366058
 20
-92.47580533197636
 30
0.0
 11
166.5799463366058
 21
-92.48747371690178
 31
0.0
  0
LINE
  5
551
330
491
100
AcDbEntity
  8
0
  6
Continuous
 62
     0
100
AcDbLine
 10
166.5529463366058
 20
-92.50306217416987
 30
0.0
 11
166.5799463366058
 21
-92.48747371690178
 31
0.0
  0
LINE
  5
552
330
491
100
AcDbEntity
  8
0
  6
Continuous
 62
     0
100
AcDbLine
 10
166.5529463366058
 20
-92.50306217416987
 30
0.0
 11
166.5529463366058
 21
-92.51021687470824
 31
0.0
  0
LINE
  5
553
330
491
100
AcDbEntity
  8
0
  6
Continuous
 62
     0
100
AcDbLine
 10
166.5529463366058
 20
-92.51021687470824
 30
0.0
 11
166.5799463366058
 21
-92.52580533197635
 31
0.0
  0
LINE
  5
554
330
491
100
AcDbEntity
  8
0
  6
Continuous
 62
     0
100
AcDbLine
 10
166.5799463366058
 20
-92.52580533197635
 30
0.0
 11
166.5799463366058
 21
-92.53747371690176
 31
0.0
  0
LINE
  5
555
330
491
100
AcDbEntity
  8
0
  6
Continuous
 62
     0
100
AcDbLine
 10
166.5529463366058
 20
-92.55306217416984
 30
0.0
 11
166.5799463366058
 21
-92.53747371690176
 31
0.0
  0
LINE
  5
556
330
491
100
AcDbEntity
  8
0
  6
Continuous
 62
     0
100
AcDbLine
 10
166.5529463366058
 20
-92.55306217416984
 30
0.0
 11
166.5529463366058
 21
-92.5602168747082
 31
0.0
  0
LINE
  5
557
330
491
100
AcDbEntity
  8
0
  6
Continuous
 62
     0
100
AcDbLine
 10
166.5529463366058
 20
-92.5602168747082
 30
0.0
 11
166.5799463366058
 21
-92.5758053319763
 31
0.0
  0
LINE
  5
558
330
491
100
AcDbEntity
  8
0
  6
Continuous
 62
     0
100
AcDbLine
 10
166.5799463366058
 20
-92.5758053319763
 30
0.0
 11
166.5799463366058
 21
-92.58747371690173
 31
0.0
  0
LINE
  5
559
330
491
100
AcDbEntity
  8
0
  6
Continuous
 62
     0
100
AcDbLine
 10
166.5529463366058
 20
-92.60306217416987
 30
0.0
 11
166.5799463366058
 21
-92.58747371690173
 31
0.0
  0
LINE
  5
55A
330
491
100
AcDbEntity
  8
0
  6
Continuous
 62
     0
100
AcDbLine
 10
166.5529463366058
 20
-92.60306217416987
 30
0.0
 11
166.5529463366058
 21
-92.61021687470821
 31
0.0
  0
LINE
  5
55B
330
491
100
AcDbEntity
  8
0
  6
Continuous
 62
     0
100
AcDbLine
 10
166.5529463366058
 20
-92.61021687470821
 30
0.0
 11
166.5799463366058
 21
-92.62580533197629
 31
0.0
  0
LINE
  5
55C
330
491
100
AcDbEntity
  8
0
  6
Continuous
 62
     0
100
AcDbLine
 10
166.5799463366058
 20
-92.62580533197629
 30
0.0
 11
166.5799463366058
 21
-92.63747371690174
 31
0.0
  0
LINE
  5
55D
330
491
100
AcDbEntity
  8
0
  6
Continuous
 62
     0
100
AcDbLine
 10
166.5529463366058
 20
-92.65306217416986
 30
0.0
 11
166.5799463366058
 21
-92.63747371690174
 31
0.0
  0
ENDBLK
  5
55E
330
491
100
AcDbEntity
  8
0
100
AcDbBlockEnd
  0
BLOCK
  5
667
330
666
100
AcDbEntity
  8
0
100
AcDbBlockBegin
  2
ANCHOR
 70
     0
 10
0.0
 20
0.0
 30
0.0
  3
ANCHOR
  1

  0
LINE
  5
669
330
666
100
AcDbEntity
  8
0
100
AcDbLine
 10
145.708026122579
 20
-120.0800169222867
 30
0.0
 11
146.5982263711446
 21
-120.0800169222867
 31
0.0
  0
LINE
  5
66A
330
666
100
AcDbEntity
  8
0
100
AcDbLine
 10
145.708026122579
 20
-119.7050169222867
 30
0.0
 11
146.5982263711446
 21
-119.7050169222867
 31
0.0
  0
LINE
  5
66B
330
666
100
AcDbEntity
  8
0
100
AcDbLine
 10
146.5982263711446
 20
-120.2675169222867
 30
0.0
 11
146.8638513711446
 21
-120.2675169222867
 31
0.0
  0
LINE
  5
66C
330
666
100
AcDbEntity
  8
0
100
AcDbLine
 10
145.6455340980722
 20
-119.7675169222867
 30
0.0
 11
145.6455340980722
 21
-120.0175169222867
 31
0.0
  0
LINE
  5
66D
330
666
100
AcDbEntity
  8
0
100
AcDbLine
 10
145.0669763711446
 20
-119.7675169222867
 30
0.0
 11
145.1294763711446
 21
-120.0175169222867
 31
0.0
  0
LINE
  5
66E
330
666
100
AcDbEntity
  8
0
100
AcDbLine
 10
145.1924090980722
 20
-119.7675169222867
 30
0.0
 11
145.2549090980722
 21
-120.0175169222867
 31
0.0
  0
LINE
  5
66F
330
666
100
AcDbEntity
  8
0
100
AcDbLine
 10
145.3169763711446
 20
-119.7675169222867
 30
0.0
 11
145.3794763711446
 21
-120.0175169222867
 31
0.0
  0
LINE
  5
670
330
666
100
AcDbEntity
  8
0
100
AcDbLine
 10
145.4424090980722
 20
-119.7675169222867
 30
0.0
 11
145.5049090980722
 21
-120.0175169222867
 31
0.0
  0
LINE
  5
671
330
666
100
AcDbEntity
  8
0
100
AcDbLine
 10
145.5669763711446
 20
-119.7675169222867
 30
0.0
 11
145.6294763711446
 21
-120.0175169222867
 31
0.0
  0
LINE
  5
672
330
666
100
AcDbEntity
  8
0
100
AcDbLine
 10
144.0657909714501
 20
-119.7643164367935
 30
0.0
 11
144.1126659714501
 21
-120.0207174077798
 31
0.0
  0
LINE
  5
673
330
666
100
AcDbEntity
  8
0
100
AcDbLine
 10
144.1140443252082
 20
-119.8122083847268
 30
0.0
 11
144.1588428361227
 21
-119.9748863965364
 31
0.0
  0
LINE
  5
674
330
666
100
AcDbEntity
  8
0
100
AcDbLine
 10
144.0657909714501
 20
-119.7643164367935
 30
0.0
 11
144.0384595544792
 21
-119.8553144107971
 31
0.0
  0
LINE
  5
675
330
666
100
AcDbEntity
  8
0
100
AcDbLine
 10
144.1924090980722
 20
-119.7675169222867
 30
0.0
 11
144.2549090980722
 21
-120.0175169222867
 31
0.0
  0
LINE
  5
676
330
666
100
AcDbEntity
  8
0
100
AcDbLine
 10
144.3169763711445
 20
-119.7675169222867
 30
0.0
 11
144.3794763711445
 21
-120.0175169222867
 31
0.0
  0
LINE
  5
677
330
666
100
AcDbEntity
  8
0
100
AcDbLine
 10
144.4424090980722
 20
-119.7675169222867
 30
0.0
 11
144.5049090980722
 21
-120.0175169222867
 31
0.0
  0
LINE
  5
678
330
666
100
AcDbEntity
  8
0
100
AcDbLine
 10
144.5669763711445
 20
-119.7675169222867
 30
0.0
 11
144.6294763711445
 21
-120.0175169222867
 31
0.0
  0
LINE
  5
679
330
666
100
AcDbEntity
  8
0
100
AcDbLine
 10
144.6924090980722
 20
-119.7675169222867
 30
0.0
 11
144.7549090980722
 21
-120.0175169222867
 31
0.0
  0
LINE
  5
67A
330
666
100
AcDbEntity
  8
0
100
AcDbLine
 10
144.8169763711445
 20
-119.7675169222867
 30
0.0
 11
144.8794763711446
 21
-120.0175169222867
 31
0.0
  0
LINE
  5
67B
330
666
100
AcDbEntity
  8
0
100
AcDbLine
 10
144.9424090980722
 20
-119.7675169222867
 30
0.0
 11
145.0049090980722
 21
-120.0175169222867
 31
0.0
  0
LINE
  5
67C
330
666
100
AcDbEntity
  8
0
100
AcDbLine
 10
145.004901122579
 20
-119.7050169222867
 30
0.0
 11
144.9424090980722
 21
-119.7675169222867
 31
0.0
  0
LINE
  5
67D
330
666
100
AcDbEntity
  8
0
100
AcDbLine
 10
144.1140443252082
 20
-119.8122083847268
 30
0.0
 11
144.0657909714501
 21
-119.7643164367935
 31
0.0
  0
LINE
  5
67E
330
666
100
AcDbEntity
  8
0
100
AcDbLine
 10
144.1924090980722
 20
-119.7675169222867
 30
0.0
 11
144.1140443252082
 21
-119.8122083847268
 31
0.0
  0
LINE
  5
67F
330
666
100
AcDbEntity
  8
0
100
AcDbLine
 10
144.3169763711445
 20
-119.7675169222867
 30
0.0
 11
144.4424090980722
 21
-119.7675169222867
 31
0.0
  0
LINE
  5
680
330
666
100
AcDbEntity
  8
0
100
AcDbLine
 10
144.5669763711445
 20
-119.7675169222867
 30
0.0
 11
144.6924090980722
 21
-119.7675169222867
 31
0.0
  0
LINE
  5
681
330
666
100
AcDbEntity
  8
0
100
AcDbLine
 10
144.8169763711445
 20
-119.7675169222867
 30
0.0
 11
144.9424090980722
 21
-119.7675169222867
 31
0.0
  0
LINE
  5
682
330
666
100
AcDbEntity
  8
0
100
AcDbLine
 10
144.754901122579
 20
-119.7050169222867
 30
0.0
 11
144.6924090980722
 21
-119.7675169222867
 31
0.0
  0
LINE
  5
683
330
666
100
AcDbEntity
  8
0
100
AcDbLine
 10
144.8169763711445
 20
-119.7675169222867
 30
0.0
 11
144.754901122579
 21
-119.7050169222867
 31
0.0
  0
LINE
  5
684
330
666
100
AcDbEntity
  8
0
100
AcDbLine
 10
144.504901122579
 20
-119.7050169222867
 30
0.0
 11
144.4424090980722
 21
-119.7675169222867
 31
0.0
  0
LINE
  5
685
330
666
100
AcDbEntity
  8
0
100
AcDbLine
 10
144.5669763711445
 20
-119.7675169222867
 30
0.0
 11
144.504901122579
 21
-119.7050169222867
 31
0.0
  0
LINE
  5
686
330
666
100
AcDbEntity
  8
0
100
AcDbLine
 10
144.254901122579
 20
-119.7050169222867
 30
0.0
 11
144.1924090980722
 21
-119.7675169222867
 31
0.0
  0
LINE
  5
687
330
666
100
AcDbEntity
  8
0
100
AcDbLine
 10
144.3169763711445
 20
-119.7675169222867
 30
0.0
 11
144.254901122579
 21
-119.7050169222867
 31
0.0
  0
LINE
  5
688
330
666
100
AcDbEntity
  8
0
100
AcDbLine
 10
145.708026122579
 20
-119.7050169222867
 30
0.0
 11
145.6455340980722
 21
-119.7675169222867
 31
0.0
  0
LINE
  5
689
330
666
100
AcDbEntity
  8
0
100
AcDbLine
 10
145.0669763711446
 20
-119.7675169222867
 30
0.0
 11
145.1924090980722
 21
-119.7675169222867
 31
0.0
  0
LINE
  5
68A
330
666
100
AcDbEntity
  8
0
100
AcDbLine
 10
145.3169763711446
 20
-119.7675169222867
 30
0.0
 11
145.4424090980722
 21
-119.7675169222867
 31
0.0
  0
LINE
  5
68B
330
666
100
AcDbEntity
  8
0
100
AcDbLine
 10
145.5669763711446
 20
-119.7675169222867
 30
0.0
 11
145.6455340980722
 21
-119.7675169222867
 31
0.0
  0
LINE
  5
68C
330
666
100
AcDbEntity
  8
0
100
AcDbLine
 10
145.5669763711446
 20
-119.7675169222867
 30
0.0
 11
145.504901122579
 21
-119.7050169222867
 31
0.0
  0
LINE
  5
68D
330
666
100
AcDbEntity
  8
0
100
AcDbLine
 10
145.504901122579
 20
-119.7050169222867
 30
0.0
 11
145.4424090980722
 21
-119.7675169222867
 31
0.0
  0
LINE
  5
68E
330
666
100
AcDbEntity
  8
0
100
AcDbLine
 10
145.254901122579
 20
-119.7050169222867
 30
0.0
 11
145.1924090980722
 21
-119.7675169222867
 31
0.0
  0
LINE
  5
68F
330
666
100
AcDbEntity
  8
0
100
AcDbLine
 10
145.3169763711446
 20
-119.7675169222867
 30
0.0
 11
145.254901122579
 21
-119.7050169222867
 31
0.0
  0
LINE
  5
690
330
666
100
AcDbEntity
  8
0
100
AcDbLine
 10
145.0669763711446
 20
-119.7675169222867
 30
0.0
 11
145.004901122579
 21
-119.7050169222867
 31
0.0
  0
LINE
  5
691
330
666
100
AcDbEntity
  8
0
100
AcDbLine
 10
146.8638513711446
 20
-119.5175169222866
 30
0.0
 11
146.5982263711446
 21
-119.5175169222866
 31
0.0
  0
LINE
  5
692
330
666
100
AcDbEntity
  8
0
100
AcDbLine
 10
144.8794763711446
 20
-120.0175169222867
 30
0.0
 11
145.0049090980722
 21
-120.0175169222867
 31
0.0
  0
LINE
  5
693
330
666
100
AcDbEntity
  8
0
100
AcDbLine
 10
144.0896825298113
 20
-119.9441957028499
 30
0.0
 11
143.9732263711445
 21
-119.8925169222867
 31
0.0
  0
LINE
  5
694
330
666
100
AcDbEntity
  8
0
100
AcDbLine
 10
144.0384595544792
 20
-119.8553144107971
 30
0.0
 11
143.9732263711445
 21
-119.8925169222867
 31
0.0
  0
LINE
  5
695
330
666
100
AcDbEntity
  8
0
100
AcDbLine
 10
144.0384595544792
 20
-119.8553144107971
 30
0.0
 11
144.0896825298113
 21
-119.9441957028499
 31
0.0
  0
LINE
  5
696
330
666
100
AcDbEntity
  8
0
100
AcDbLine
 10
144.1126659714501
 20
-120.0207174077798
 30
0.0
 11
144.0896825298113
 21
-119.9441957028499
 31
0.0
  0
LINE
  5
697
330
666
100
AcDbEntity
  8
0
100
AcDbLine
 10
144.1588428361227
 20
-119.9748863965364
 30
0.0
 11
144.1126659714501
 21
-120.0207174077798
 31
0.0
  0
LINE
  5
698
330
666
100
AcDbEntity
  8
0
100
AcDbLine
 10
144.2549090980722
 20
-120.0175169222867
 30
0.0
 11
144.1588428361227
 21
-119.9748863965364
 31
0.0
  0
LINE
  5
699
330
666
100
AcDbEntity
  8
0
100
AcDbLine
 10
144.3794763711445
 20
-120.0175169222867
 30
0.0
 11
144.5049090980722
 21
-120.0175169222867
 31
0.0
  0
LINE
  5
69A
330
666
100
AcDbEntity
  8
0
100
AcDbLine
 10
144.6294763711445
 20
-120.0175169222867
 30
0.0
 11
144.7549090980722
 21
-120.0175169222867
 31
0.0
  0
LINE
  5
69B
330
666
100
AcDbEntity
  8
0
100
AcDbLine
 10
145.1294763711446
 20
-120.0175169222867
 30
0.0
 11
145.2549090980722
 21
-120.0175169222867
 31
0.0
  0
LINE
  5
69C
330
666
100
AcDbEntity
  8
0
100
AcDbLine
 10
145.3794763711446
 20
-120.0175169222867
 30
0.0
 11
145.5049090980722
 21
-120.0175169222867
 31
0.0
  0
LINE
  5
69D
330
666
100
AcDbEntity
  8
0
100
AcDbLine
 10
145.6294763711446
 20
-120.0175169222867
 30
0.0
 11
145.6455340980722
 21
-120.0175169222867
 31
0.0
  0
LINE
  5
69E
330
666
100
AcDbEntity
  8
0
100
AcDbLine
 10
146.8638513711446
 20
-119.8925169222867
 30
0.0
 11
146.5982263711446
 21
-119.8925169222867
 31
0.0
  0
LINE
  5
69F
330
666
100
AcDbEntity
  8
0
100
AcDbLine
 10
145.004901122579
 20
-119.7050169222867
 30
0.0
 11
145.067401122579
 21
-120.0800169222867
 31
0.0
  0
LINE
  5
6A0
330
666
100
AcDbEntity
  8
0
100
AcDbLine
 10
145.254901122579
 20
-119.7050169222867
 30
0.0
 11
145.317401122579
 21
-120.0800169222867
 31
0.0
  0
LINE
  5
6A1
330
666
100
AcDbEntity
  8
0
100
AcDbLine
 10
145.504901122579
 20
-119.7050169222867
 30
0.0
 11
145.567401122579
 21
-120.0800169222867
 31
0.0
  0
LINE
  5
6A2
330
666
100
AcDbEntity
  8
0
100
AcDbLine
 10
146.5982263711446
 20
-119.7050169222867
 30
0.0
 11
146.5982263711446
 21
-120.0800169222867
 31
0.0
  0
LINE
  5
6A3
330
666
100
AcDbEntity
  8
0
100
AcDbLine
 10
146.8638513711446
 20
-120.2675169222867
 30
0.0
 11
146.8638513711446
 21
-119.5175169222866
 31
0.0
  0
LINE
  5
6A4
330
666
100
AcDbEntity
  8
0
100
AcDbLine
 10
146.5982263711446
 20
-119.5175169222866
 30
0.0
 11
146.5982263711446
 21
-120.2675169222867
 31
0.0
  0
LINE
  5
6A5
330
666
100
AcDbEntity
  8
0
100
AcDbLine
 10
144.254901122579
 20
-119.7050169222867
 30
0.0
 11
144.317401122579
 21
-120.0800169222867
 31
0.0
  0
LINE
  5
6A6
330
666
100
AcDbEntity
  8
0
100
AcDbLine
 10
144.504901122579
 20
-119.7050169222867
 30
0.0
 11
144.567401122579
 21
-120.0800169222867
 31
0.0
  0
LINE
  5
6A7
330
666
100
AcDbEntity
  8
0
100
AcDbLine
 10
144.754901122579
 20
-119.7050169222867
 30
0.0
 11
144.817401122579
 21
-120.0800169222867
 31
0.0
  0
LINE
  5
6A8
330
666
100
AcDbEntity
  8
0
100
AcDbLine
 10
144.3794763711445
 20
-120.0175169222867
 30
0.0
 11
144.317401122579
 21
-120.0800169222867
 31
0.0
  0
LINE
  5
6A9
330
666
100
AcDbEntity
  8
0
100
AcDbLine
 10
144.317401122579
 20
-120.0800169222867
 30
0.0
 11
144.2549090980722
 21
-120.0175169222867
 31
0.0
  0
LINE
  5
6AA
330
666
100
AcDbEntity
  8
0
100
AcDbLine
 10
144.6294763711445
 20
-120.0175169222867
 30
0.0
 11
144.567401122579
 21
-120.0800169222867
 31
0.0
  0
LINE
  5
6AB
330
666
100
AcDbEntity
  8
0
100
AcDbLine
 10
144.567401122579
 20
-120.0800169222867
 30
0.0
 11
144.5049090980722
 21
-120.0175169222867
 31
0.0
  0
LINE
  5
6AC
330
666
100
AcDbEntity
  8
0
100
AcDbLine
 10
144.8794763711446
 20
-120.0175169222867
 30
0.0
 11
144.817401122579
 21
-120.0800169222867
 31
0.0
  0
LINE
  5
6AD
330
666
100
AcDbEntity
  8
0
100
AcDbLine
 10
144.817401122579
 20
-120.0800169222867
 30
0.0
 11
144.7549090980722
 21
-120.0175169222867
 31
0.0
  0
LINE
  5
6AE
330
666
100
AcDbEntity
  8
0
100
AcDbLine
 10
145.708026122579
 20
-120.0800169222867
 30
0.0
 11
145.6455340980722
 21
-120.0175169222867
 31
0.0
  0
LINE
  5
6AF
330
666
100
AcDbEntity
  8
0
100
AcDbLine
 10
145.1294763711446
 20
-120.0175169222867
 30
0.0
 11
145.067401122579
 21
-120.0800169222867
 31
0.0
  0
LINE
  5
6B0
330
666
100
AcDbEntity
  8
0
100
AcDbLine
 10
145.067401122579
 20
-120.0800169222867
 30
0.0
 11
145.0049090980722
 21
-120.0175169222867
 31
0.0
  0
LINE
  5
6B1
330
666
100
AcDbEntity
  8
0
100
AcDbLine
 10
145.3794763711446
 20
-120.0175169222867
 30
0.0
 11
145.317401122579
 21
-120.0800169222867
 31
0.0
  0
LINE
  5
6B2
330
666
100
AcDbEntity
  8
0
100
AcDbLine
 10
145.317401122579
 20
-120.0800169222867
 30
0.0
 11
145.2549090980722
 21
-120.0175169222867
 31
0.0
  0
LINE
  5
6B3
330
666
100
AcDbEntity
  8
0
100
AcDbLine
 10
145.567401122579
 20
-120.0800169222867
 30
0.0
 11
145.5049090980722
 21
-120.0175169222867
 31
0.0
  0
LINE
  5
6B4
330
666
100
AcDbEntity
  8
0
100
AcDbLine
 10
145.6294763711446
 20
-120.0175169222867
 30
0.0
 11
145.567401122579
 21
-120.0800169222867
 31
0.0
  0
ENDBLK
  5
668
330
666
100
AcDbEntity
  8
0
100
AcDbBlockEnd
  0
ENDSEC
  0
SECTION
  2
ENTITIES
  0
LEADER
  5
32
330
2
100
AcDbEntity
  8
0
  6
Continuous
100
AcDbLeader
  3
STANDARD
 73
     0
 40
0.1938949522510232
 41
3.564674283765348
 76
     2
 10
152.0471164357475
 20
-116.0859854742803
 30
0.0
 10
157.7325144665361
 20
-116.0859854742803
 30
0.0
340
33
213
0.0
223
-0.09375
233
0.0
1001
ACAD
1000
DSTYLE
1002
{
1070
   147
1040
0.09
1070
    77
1070
     0
1002
}
  0
MTEXT
  5
33
102
{ACAD_REACTORS
330
32
102
}
330
2
100
AcDbEntity
  8
0
  6
Continuous
100
AcDbMText
 10
157.8225144665361
 20
-115.9922354742803
 30
0.0
 40
0.1875
 41
4.553501275510203
 71
     1
 72
     1
  1
ALUMINUM HEAD FLASHING
 73
     1
 44
1.0
1001
ACAD
1000
MTEXTBEGIN
1070
    73
1070
     1
1070
    44
1040
1.0
1070
    74
1070
     0
1000
MTEXTEND
  0
LEADER
  5
34
330
2
100
AcDbEntity
  8
0
  6
Continuous
100
AcDbLeader
  3
STANDARD
 73
     0
 40
0.1940228512960437
 41
1.94419338335607
 76
     2
 10
153.3071168694215
 20
-116.4364722333813
 30
0.0
 10
157.7325144665361
 20
-116.4364722333813
 30
0.0
340
35
213
0.0
223
-0.09375
233
0.0
1001
ACAD
1000
DSTYLE
1002
{
1070
   147
1040
0.09
1070
    77
1070
     0
1002
}
  0
MTEXT
  5
35
102
{ACAD_REACTORS
330
34
102
}
330
2
100
AcDbEntity
  8
0
  6
Continuous
100
AcDbMText
 10
157.8225144665361
 20
-116.3427222333813
 30
0.0
 40
0.1875
 41
4.553501275510203
 71
     1
 72
     1
  1
SILICONE SEAL
 73
     1
 44
1.0
1001
ACAD
1000
MTEXTBEGIN
1070
    73
1070
     1
1070
    44
1040
1.0
1070
    74
1070
     0
1000
MTEXTEND
  0
LEADER
  5
36
330
2
100
AcDbEntity
  8
0
  6
Continuous
100
AcDbLeader
  3
STANDARD
 73
     0
 40
0.1940228512960437
 41
1.698883015006821
 76
     2
 10
153.35756558996
 20
-116.8100786250975
 30
0.0
 10
157.7325144665361
 20
-116.8100786250975
 30
0.0
340
37
213
0.0
223
-0.09375
233
0.0
1001
ACAD
1000
DSTYLE
1002
{
1070
   147
1040
0.09
1070
    77
1070
     0
1002
}
  0
MTEXT
  5
37
102
{ACAD_REACTORS
330
36
102
}
330
2
100
AcDbEntity
  8
0
  6
Continuous
100
AcDbMText
 10
157.8225144665361
 20
-116.7163286250975
 30
0.0
 40
0.1875
 41
4.553501275510203
 71
     1
 72
     1
  1
BACKER ROD
 73
     1
 44
1.0
1001
ACAD
1000
MTEXTBEGIN
1070
    73
1070
     1
1070
    44
1040
1.0
1070
    74
1070
     0
1000
MTEXTEND
  0
LEADER
  5
38
330
2
100
AcDbEntity
  8
0
  6
Continuous
100
AcDbLeader
  3
STANDARD
 73
     0
 40
0.1938949522510232
 41
3.511596180081855
 76
     2
 10
155.3694191872026
 20
-117.0751648423648
 30
0.0
 10
157.7325144665361
 20
-117.0751648423648
 30
0.0
340
39
213
0.0
223
-0.09375
233
0.0
1001
ACAD
1000
DSTYLE
1002
{
1070
   147
1040
0.09
1070
    77
1070
     0
1002
}
  0
MTEXT
  5
39
102
{ACAD_REACTORS
330
38
102
}
330
2
100
AcDbEntity
  8
0
  6
Continuous
100
AcDbMText
 10
157.8225144665361
 20
-116.9814148423648
 30
0.0
 40
0.1875
 41
4.553501275510203
 71
     1
 72
     1
  1
ALUMINUM PRESSURE CAP
 73
     1
 44
1.0
1001
ACAD
1000
MTEXTBEGIN
1070
    73
1070
     1
1070
    44
1040
1.0
1070
    74
1070
     0
1000
MTEXTEND
  0
LEADER
  5
3A
330
2
100
AcDbEntity
  8
0
  6
Continuous
100
AcDbLeader
  3
STANDARD
 73
     0
 40
0.1938949522510232
 41
2.783850613915415
 76
     2
 10
155.4082807550244
 20
-117.3447907474888
 30
0.0
 10
157.7325144665361
 20
-117.3447907474888
 30
0.0
340
3B
213
0.0
223
-0.09375
233
0.0
1001
ACAD
1000
DSTYLE
1002
{
1070
   147
1040
0.09
1070
    77
1070
     0
1002
}
  0
MTEXT
  5
3B
102
{ACAD_REACTORS
330
3A
102
}
330
2
100
AcDbEntity
  8
0
  6
Continuous
100
AcDbMText
 10
157.8225144665361
 20
-117.2510407474888
 30
0.0
 40
0.1875
 41
4.553501275510203
 71
     1
 72
     1
  1
ALUMINUM SNAP CAP
 73
     1
 44
1.0
1001
ACAD
1000
MTEXTBEGIN
1070
    73
1070
     1
1070
    44
1040
1.0
1070
    74
1070
     0
1000
MTEXTEND
  0
LEADER
  5
3C
330
2
100
AcDbEntity
  8
0
  6
Continuous
100
AcDbLeader
  3
STANDARD
 73
     0
 40
0.1938949522510232
 41
1.119500341064119
 76
     2
 10
155.8068620647912
 20
-117.8282872701223
 30
0.0
 10
157.7325144665361
 20
-117.8282872701223
 30
0.0
340
3D
213
0.0
223
-0.09375
233
0.0
1001
ACAD
1000
DSTYLE
1002
{
1070
   147
1040
0.09
1070
    77
1070
     0
1002
}
  0
MTEXT
  5
3D
102
{ACAD_REACTORS
330
3C
102
}
330
2
100
AcDbEntity
  8
0
  6
Continuous
100
AcDbMText
 10
157.8225144665361
 20
-117.7345372701223
 30
0.0
 40
0.1875
 41
4.553501275510203
 71
     1
 72
     1
  1
GLAZING
 73
     1
 44
1.0
1001
ACAD
1000
MTEXTBEGIN
1070
    73
1070
     1
1070
    44
1040
1.0
1070
    74
1070
     0
1000
MTEXTEND
  0
LEADER
  5
3E
330
2
100
AcDbEntity
  8
0
  6
Continuous
100
AcDbLeader
  3
STANDARD
 73
     0
 40
0.245949863574352
 41
2.651730900409276
 76
     2
 10
154.2018632502777
 20
-118.2377083921054
 30
0.0
 10
157.7325144665361
 20
-118.2377083921054
 30
0.0
340
3F
213
0.0
223
-0.09375
233
0.0
1001
ACAD
1000
DSTYLE
1002
{
1070
   147
1040
0.09
1070
    77
1070
     0
1002
}
  0
MTEXT
  5
3F
102
{ACAD_REACTORS
330
3E
102
}
330
2
100
AcDbEntity
  8
0
  6
Continuous
100
AcDbMText
 10
157.8225144665361
 20
-118.1439583921054
 30
0.0
 40
0.1875
 41
4.553501275510203
 71
     1
 72
     1
  1
{\fArial|b0|i0|c0|p34;1/4"-20 BOLT (8" O.C.)}
 73
     1
 44
1.0
1001
ACAD
1000
MTEXTBEGIN
1070
    73
1070
     1
1070
    44
1040
1.0
1070
    74
1070
     0
1000
MTEXTEND
  0
LEADER
  5
40
330
2
100
AcDbEntity
  8
0
  6
Continuous
100
AcDbLeader
  3
STANDARD
 73
     0
 40
0.1940228512960437
 41
1.606795702592087
 76
     2
 10
154.2018632502777
 20
-118.5386999033936
 30
0.0
 10
157.7325144665361
 20
-118.5386999033936
 30
0.0
340
41
213
0.0
223
-0.09375
233
0.0
1001
ACAD
1000
DSTYLE
1002
{
1070
   147
1040
0.09
1070
    77
1070
     0
1002
}
  0
MTEXT
  5
41
102
{ACAD_REACTORS
330
40
102
}
330
2
100
AcDbEntity
  8
0
  6
Continuous
100
AcDbMText
 10
157.8225144665361
 20
-118.4449499033936
 30
0.0
 40
0.1875
 41
4.553501275510203
 71
     1
 72
     1
  1
WORKPOINT
 73
     1
 44
1.0
1001
ACAD
1000
MTEXTBEGIN
1070
    73
1070
     1
1070
    44
1040
1.0
1070
    74
1070
     0
1000
MTEXTEND
  0
LEADER
  5
42
330
2
100
AcDbEntity
  8
0
  6
Continuous
100
AcDbLeader
  3
STANDARD
 73
     0
 40
0.1938949522510232
 41
3.088761937244202
 76
     2
 10
154.9512613711483
 20
-118.8287960919497
 30
0.0
 10
157.7325144665361
 20
-118.8287960919497
 30
0.0
340
43
213
0.0
223
-0.09375
233
0.0
1001
ACAD
1000
DSTYLE
1002
{
1070
   147
1040
0.09
1070
    77
1070
     0
1002
}
  0
MTEXT
  5
43
102
{ACAD_REACTORS
330
42
102
}
330
2
100
AcDbEntity
  8
0
  6
Continuous
100
AcDbMText
 10
157.8225144665361
 20
-118.7350460919497
 30
0.0
 40
0.1875
 41
4.553501275510203
 71
     1
 72
     1
  1
EPDM GLAZING GASKET
 73
     1
 44
1.0
1001
ACAD
1000
MTEXTBEGIN
1070
    73
1070
     1
1070
    44
1040
1.0
1070
    74
1070
     0
1000
MTEXTEND
  0
LEADER
  5
45
330
2
100
AcDbEntity
  8
0
  6
Continuous
100
AcDbLeader
  3
STANDARD
 73
     0
 40
0.1940228512960437
 41
0.9433833560709413
 76
     2
 10
151.7748029113236
 20
-120.2742514651465
 30
0.0
 10
157.7325144665361
 20
-120.2742514651465
 30
0.0
340
46
213
0.0
223
-0.09375
233
0.0
1001
ACAD
1000
DSTYLE
1002
{
1070
   147
1040
0.09
1070
    77
1070
     0
1002
}
  0
MTEXT
  5
46
102
{ACAD_REACTORS
330
45
102
}
330
2
100
AcDbEntity
  8
0
  6
Continuous
100
AcDbMText
 10
157.8225144665361
 20
-120.1805014651465
 30
0.0
 40
0.1875
 41
4.553501275510203
 71
     1
 72
     1
  1
ANCHOR
 73
     1
 44
1.0
1001
ACAD
1000
MTEXTBEGIN
1070
    73
1070
     1
1070
    44
1040
1.0
1070
    74
1070
     0
1000
MTEXTEND
  0
LEADER
  5
47
330
2
100
AcDbEntity
  8
0
  6
Continuous
100
AcDbLeader
  3
STANDARD
 73
     0
 40
0.1938949522510232
 41
3.889026261937243
 76
     2
 10
154.7849573438879
 20
-119.7144812145495
 30
0.0
 10
157.7325144665361
 20
-119.7144812145495
 30
0.0
340
48
213
0.0
223
-0.09375
233
0.0
1001
ACAD
1000
DSTYLE
1002
{
1070
   147
1040
0.09
1070
    77
1070
     0
1002
}
  0
MTEXT
  5
48
102
{ACAD_REACTORS
330
47
102
}
330
2
100
AcDbEntity
  8
0
  6
Continuous
100
AcDbMText
 10
157.8225144665361
 20
-119.6207312145495
 30
0.0
 40
0.1875
 41
4.553501275510203
 71
     1
 72
     1
  1
INTER-SKY PURLIN ASSEMBLY
 73
     1
 44
1.0
1001
ACAD
1000
MTEXTBEGIN
1070
    73
1070
     1
1070
    44
1040
1.0
1070
    74
1070
     0
1000
MTEXTEND
  0
LEADER
  5
49
330
2
100
AcDbEntity
  8
0
  6
Continuous
100
AcDbLeader
  3
STANDARD
 73
     0
 40
0.1906974761255116
 41
2.286323328785811
 76
     2
 10
151.572285434548
 20
-121.5561415111125
 30
0.0
 10
157.7325144665361
 20
-121.5561415111125
 30
0.0
340
4A
213
0.0
223
-0.09375
233
0.0
1001
ACAD
1000
DSTYLE
1002
{
1070
   147
1040
0.09
1070
    77
1070
     0
1002
}
  0
MTEXT
  5
4A
102
{ACAD_REACTORS
330
49
102
}
330
2
100
AcDbEntity
  8
0
  6
Continuous
100
AcDbMText
 10
157.8225144665361
 20
-121.4623915111125
 30
0.0
 40
0.1875
 41
4.553501275510203
 71
     1
 72
     1
  1
ALUMINUM PLATE
 73
     1
 44
1.0
1001
ACAD
1000
MTEXTBEGIN
1070
    73
1070
     1
1070
    44
1040
1.0
1070
    74
1070
     0
1000
MTEXTEND
  0
LEADER
  5
4B
330
2
100
AcDbEntity
  8
0
  6
Continuous
100
AcDbLeader
  3
STANDARD
 73
     0
 40
0.1938949522510232
 41
2.489938608458389
 76
     2
 10
155.8981878741386
 20
-122.2956312188609
 30
0.0
 10
157.7325144665361
 20
-122.2956312188609
 30
0.0
340
4C
213
0.0
223
-0.09375
233
0.0
1001
ACAD
1000
DSTYLE
1002
{
1070
   147
1040
0.09
1070
    77
1070
     0
1002
}
  0
MTEXT
  5
4C
102
{ACAD_REACTORS
330
4B
102
}
330
2
100
AcDbEntity
  8
0
  6
Continuous
100
AcDbMText
 10
157.8225144665361
 20
-122.2018812188609
 30
0.0
 40
0.1875
 41
4.553501275510203
 71
     1
 72
     1
  1
INTER-SKY RAFTER
 73
     1
 44
1.0
1001
ACAD
1000
MTEXTBEGIN
1070
    73
1070
     1
1070
    44
1040
1.0
1070
    74
1070
     0
1000
MTEXTEND
  0
LINE
  5
4D
330
2
100
AcDbEntity
  8
Glazing
  6
Continuous
100
AcDbLine
 10
154.8447880081511
 20
-117.6281893428855
 30
0.0
 11
156.6133289403465
 21
-118.070447777334
 31
0.0
  0
LINE
  5
4F
330
2
100
AcDbEntity
  8
Glazing
  6
Continuous
100
AcDbLine
 10
154.7234883927534
 20
-118.1132526411305
 30
0.0
 11
156.6133289403465
 21
-118.5858444294916
 31
0.0
  0
LINE
  5
50
330
2
100
AcDbEntity
  8
Glazing
  6
Continuous
100
AcDbLine
 10
154.6628385850546
 20
-118.3557842902531
 30
0.0
 11
156.6133289403465
 21
-118.8435427555703
 31
0.0
  0
LINE
  5
51
330
2
100
AcDbEntity
  8
Glazing
  6
Continuous
100
AcDbLine
 10
154.6482826312069
 20
-118.4139918860425
 30
0.0
 11
156.6133289403465
 21
-118.9053903538292
 31
0.0
  0
LINE
  5
52
330
2
100
AcDbEntity
  8
Glazing
  6
Continuous
100
AcDbLine
 10
154.5876328235081
 20
-118.656523535165
 30
0.0
 11
156.6133289403465
 21
-119.163088679908
 31
0.0
  0
LINE
  5
53
330
2
100
AcDbEntity
  8
Glazing
  6
Continuous
100
AcDbLine
 10
154.9054378158499
 20
-117.385657693763
 30
0.0
 11
156.6133289403465
 21
-117.8127494512553
 31
0.0
  0
LINE
  5
54
330
2
100
AcDbEntity
  8
0
  6
Continuous
100
AcDbLine
 10
155.3499653123067
 20
-117.4607837390116
 30
0.0
 11
156.6133289403465
 21
-117.7767126553884
 31
0.0
  0
LINE
  5
55
330
2
100
AcDbEntity
  8
0
  6
Continuous
100
AcDbLine
 10
155.3572465033369
 20
-117.4316670882729
 30
0.0
 11
156.6133289403465
 21
-117.7457751996643
 31
0.0
  0
LINE
  5
56
330
2
100
AcDbEntity
  8
0
  6
Continuous
100
AcDbLine
 10
155.3645276943672
 20
-117.4025504375341
 30
0.0
 11
156.6133289403465
 21
-117.7148377439403
 31
0.0
  0
LINE
  5
57
330
2
100
AcDbEntity
  8
0
  6
Continuous
100
AcDbLine
 10
155.4132912013992
 20
-117.3900363661317
 30
0.0
 11
156.6133289403465
 21
-117.690129398781
 31
0.0
  0
LINE
  5
58
330
2
100
AcDbEntity
  8
0
  6
Continuous
100
AcDbLine
 10
155.4982792317083
 20
-116.9481821721929
 30
0.0
 11
156.6133289403465
 21
-117.2270222767662
 31
0.0
  0
LINE
  5
59
330
2
100
AcDbEntity
  8
0
  6
Continuous
100
AcDbLine
 10
155.0654149307231
 20
-118.8069398013015
 30
0.0
 11
156.6133289403465
 21
-119.1940261356322
 31
0.0
  0
LINE
  5
5A
330
2
100
AcDbEntity
  8
0
  6
Continuous
100
AcDbLine
 10
155.0581337396929
 20
-118.8360564520403
 30
0.0
 11
156.6133289403465
 21
-119.2249635913562
 31
0.0
  0
LINE
  5
5B
330
2
100
AcDbEntity
  8
0
  6
Continuous
100
AcDbLine
 10
156.6133289403465
 20
-119.2868385028045
 30
0.0
 11
151.6357745183653
 21
-118.0421031472499
 31
0.0
  0
LINE
  5
5C
330
2
100
AcDbEntity
  8
0
  6
Continuous
100
AcDbLine
 10
155.0508525486627
 20
-118.865173102779
 30
0.0
 11
156.6133289403465
 21
-119.2559010470802
 31
0.0
  0
LINE
  5
5D
330
2
100
AcDbEntity
  8
0
  6
Continuous
100
AcDbLine
 10
156.6133289403465
 20
-123.0234642309467
 30
0.0
 11
151.6357745183653
 21
-121.7787288753922
 31
0.0
  0
LINE
  5
5E
330
2
100
AcDbEntity
  8
0
  6
Continuous
100
AcDbLine
 10
156.6133289403465
 20
-123.4100117200648
 30
0.0
 11
151.6357745183652
 21
-122.1652763645104
 31
0.0
  0
HATCH
  5
5F
330
2
100
AcDbEntity
  8
0
  6
Continuous
100
AcDbHatch
 10
0.0
 20
0.0
 30
0.0
210
0.0
220
0.0
230
1.0
  2
AR-CONC
 70
     0
 71
     0
 91
        1
 92
        7
 72
     1
 73
     1
 93
      163
 10
151.3857745183653
 20
-111.6935609839289
 42
0.0
 10
150.0535267468621
 20
-111.6935609839288
 42
0.0
 10
150.0535267468622
 20
-111.4435609839288
 42
0.0
 10
149.7180222898685
 20
-111.9435609839289
 42
0.0
 10
149.7180222898685
 20
-111.6935609839288
 42
0.0
 10
148.3857745183653
 20
-111.6935609839288
 42
0.0
 10
148.3857745183653
 20
-114.867303477081
 42
0.0
 10
148.6357745183653
 20
-114.867303477081
 42
0.0
 10
148.1357745183653
 20
-115.2028079340746
 42
0.0
 10
148.3857745183653
 20
-115.2028079340746
 42
0.0
 10
148.3857745183653
 20
-120.6651842017591
 42
0.0
 10
148.1357745183653
 20
-120.6651842017591
 42
0.0
 10
148.6357745183653
 20
-121.0006886587527
 42
0.0
 10
148.3857745183653
 20
-121.0006886587527
 42
0.0
 10
148.3857745183653
 20
-124.1744311519048
 42
0.0
 10
149.7180222898685
 20
-124.1744311519048
 42
0.0
 10
149.7180222898685
 20
-124.4244311519048
 42
0.0
 10
150.0535267468622
 20
-123.9244311519048
 42
0.0
 10
150.0535267468621
 20
-124.1744311519048
 42
0.0
 10
151.3857745183653
 20
-124.1744311519048
 42
0.0
 10
151.3857745183653
 20
-120.1572578234181
 42
0.0
 10
151.3727460094869
 20
-120.1346917840937
 42
0.0
 10
151.3438406701374
 20
-120.1346917840937
 42
0.0
 10
151.3224883398121
 20
-120.171675105077
 42
0.0
 10
151.3011360094869
 20
-120.1346917840937
 42
0.0
 10
151.2722306701374
 20
-120.1346917840937
 42
0.0
 10
151.2508783398121
 20
-120.171675105077
 42
0.0
 10
151.2295260094868
 20
-120.1346917840937
 42
0.0
 10
151.2006206701373
 20
-120.1346917840937
 42
0.0
 10
151.1792683398121
 20
-120.171675105077
 42
0.0
 10
151.1579160094868
 20
-120.1346917840937
 42
0.0
 10
151.1290106701373
 20
-120.1346917840937
 42
0.0
 10
151.1076583398121
 20
-120.171675105077
 42
0.0
 10
151.0863060094868
 20
-120.1346917840937
 42
0.0
 10
151.0574006701374
 20
-120.1346917840937
 42
0.0
 10
151.0360483398121
 20
-120.171675105077
 42
0.0
 10
151.0146960094869
 20
-120.1346917840937
 42
0.0
 10
150.9857906701373
 20
-120.1346917840937
 42
0.0
 10
150.9644383398121
 20
-120.171675105077
 42
0.0
 10
150.9430860094868
 20
-120.1346917840937
 42
0.0
 10
150.9141806701374
 20
-120.1346917840937
 42
0.0
 10
150.8928283398121
 20
-120.171675105077
 42
0.0
 10
150.8714760094868
 20
-120.1346917840937
 42
0.0
 10
150.8425706701374
 20
-120.1346917840937
 42
0.0
 10
150.8212183398121
 20
-120.171675105077
 42
0.0
 10
150.7998660094868
 20
-120.1346917840937
 42
0.0
 10
150.7709606701374
 20
-120.1346917840937
 42
0.0
 10
150.7496083398121
 20
-120.171675105077
 42
0.0
 10
150.7282560094868
 20
-120.1346917840937
 42
0.0
 10
150.6993506701374
 20
-120.1346917840937
 42
0.0
 10
150.6779983398121
 20
-120.171675105077
 42
0.0
 10
150.6566460094869
 20
-120.1346917840937
 42
0.0
 10
150.6277406701374
 20
-120.1346917840937
 42
0.0
 10
150.6063883398121
 20
-120.171675105077
 42
0.0
 10
150.5850360094868
 20
-120.1346917840937
 42
0.0
 10
150.5561306701373
 20
-120.1346917840937
 42
0.0
 10
150.5347783398121
 20
-120.171675105077
 42
0.0
 10
150.5134260094868
 20
-120.1346917840937
 42
0.0
 10
150.4845206701373
 20
-120.1346917840937
 42
0.0
 10
150.4631683398121
 20
-120.171675105077
 42
0.0
 10
150.4418160094868
 20
-120.1346917840937
 42
0.0
 10
150.4129106701373
 20
-120.1346917840937
 42
0.0
 10
150.3915583398121
 20
-120.171675105077
 42
0.0
 10
150.3702060094868
 20
-120.1346917840937
 42
0.0
 10
150.3413006701373
 20
-120.1346917840937
 42
0.0
 10
150.3199483398121
 20
-120.171675105077
 42
0.0
 10
150.2985960094868
 20
-120.1346917840937
 42
0.0
 10
150.2696906701373
 20
-120.1346917840937
 42
0.0
 10
150.2483383398121
 20
-120.171675105077
 42
0.0
 10
150.2269860094868
 20
-120.1346917840937
 42
0.0
 10
150.1980806701373
 20
-120.1346917840937
 42
0.0
 10
150.1767283398121
 20
-120.171675105077
 42
0.0
 10
150.1553760094869
 20
-120.1346917840937
 42
0.0
 10
150.1264706701373
 20
-120.1346917840937
 42
0.0
 10
150.1051183398121
 20
-120.171675105077
 42
0.0
 10
150.0837660094868
 20
-120.1346917840937
 42
0.0
 10
150.0548606701373
 20
-120.1346917840937
 42
0.0
 10
150.0335083398121
 20
-120.171675105077
 42
0.0
 10
150.0121560094868
 20
-120.1346917840937
 42
0.0
 10
149.9832506701373
 20
-120.1346917840937
 42
0.0
 10
149.9618983398121
 20
-120.171675105077
 42
0.0
 10
149.9405460094869
 20
-120.1346917840937
 42
0.0
 10
149.9116406701373
 20
-120.1346917840937
 42
0.0
 10
149.8903303661904
 20
-120.1716023132545
 42
0.0
 10
149.8691925048734
 20
-120.13499046349
 42
0.0
 10
149.8402871655239
 20
-120.13499046349
 42
0.0
 10
149.8189348351986
 20
-120.1719737844734
 42
0.0
 10
149.7975825048734
 20
-120.13499046349
 42
0.0
 10
149.7760320124769
 20
-120.1260639572744
 42
0.0
 10
149.7634138655631
 20
-120.1434780964623
 42
0.0
 10
149.7396269707411
 20
-120.1022779860763
 42
0.0
 10
149.7377990118097
 20
-120.1015208206963
 42
-0.6681786382274984
 10
149.7377990118097
 20
-120.0437783499042
 42
0.0
 10
149.7711428585299
 20
-120.0299668763876
 42
0.0
 10
149.7889931340119
 20
-120.0064438822446
 42
0.0
 10
149.8054671773439
 20
-120.0225073511084
 42
0.0
 10
149.8330991672434
 20
-120.0100383854567
 42
0.0
 10
149.8544514975686
 20
-119.9730550644733
 42
0.0
 10
149.8758038278939
 20
-120.0100383854567
 42
0.0
 10
149.9047091672434
 20
-120.0100383854567
 42
0.0
 10
149.9260194711904
 20
-119.9731278562959
 42
0.0
 10
149.9471573325074
 20
-120.0097397060603
 42
0.0
 10
149.9760626718568
 20
-120.0097397060603
 42
0.0
 10
149.9974150021821
 20
-119.972756385077
 42
0.0
 10
150.0187673325073
 20
-120.0097397060603
 42
0.0
 10
150.0476726718569
 20
-120.0097397060603
 42
0.0
 10
150.0690250021821
 20
-119.972756385077
 42
0.0
 10
150.0903773325074
 20
-120.0097397060603
 42
0.0
 10
150.1192826718569
 20
-120.0097397060603
 42
0.0
 10
150.1406350021821
 20
-119.972756385077
 42
0.0
 10
150.1619873325074
 20
-120.0097397060603
 42
0.0
 10
150.1908926718568
 20
-120.0097397060603
 42
0.0
 10
150.2122450021821
 20
-119.972756385077
 42
0.0
 10
150.2335973325074
 20
-120.0097397060603
 42
0.0
 10
150.2625026718568
 20
-120.0097397060603
 42
0.0
 10
150.2838550021821
 20
-119.972756385077
 42
0.0
 10
150.3052073325074
 20
-120.0097397060603
 42
0.0
 10
150.3341126718569
 20
-120.0097397060603
 42
0.0
 10
150.3554650021821
 20
-119.972756385077
 42
0.0
 10
150.3768173325074
 20
-120.0097397060603
 42
0.0
 10
150.4057226718569
 20
-120.0097397060603
 42
0.0
 10
150.4270750021821
 20
-119.972756385077
 42
0.0
 10
150.4484273325074
 20
-120.0097397060603
 42
0.0
 10
150.4773326718568
 20
-120.0097397060603
 42
0.0
 10
150.4986850021821
 20
-119.972756385077
 42
0.0
 10
150.5200373325074
 20
-120.0097397060603
 42
0.0
 10
150.5489426718569
 20
-120.0097397060603
 42
0.0
 10
150.5702950021822
 20
-119.972756385077
 42
0.0
 10
150.5916473325074
 20
-120.0097397060603
 42
0.0
 10
150.6205526718569
 20
-120.0097397060603
 42
0.0
 10
150.6419050021822
 20
-119.972756385077
 42
0.0
 10
150.6632573325074
 20
-120.0097397060603
 42
0.0
 10
150.6921626718569
 20
-120.0097397060603
 42
0.0
 10
150.7135150021821
 20
-119.972756385077
 42
0.0
 10
150.7348673325074
 20
-120.0097397060603
 42
0.0
 10
150.7637726718569
 20
-120.0097397060603
 42
0.0
 10
150.7851250021822
 20
-119.972756385077
 42
0.0
 10
150.8064773325074
 20
-120.0097397060603
 42
0.0
 10
150.8353826718569
 20
-120.0097397060603
 42
0.0
 10
150.8567350021821
 20
-119.972756385077
 42
0.0
 10
150.8780873325074
 20
-120.0097397060603
 42
0.0
 10
150.9069926718569
 20
-120.0097397060603
 42
0.0
 10
150.9283450021822
 20
-119.972756385077
 42
0.0
 10
150.9496973325074
 20
-120.0097397060603
 42
0.0
 10
150.9786026718569
 20
-120.0097397060603
 42
0.0
 10
150.9999550021821
 20
-119.972756385077
 42
0.0
 10
151.0213073325074
 20
-120.0097397060603
 42
0.0
 10
151.0502126718569
 20
-120.0097397060603
 42
0.0
 10
151.0715650021822
 20
-119.972756385077
 42
0.0
 10
151.0929173325074
 20
-120.0097397060603
 42
0.0
 10
151.1218226718569
 20
-120.0097397060603
 42
0.0
 10
151.1431750021822
 20
-119.972756385077
 42
0.0
 10
151.1645273325074
 20
-120.0097397060603
 42
0.0
 10
151.1934326718569
 20
-120.0097397060603
 42
0.0
 10
151.2147850021821
 20
-119.972756385077
 42
0.0
 10
151.2361373325074
 20
-120.0097397060603
 42
0.0
 10
151.2650426718569
 20
-120.0097397060603
 42
0.0
 10
151.2863950021822
 20
-119.972756385077
 42
0.0
 10
151.3077473325074
 20
-120.0097397060603
 42
0.0
 10
151.3366526718569
 20
-120.0097397060603
 42
0.0
 10
151.3580050021822
 20
-119.972756385077
 42
0.0
 10
151.3793573325074
 20
-120.0097397060603
 42
0.0
 10
151.3857745183653
 20
-120.0097397060603
 42
0.0
 97
        0
 75
     0
 76
     1
 52
0.0
 41
0.5
 77
     0
 78
    13
 53
50.0
 43
-5.208480347943918
 44
-73.30478755857843
 45
3.586300913003767
 46
-0.3137606749129755
 79
     2
 49
0.375
 49
-4.125
 53
355.0
 43
-5.208480347943918
 44
-73.30478755857843
 45
-0.6937566680650001
 46
3.760960668500059
 79
     2
 49
0.3
 49
-3.299999999999999
 53
100.4514
 43
-4.909621947943918
 44
-73.33093425857843
 45
2.892546908570107
 46
3.447197710304767
 79
     2
 49
0.31870095
 49
-3.505710559999999
 53
46.1842
 43
-5.208480347943918
 44
-72.30478755857842
 45
5.336205243128222
 46
-0.8275950716450903
 79
     2
 49
0.5625
 49
-6.1875
 53
96.63559999999998
 43
-4.763796622943918
 44
-72.37375409357842
 45
4.673313527743516
 46
4.870589354502208
 79
     2
 49
0.47805144
 49
-5.258564999999999
 53
351.1842000000001
 43
-5.208480347943918
 44
-72.30478755857842
 45
4.673309725668135
 46
4.870593004626623
 79
     2
 49
0.45
 49
-4.95
 53
21.0
 43
-4.708480347943918
 44
-72.55478755857843
 45
2.984535260592308
 46
-2.013094453326694
 79
     2
 49
0.375
 49
-4.125
 53
326.0
 43
-4.708480347943918
 44
-72.55478755857843
 45
1.216576659607908
 46
3.625750225234265
 79
     2
 49
0.3
 49
-3.299999999999999
 53
71.45140000000001
 43
-4.459769182943919
 44
-72.72254558857842
 45
4.201113142907449
 46
1.612652483549761
 79
     2
 49
0.31870095
 49
-3.505710559999999
 53
37.5
 43
-5.208480347943918
 44
-73.30478755857843
 45
0.0607992765864534
 46
1.664469269156557
 79
     6
 49
0.0
 49
-3.259999999999999
 49
0.0
 49
-3.35
 49
0.0
 49
-3.3125
 53
7.499999999999999
 43
-5.208480347943918
 44
-73.30478755857843
 45
1.315347687210743
 46
1.972058559411801
 79
     6
 49
0.0
 49
-1.909999999999999
 49
0.0
 49
-3.185
 49
0.0
 49
-1.262499999999999
 53
327.5
 43
-6.323480347943918
 44
-73.30478755857843
 45
2.669112180862045
 46
-0.112774358671899
 79
     6
 49
0.0
 49
-1.25
 49
0.0
 49
-3.9
 49
0.0
 49
-5.174999999999999
 53
317.5
 43
-6.823480347943918
 44
-73.30478755857843
 45
2.915930846711931
 46
0.5005249116615883
 79
     6
 49
0.0
 49
-1.625
 49
0.0
 49
-2.589999999999999
 49
0.0
 49
-3.674999999999999
 47
0.033741021485901
 98
        1
 10
150.0266759447034
 20
-115.7275441987912
  0
LINE
  5
60
330
2
100
AcDbEntity
  8
0
  6
Continuous
100
AcDbLine
 10
148.3857745183653
 20
-121.0006886587527
 30
0.0
 11
148.3857745183653
 21
-124.1744311519048
 31
0.0
  0
HATCH
  5
61
330
2
100
AcDbEntity
  8
HIDDEN
  6
Continuous
100
AcDbHatch
 10
0.0
 20
0.0
 30
0.0
210
0.0
220
0.0
230
1.0
  2
ANSI31
 70
     0
 71
     1
 91
        1
 92
        7
 72
     0
 73
     1
 93
        4
 10
151.6357745183653
 20
-117.9795857315659
 10
151.3857745183653
 20
-117.9795857315659
 10
151.3857745183653
 20
-122.1652763645104
 10
151.6357745183652
 20
-122.1652763645104
 97
        4
330
7D
330
64
330
6E
330
68
 75
     0
 76
     1
 52
0.0
 41
1.0
 77
     0
 78
     1
 53
45.0
 43
-5.208480347943918
 44
-73.30478755857843
 45
-0.0883883476483184
 46
0.0883883476483185
 79
     0
 47
0.0094698939771757
 98
        1
 10
151.4719300702476
 20
-118.3762195443105
  0
LINE
  5
64
102
{ACAD_REACTORS
330
61
102
}
330
2
100
AcDbEntity
  8
Curb
  6
DASHED2
370
    25
100
AcDbLine
 10
151.3857745183653
 20
-111.6935609839289
 30
0.0
 11
151.3857745183653
 21
-124.1744311519048
 31
0.0
  0
LINE
  5
67
330
2
100
AcDbEntity
  8
0
  6
Continuous
100
AcDbLine
 10
151.3857745183653
 20
-117.9795857315659
 30
0.0
 11
151.3857745183653
 21
-122.1652763645104
 31
0.0
  0
LINE
  5
68
102
{ACAD_REACTORS
330
61
102
}
330
2
100
AcDbEntity
  8
0
  6
Continuous
100
AcDbLine
 10
151.6357745183653
 20
-117.9795857315659
 30
0.0
 11
151.6357745183653
 21
-122.1652763645104
 31
0.0
  0
LINE
  5
69
330
2
100
AcDbEntity
  8
0
  6
Continuous
100
AcDbLine
 10
149.7180222898685
 20
-124.1744311519048
 30
0.0
 11
148.1357745183653
 21
-124.1744311519048
 31
0.0
  0
LINE
  5
6A
330
2
100
AcDbEntity
  8
0
  6
Continuous
100
AcDbLine
 10
150.0535267468621
 20
-124.1744311519048
 30
0.0
 11
150.0535267468621
 21
-123.9244311519048
 31
0.0
  0
LINE
  5
6B
330
2
100
AcDbEntity
  8
0
  6
Continuous
100
AcDbLine
 10
149.7180222898685
 20
-124.4244311519048
 30
0.0
 11
149.7180222898685
 21
-124.1744311519048
 31
0.0
  0
LINE
  5
6C
330
2
100
AcDbEntity
  8
0
  6
Continuous
100
AcDbLine
 10
150.0535267468621
 20
-123.9244311519048
 30
0.0
 11
149.7180222898685
 21
-124.4244311519048
 31
0.0
  0
LINE
  5
6D
330
2
100
AcDbEntity
  8
0
  6
Continuous
100
AcDbLine
 10
151.6357745183653
 20
-124.1744311519048
 30
0.0
 11
150.0535267468621
 21
-124.1744311519048
 31
0.0
  0
LINE
  5
6E
102
{ACAD_REACTORS
330
61
102
}
330
2
100
AcDbEntity
  8
0
  6
Continuous
100
AcDbLine
 10
151.6357745183653
 20
-122.1652763645104
 30
0.0
 11
151.3857745183653
 21
-122.1652763645104
 31
0.0
  0
LINE
  5
6F
330
2
100
AcDbEntity
  8
0
  6
Continuous
100
AcDbLine
 10
148.1357745183653
 20
-115.2028079340746
 30
0.0
 11
148.6357745183653
 21
-114.867303477081
 31
0.0
  0
LINE
  5
70
330
2
100
AcDbEntity
  8
0
  6
Continuous
100
AcDbLine
 10
148.3857745183653
 20
-115.2028079340746
 30
0.0
 11
148.1357745183653
 21
-115.2028079340746
 31
0.0
  0
LINE
  5
71
330
2
100
AcDbEntity
  8
0
  6
Continuous
100
AcDbLine
 10
148.3857745183653
 20
-120.6651842017591
 30
0.0
 11
148.1357745183653
 21
-120.6651842017591
 31
0.0
  0
LINE
  5
72
330
2
100
AcDbEntity
  8
0
  6
Continuous
100
AcDbLine
 10
148.1357745183653
 20
-120.6651842017591
 30
0.0
 11
148.6357745183653
 21
-121.0006886587527
 31
0.0
  0
LINE
  5
73
330
2
100
AcDbEntity
  8
0
  6
Continuous
100
AcDbLine
 10
149.7180222898685
 20
-111.6935609839288
 30
0.0
 11
148.1357745183653
 21
-111.6935609839288
 31
0.0
  0
LINE
  5
74
330
2
100
AcDbEntity
  8
0
  6
Continuous
100
AcDbLine
 10
148.3857745183653
 20
-111.6935609839289
 30
0.0
 11
148.3857745183653
 21
-114.867303477081
 31
0.0
  0
LINE
  5
75
330
2
100
AcDbEntity
  8
.050 Flashing
  6
Continuous
100
AcDbLine
 10
151.4809139212873
 20
-111.9435609839288
 30
0.0
 11
151.4809139212874
 21
-115.9435609839288
 31
0.0
  0
LINE
  5
77
330
2
100
AcDbEntity
  8
.050 Flashing
  6
Continuous
100
AcDbLine
 10
151.4309139212873
 20
-111.9435609839288
 30
0.0
 11
151.4309139212874
 21
-115.9825971660078
 31
0.0
  0
LINE
  5
78
330
2
100
AcDbEntity
  8
.050 Flashing
  6
Continuous
100
AcDbLine
 10
153.0424003736101
 20
-116.3855810396437
 30
0.0
 11
151.4309139212874
 21
-115.9825971660078
 31
0.0
  0
LINE
  5
79
330
2
100
AcDbEntity
  8
.050 Flashing
  6
Continuous
100
AcDbLine
 10
153.1030366649743
 20
-116.3492046713589
 30
0.0
 11
151.4809139212874
 21
-115.9435609839288
 31
0.0
  0
LINE
  5
7A
330
2
100
AcDbEntity
  8
0
  6
Continuous
100
AcDbLine
 10
148.3857745183653
 20
-115.2028079340746
 30
0.0
 11
148.3857745183653
 21
-120.6651842017591
 31
0.0
  0
LINE
  5
7B
330
2
100
AcDbEntity
  8
0
  6
Continuous
100
AcDbLine
 10
148.6357745183653
 20
-114.867303477081
 30
0.0
 11
148.3857745183653
 21
-114.867303477081
 31
0.0
  0
LINE
  5
7C
330
2
100
AcDbEntity
  8
0
  6
Continuous
100
AcDbLine
 10
148.6357745183653
 20
-121.0006886587527
 30
0.0
 11
148.3857745183653
 21
-121.0006886587527
 31
0.0
  0
LINE
  5
7D
102
{ACAD_REACTORS
330
61
102
}
330
2
100
AcDbEntity
  8
0
  6
Continuous
100
AcDbLine
 10
151.6357745183653
 20
-117.9795857315659
 30
0.0
 11
151.3857745183653
 21
-117.9795857315659
 31
0.0
  0
ARC
  5
182
330
2
100
AcDbEntity
  8
Glazing
  6
Continuous
100
AcDbCircle
 10
154.4690903706368
 20
-117.0695489499865
 30
0.0
 40
0.2174215651070682
100
AcDbArc
 50
160.0120944610372
 51
165.9600000000013
  0
ARC
  5
183
330
2
100
AcDbEntity
  8
Glazing
  6
Continuous
100
AcDbCircle
 10
154.4690903706368
 20
-117.0695489499865
 30
0.0
 40
0.2374215651070682
100
AcDbArc
 50
141.5805366986622
 51
165.9600000000013
  0
ARC
  5
184
330
2
100
AcDbEntity
  8
Glazing
  6
Continuous
100
AcDbCircle
 10
154.4690903706368
 20
-117.0695489499865
 30
0.0
 40
0.2174215651070682
100
AcDbArc
 50
345.9600000000013
 51
351.9079055389628
  0
ARC
  5
185
330
2
100
AcDbEntity
  8
Glazing
  6
Continuous
100
AcDbCircle
 10
154.4690903706368
 20
-117.0695489499865
 30
0.0
 40
0.2374215651070682
100
AcDbArc
 50
345.9600000000013
 51
10.33946330133777
  0
ARC
  5
186
330
2
100
AcDbEntity
  8
Glazing
  6
Continuous
100
AcDbCircle
 10
154.4690903706368
 20
-117.0695489499865
 30
0.0
 40
0.1774215651070682
100
AcDbArc
 50
57.17362954167593
 51
94.74637045832407
  0
ARC
  5
187
330
2
100
AcDbEntity
  8
Glazing
  6
Continuous
100
AcDbCircle
 10
154.4690903706368
 20
-117.0695489499865
 30
0.0
 40
0.2174215651070682
100
AcDbArc
 50
36.54366442544493
 51
115.376335574555
  0
ARC
  5
188
330
2
100
AcDbEntity
  8
Glazing
  6
Continuous
100
AcDbCircle
 10
154.4690903706368
 20
-117.0695489499865
 30
0.0
 40
0.1974215651070682
100
AcDbArc
 50
44.26062356346299
 51
107.659376436537
  0
ARC
  5
189
330
2
100
AcDbEntity
  8
Glazing
  6
Continuous
100
AcDbCircle
 10
154.4690903706368
 20
-117.0695489499865
 30
0.0
 40
0.2374215651070682
100
AcDbArc
 50
30.89761506710683
 51
121.0223849329016
  0
ARC
  5
18A
330
2
100
AcDbEntity
  8
Glazing
  6
Continuous
100
AcDbCircle
 10
154.4690903706368
 20
-117.0695489499865
 30
0.0
 40
0.3174215651070682
100
AcDbArc
 50
345.9600000000013
 51
165.9600000000013
  0
ARC
  5
18B
330
2
100
AcDbEntity
  8
Glazing
  6
Continuous
100
AcDbCircle
 10
154.4690903706368
 20
-117.0695489499865
 30
0.0
 40
0.2974215651070682
100
AcDbArc
 50
345.9600000000013
 51
165.9600000000013
  0
ARC
  5
18C
330
2
100
AcDbEntity
  8
Glazing
  6
Continuous
100
AcDbCircle
 10
154.4690903706368
 20
-117.0695489499865
 30
0.0
 40
0.2774215651070682
100
AcDbArc
 50
345.9600000000013
 51
165.9600000000013
  0
ARC
  5
18D
330
2
100
AcDbEntity
  8
Glazing
  6
Continuous
100
AcDbCircle
 10
154.4690903706368
 20
-117.0695489499865
 30
0.0
 40
0.2574215651070681
100
AcDbArc
 50
345.9600000000013
 51
165.9600000000013
  0
ARC
  5
18E
330
2
100
AcDbEntity
  8
5
  6
Continuous
100
AcDbCircle
 10
153.9939312165386
 20
-113.8786000809067
 30
0.0
 40
2.966324455274061
100
AcDbArc
 50
260.1035446001532
 51
260.5055550893474
  0
ARC
  5
18F
330
2
100
AcDbEntity
  8
5
  6
Continuous
100
AcDbCircle
 10
153.9939312165386
 20
-113.8786000809067
 30
0.0
 40
2.946324455274061
100
AcDbArc
 50
259.8310898685251
 51
260.5364764205672
  0
ARC
  5
190
330
2
100
AcDbEntity
  8
5
  6
Continuous
100
AcDbCircle
 10
153.9939312165386
 20
-113.8786000809067
 30
0.0
 40
2.926324455274061
100
AcDbArc
 50
259.4488239545032
 51
260.5678217795849
  0
ARC
  5
191
330
2
100
AcDbEntity
  8
5
  6
Continuous
100
AcDbCircle
 10
153.9939312165386
 20
-113.8786000809067
 30
0.0
 40
2.906324455274061
100
AcDbArc
 50
258.9181928432907
 51
260.5995999584009
  0
ARC
  5
192
330
2
100
AcDbEntity
  8
5
  6
Continuous
100
AcDbCircle
 10
153.9939312165386
 20
-113.8786000809067
 30
0.0
 40
2.886324455274061
100
AcDbArc
 50
258.1447219558838
 51
260.6318199940437
  0
ARC
  5
193
330
2
100
AcDbEntity
  8
5
  6
Continuous
100
AcDbCircle
 10
153.9939312165386
 20
-113.8786000809067
 30
0.0
 40
2.866324455274061
100
AcDbArc
 50
256.6564855848476
 51
260.6644911771776
  0
ARC
  5
194
330
2
100
AcDbEntity
  8
5
  6
Continuous
100
AcDbCircle
 10
153.9939312165386
 20
-113.8786000809067
 30
0.0
 40
2.966324455274061
100
AcDbArc
 50
250.8362557855702
 51
251.2681572358632
  0
ARC
  5
195
330
2
100
AcDbEntity
  8
5
  6
Continuous
100
AcDbCircle
 10
153.9939312165386
 20
-113.8786000809067
 30
0.0
 40
2.946324455274061
100
AcDbArc
 50
250.8013812365331
 51
251.5454478379224
  0
ARC
  5
196
330
2
100
AcDbEntity
  8
5
  6
Continuous
100
AcDbCircle
 10
153.9939312165386
 20
-113.8786000809067
 30
0.0
 40
2.926324455274061
100
AcDbArc
 50
250.7660280304211
 51
251.9323924385098
  0
ARC
  5
197
330
2
100
AcDbEntity
  8
5
  6
Continuous
100
AcDbCircle
 10
153.9939312165386
 20
-113.8786000809067
 30
0.0
 40
2.906324455274061
100
AcDbArc
 50
250.730186230796
 51
252.4675527828145
  0
ARC
  5
198
330
2
100
AcDbEntity
  8
5
  6
Continuous
100
AcDbCircle
 10
153.9939312165386
 20
-113.8786000809067
 30
0.0
 40
2.886324455274061
100
AcDbArc
 50
250.6938456238822
 51
253.2454106551569
  0
ARC
  5
199
330
2
100
AcDbEntity
  8
5
  6
Continuous
100
AcDbCircle
 10
153.9939312165386
 20
-113.8786000809067
 30
0.0
 40
2.866324455274061
100
AcDbArc
 50
250.6569957088092
 51
254.737898487587
  0
ARC
  5
19A
330
2
100
AcDbEntity
  8
5
  6
Continuous
100
AcDbCircle
 10
153.9939312165386
 20
-113.8786000809067
 30
0.0
 40
2.846324455274061
100
AcDbArc
 50
250.6196256874357
 51
260.6976230610727
  0
ARC
  5
19B
330
2
100
AcDbEntity
  8
5
  6
Continuous
100
AcDbCircle
 10
153.9939312165386
 20
-113.8786000809067
 30
0.0
 40
2.826324455274061
100
AcDbArc
 50
250.5817244537393
 51
260.7312254709596
  0
ARC
  5
19C
330
2
100
AcDbEntity
  8
5
  6
Continuous
100
AcDbCircle
 10
153.9939312165386
 20
-113.8786000809067
 30
0.0
 40
2.806324455274061
100
AcDbArc
 50
250.5432805827521
 51
260.7653085137894
  0
ARC
  5
19D
330
2
100
AcDbEntity
  8
5
  6
Continuous
100
AcDbCircle
 10
153.9939312165386
 20
-113.8786000809067
 30
0.0
 40
2.786324455274061
100
AcDbArc
 50
250.5042823190045
 51
260.7998825884155
  0
ARC
  5
19E
330
2
100
AcDbEntity
  8
5
  6
Continuous
100
AcDbCircle
 10
153.9939312165386
 20
-113.8786000809067
 30
0.0
 40
2.766324455274061
100
AcDbArc
 50
250.4647175644745
 51
260.8349583962208
  0
ARC
  5
19F
330
2
100
AcDbEntity
  8
5
  6
Continuous
100
AcDbCircle
 10
153.9939312165386
 20
-113.8786000809067
 30
0.0
 40
2.746324455274061
100
AcDbArc
 50
250.4245738659951
 51
260.870546952215
  0
ARC
  5
1A0
330
2
100
AcDbEntity
  8
5
  6
Continuous
100
AcDbCircle
 10
153.9939312165386
 20
-113.8786000809067
 30
0.0
 40
2.726324455274061
100
AcDbArc
 50
250.3838384021057
 51
260.9066595966218
  0
ARC
  5
1A1
330
2
100
AcDbEntity
  8
5
  6
Continuous
100
AcDbCircle
 10
153.9939312165386
 20
-113.8786000809067
 30
0.0
 40
2.706324455274061
100
AcDbArc
 50
250.3424979693146
 51
260.9433080069877
  0
ARC
  5
1A2
330
2
100
AcDbEntity
  8
5
  6
Continuous
100
AcDbCircle
 10
153.9939312165386
 20
-113.8786000809067
 30
0.0
 40
2.686324455274061
100
AcDbArc
 50
250.3005389677385
 51
260.9805042108323
  0
ARC
  5
1A3
330
2
100
AcDbEntity
  8
5
  6
Continuous
100
AcDbCircle
 10
153.9939312165386
 20
-113.8786000809067
 30
0.0
 40
2.666324455274061
100
AcDbArc
 50
250.2579473860899
 51
261.0182605988784
  0
ARC
  5
1A4
330
2
100
AcDbEntity
  8
5
  6
Continuous
100
AcDbCircle
 10
153.9939312165386
 20
-113.8786000809067
 30
0.0
 40
2.646324455274061
100
AcDbArc
 50
250.214708785976
 51
261.0803873353922
  0
ARC
  5
1A5
330
2
100
AcDbEntity
  8
5
  6
Continuous
100
AcDbCircle
 10
153.9939312165386
 20
-113.8786000809067
 30
0.0
 40
2.626324455274061
100
AcDbArc
 50
250.1708082854688
 51
261.7406857065796
  0
ELLIPSE
  5
1A6
330
2
100
AcDbEntity
  8
0
  6
Continuous
100
AcDbEllipse
 10
153.2463173891953
 20
-116.8067475840258
 30
0.0
 11
-0.2425316491225982
 21
0.0606498076988396
 31
0.0
210
0.0
220
0.0
230
1.0
 40
0.6364590205188473
 41
0.0
 42
6.283185307179586
  0
LINE
  5
1A7
330
2
100
AcDbEntity
  8
5
  6
Continuous
100
AcDbLine
 10
153.1030366649743
 20
-116.349204671359
 30
0.0
 11
153.6181738877105
 21
-116.4780248629114
 31
0.0
  0
LINE
  5
1A8
330
2
100
AcDbEntity
  8
.050 Flashing
  6
Continuous
100
AcDbLine
 10
153.0424003736101
 20
-116.3855810396437
 30
0.0
 11
152.9045483315058
 21
-116.936835600457
 31
0.0
  0
LINE
  5
1A9
330
2
100
AcDbEntity
  8
.050 Flashing
  6
Continuous
100
AcDbLine
 10
153.1030366649743
 20
-116.349204671359
 30
0.0
 11
152.96518462287
 21
-116.9004592321723
 31
0.0
  0
LINE
  5
1AA
330
2
100
AcDbEntity
  8
.050 Flashing
  6
Continuous
100
AcDbLine
 10
153.0383537373394
 20
-118.2175561713874
 30
0.0
 11
153.0262237757997
 21
-118.2660625012118
 31
0.0
  0
LINE
  5
1AB
330
2
100
AcDbEntity
  8
.050 Flashing
  6
Continuous
100
AcDbLine
 10
152.9045483315058
 20
-116.936835600457
 30
0.0
 11
154.0396775410617
 21
-117.2206969790523
 31
0.0
  0
LINE
  5
1AC
330
2
100
AcDbEntity
  8
.050 Flashing
  6
Continuous
100
AcDbLine
 10
154.0396775410617
 20
-117.2206969790523
 30
0.0
 11
153.7461324717993
 21
-118.3945501608054
 31
0.0
  0
LINE
  5
1AD
330
2
100
AcDbEntity
  8
.050 Flashing
  6
Continuous
100
AcDbLine
 10
153.0383537373394
 20
-118.2175561713874
 30
0.0
 11
153.7461324717993
 21
-118.3945501608054
 31
0.0
  0
LINE
  5
1AE
330
2
100
AcDbEntity
  8
.050 Flashing
  6
Continuous
100
AcDbLine
 10
152.96518462287
 20
-116.9004592321723
 30
0.0
 11
154.100313832426
 21
-117.1843206107676
 31
0.0
  0
LINE
  5
1AF
330
2
100
AcDbEntity
  8
.050 Flashing
  6
Continuous
100
AcDbLine
 10
153.0262237757997
 20
-118.2660625012118
 30
0.0
 11
153.782508840084
 21
-118.4551864521696
 31
0.0
  0
LINE
  5
1B0
330
2
100
AcDbEntity
  8
Glazing
  6
Continuous
100
AcDbLine
 10
155.3298513063962
 20
-117.7494889582831
 30
0.0
 11
155.2085516909985
 21
-118.2345522565282
 31
0.0
  0
LINE
  5
1B1
330
2
100
AcDbEntity
  8
0
  6
Continuous
100
AcDbLine
 10
154.8447880081511
 20
-117.6281893428855
 30
0.0
 11
155.2085516909985
 21
-118.2345522565282
 31
0.0
  0
LINE
  5
1B2
330
2
100
AcDbEntity
  8
0
  6
Continuous
100
AcDbLine
 10
155.3298513063962
 20
-117.7494889582831
 30
0.0
 11
154.7234883927534
 21
-118.1132526411305
 31
0.0
  0
LINE
  5
1B3
330
2
100
AcDbEntity
  8
Glazing
  6
Continuous
100
AcDbLine
 10
154.9054378158499
 20
-117.385657693763
 30
0.0
 11
154.5876328235081
 21
-118.656523535165
 31
0.0
  0
INSERT
  5
1B4
330
2
100
AcDbEntity
  8
0
  6
Continuous
 62
     0
100
AcDbBlockReference
  2
epdm
 10
155.7929782339788
 20
-124.429878170131
 30
0.0
 50
345.96
  0
LINE
  5
221
330
2
100
AcDbEntity
  8
.050 Flashing
  6
Continuous
100
AcDbLine
 10
154.100313832426
 20
-117.1843206107676
 30
0.0
 11
153.782508840084
 21
-118.4551864521696
 31
0.0
  0
INSERT
  5
222
330
2
100
AcDbEntity
  8
0
  6
Continuous
 62
     0
100
AcDbBlockReference
  2
epdm
 10
158.7341744157
 20
-112.8711742493028
 30
0.0
 41
-1.0
 50
165.96
  0
INSERT
  5
223
330
2
100
AcDbEntity
  8
0
  6
Continuous
 62
     0
100
AcDbBlockReference
  2
epdm
 10
149.8364998180731
 20
-122.9403436215719
 30
0.0
 41
-1.0
 50
345.96
  0
LINE
  5
224
330
2
100
AcDbEntity
  8
0
  6
Continuous
100
AcDbLine
 10
154.8278414273366
 20
-118.7348327387822
 30
0.0
 11
154.8213206759583
 21
-118.7300129182446
 31
0.0
  0
INSERT
  5
225
330
2
100
AcDbEntity
  8
0
  6
Continuous
 62
     0
100
AcDbBlockReference
  2
epdm
 10
160.0923516507861
 20
-113.2108131724164
 30
0.0
 41
-1.0
 50
165.96
  0
INSERT
  5
226
330
2
100
AcDbEntity
  8
0
  6
Continuous
 62
     0
100
AcDbBlockReference
  2
purlin screw race
 10
165.7752393900346
 20
-71.34144785959819
 30
0.0
 41
-1.0
 50
345.96
  0
INSERT
  5
2EC
330
2
100
AcDbEntity
  8
0
  6
Continuous
 62
     0
100
AcDbBlockReference
  2
PURLIN CLIP
 10
181.9033403489718
 20
-88.78501975718672
 30
0.0
 41
-1.0
 50
345.96
  0
INSERT
  5
41C
330
2
100
AcDbEntity
  8
0
  6
Continuous
 62
     0
100
AcDbBlockReference
  2
snap bottom
 10
174.2304731042688
 20
-68.01970275216878
 30
0.0
 41
-1.0
 50
345.96
  0
INSERT
  5
448
330
2
100
AcDbEntity
  8
0
  6
Continuous
 62
     0
100
AcDbBlockReference
  2
pressure cap
 10
173.0582473188588
 20
-73.61964559568997
 30
0.0
 41
-1.0
 50
345.96
  0
INSERT
  5
478
330
2
100
AcDbEntity
  8
0
  6
Continuous
 62
     0
100
AcDbBlockReference
  2
snap cap
 10
169.7258880824399
 20
-72.81421116104072
 30
0.0
 41
-1.0
 50
345.96
  0
INSERT
  5
490
330
2
100
AcDbEntity
  8
0
  6
Continuous
100
AcDbBlockReference
  2
SCREWWW
 10
337.8107664828806
 20
-70.04264838005887
 30
0.0
 41
-1.0
 50
345.96
  0
INSERT
  5
55F
330
2
100
AcDbEntity
  8
0
  6
Continuous
100
AcDbBlockReference
  2
work point
 10
242.3023743523265
 20
-119.3733226429816
 30
0.0
 41
-1.0
 50
270.0
  0
LINE
  5
588
330
2
100
AcDbEntity
  8
0
  6
Continuous
100
AcDbLine
 10
151.6357745183653
 20
-111.6935609839289
 30
0.0
 11
150.0535267468621
 21
-111.6935609839288
 31
0.0
  0
LINE
  5
589
330
2
100
AcDbEntity
  8
0
  6
Continuous
100
AcDbLine
 10
150.0535267468621
 20
-111.4435609839288
 30
0.0
 11
149.7180222898685
 21
-111.9435609839288
 31
0.0
  0
LINE
  5
58A
330
2
100
AcDbEntity
  8
0
  6
Continuous
100
AcDbLine
 10
149.7180222898685
 20
-111.9435609839288
 30
0.0
 11
149.7180222898685
 21
-111.6935609839288
 31
0.0
  0
LINE
  5
58B
330
2
100
AcDbEntity
  8
0
  6
Continuous
100
AcDbLine
 10
150.0535267468621
 20
-111.6935609839288
 30
0.0
 11
150.0535267468621
 21
-111.4435609839288
 31
0.0
  0
LINE
  5
58C
330
2
100
AcDbEntity
  8
.050 Flashing
  6
Continuous
100
AcDbLine
 10
151.4309139212873
 20
-111.9435609839288
 30
0.0
 11
151.4809139212873
 21
-111.9435609839288
 31
0.0
  0
LINE
  5
58D
330
2
100
AcDbEntity
  8
0
  6
Continuous
100
AcDbLine
 10
156.6133289403465
 20
-120.4862692269119
 30
0.0
 11
156.6133289403465
 21
-123.6600117200641
 31
0.0
  0
MTEXT
  5
58E
102
{ACAD_REACTORS
330
58F
102
}
330
2
100
AcDbEntity
  8
0
  6
Continuous
100
AcDbMText
 10
157.8225144665361
 20
-123.0357681867617
 30
0.0
 40
0.1875
 41
4.553501275510203
 71
     1
 72
     1
  1
CONDENSATION GUTTER BEYOND
 73
     1
 44
1.0
1001
ACAD
1000
MTEXTBEGIN
1070
    73
1070
     1
1070
    44
1040
1.0
1070
    74
1070
     0
1000
MTEXTEND
  0
LEADER
  5
58F
330
2
100
AcDbEntity
  8
0
  6
Continuous
100
AcDbLeader
  3
STANDARD
 73
     0
 40
0.1940228512960437
 41
4.41174965893588
 76
     2
 10
156.3142129634161
 20
-123.1295181867617
 30
0.0
 10
157.7325144665361
 20
-123.1295181867617
 30
0.0
340
58E
213
0.0
223
-0.09375
233
0.0
1001
ACAD
1000
DSTYLE
1002
{
1070
   147
1040
0.09
1070
    77
1070
     0
1002
}
  0
TEXT
  5
590
330
2
100
AcDbEntity
  8
0
  6
Continuous
100
AcDbText
 10
157.9583816191472
 20
-122.556273273255
 30
0.0
 40
0.1082863998362349
  1
-800-972-9112-
100
AcDbText
  0
LINE
  5
595
330
2
100
AcDbEntity
  8
0
  6
Continuous
100
AcDbLine
 10
156.3633289403465
 20
-120.1507647699183
 30
0.0
 11
156.8633289403465
 21
-120.4862692269119
 31
0.0
  0
LINE
  5
596
330
2
100
AcDbEntity
  8
0
  6
Continuous
100
AcDbLine
 10
156.8633289403465
 20
-120.4862692269119
 30
0.0
 11
156.6133289403465
 21
-120.4862692269119
 31
0.0
  0
LINE
  5
597
330
2
100
AcDbEntity
  8
0
  6
Continuous
100
AcDbLine
 10
156.6133289403465
 20
-120.1507647699183
 30
0.0
 11
156.3633289403465
 21
-120.1507647699183
 31
0.0
  0
LINE
  5
598
330
2
100
AcDbEntity
  8
0
  6
Continuous
100
AcDbLine
 10
156.6133289403465
 20
-116.9770222767662
 30
0.0
 11
156.6133289403465
 21
-120.1507647699183
 31
0.0
  0
INSERT
  5
6B5
330
2
100
AcDbEntity
  8
0
  6
Continuous
100
AcDbBlockReference
  2
ANCHOR
 10
5.037548147220718
 20
-0.1799141257515089
 30
0.0
  0
ENDSEC
  0
SECTION
  2
OBJECTS
  0
DICTIONARY
  5
9
330
0
100
AcDbDictionary
281
     1
  3
ACAD_COLOR
350
30
  3
ACAD_GROUP
350
2C
  3
ACAD_LAYOUT
350
D
  3
ACAD_MATERIAL
350
2F
  3
ACAD_MLINESTYLE
350
2D
  3
ACAD_PLOTSETTINGS
350
2E
  3
ACAD_PLOTSTYLENAME
350
8
  3
ACDBHEADERROUNDTRIPXREC
350
6BF
  3
AcDbVariableDictionary
350
5BB
  0
DICTIONARY
  5
15
330
14
100
AcDbDictionary
280
     1
281
     1
  3
ACAD_LAYERFILTERS
360
16
  3
ACAD_LAYERSTATES
360
1A
  0
DICTIONARY
  5
3
330
2
100
AcDbDictionary
280
     1
281
     1
  3
ACAD_LAYOUTSELFREF
360
4
  0
DICTIONARY
  5
F
330
E
100
AcDbDictionary
280
     1
281
     1
  3
ACAD_LAYOUTSELFREF
360
10
  0
DICTIONARY
  5
30
102
{ACAD_REACTORS
330
9
102
}
330
9
100
AcDbDictionary
281
     1
  0
DICTIONARY
  5
2C
102
{ACAD_REACTORS
330
9
102
}
330
9
100
AcDbDictionary
281
     1
  0
DICTIONARY
  5
D
102
{ACAD_REACTORS
330
9
102
}
330
9
100
AcDbDictionary
281
     1
  3
Layout1
350
13
  3
Model
350
C
  0
DICTIONARY
  5
2F
102
{ACAD_REACTORS
330
9
102
}
330
9
100
AcDbDictionary
281
     1
  0
DICTIONARY
  5
2D
102
{ACAD_REACTORS
330
9
102
}
330
9
100
AcDbDictionary
281
     1
  3
STANDARD
350
31
  0
DICTIONARY
  5
2E
102
{ACAD_REACTORS
330
9
102
}
330
9
100
AcDbDictionary
281
     1
  0
ACDBDICTIONARYWDFLT
  5
8
102
{ACAD_REACTORS
330
9
102
}
330
9
100
AcDbDictionary
281
     1
  3
Normal
350
7
100
AcDbDictionaryWithDefault
340
7
  0
DICTIONARY
  5
6BF
102
{ACAD_REACTORS
330
9
102
}
330
9
100
AcDbDictionary
281
     1
  3
COLORDICT
350
6C1
  3
MATERIALDICT
350
6C0
  0
DICTIONARY
  5
5BB
102
{ACAD_REACTORS
330
9
102
}
330
9
100
AcDbDictionary
281
     1
  3
DIMASSOC
350
5BD
  3
HIDETEXT
350
5BC
  3
PROJECTNAME
350
5BE
  0
DICTIONARY
  5
16
102
{ACAD_REACTORS
330
15
102
}
330
15
100
AcDbDictionary
280
     1
281
     1
  3
clg
360
17
  3
Roof
360
18
  3
sk
360
19
  0
DICTIONARY
  5
1A
102
{ACAD_REACTORS
330
15
102
}
330
15
100
AcDbDictionary
281
     1
  0
XRECORD
  5
4
102
{ACAD_REACTORS
330
3
102
}
330
3
100
AcDbXrecord
280
     1
340
2
  0
XRECORD
  5
10
102
{ACAD_REACTORS
330
F
102
}
330
F
100
AcDbXrecord
280
     1
340
E
  0
LAYOUT
  5
13
102
{ACAD_XDICTIONARY
360
6C4
102
}
102
{ACAD_REACTORS
330
D
102
}
330
D
100
AcDbPlotSettings
  1

  2
HP DesignJet 430 Plotter
  4

  6

 40
0.0
 41
0.0
 42
0.0
 43
0.0
 44
0.0
 45
0.0
 46
0.0
 47
0.0
 48
0.0
 49
0.0
140
0.0
141
0.0
142
1.0
143
1.0
 70
   688
 72
     0
 73
     0
 74
     5
  7
acad.ctb
 75
    16
147
1.0
148
0.0
149
0.0
100
AcDbLayout
  1
Layout1
 70
     1
 71
     1
 10
0.0
 20
0.0
 11
11.0
 21
8.5
 12
0.0
 22
0.0
 32
0.0
 14
0.0
 24
0.0
 34
0.0
 15
11.0
 25
8.5
 35
0.0
146
0.0
 13
0.0
 23
0.0
 33
0.0
 16
1.0
 26
0.0
 36
0.0
 17
0.0
 27
1.0
 37
0.0
 76
     0
330
E
  0
LAYOUT
  5
C
102
{ACAD_XDICTIONARY
360
6C2
102
}
102
{ACAD_REACTORS
330
D
102
}
330
D
100
AcDbPlotSettings
  1

  2
Adobe PDF
  4
Letter
  6

 40
3.174999952316284
 41
3.174999952316284
 42
3.175003051757812
 43
3.17498779296875
 44
215.8999938964844
 45
279.3999938964844
 46
0.0
 47
22.606
 48
0.0
 49
0.0
140
0.0
141
0.0
142
1.0
143
1.576911019605975
 70
 11956
 72
     0
 73
     1
 74
     1
  7
acad.ctb
 75
     0
147
0.6341511902490678
148
-3762.384330266507
149
3160.681614119961
100
AcDbLayout
  1
Model
 70
     1
 71
     0
 10
0.0
 20
0.0
 11
12.0
 21
9.0
 12
0.0
 22
0.0
 32
0.0
 14
0.0
 24
0.0
 34
0.0
 15
0.0
 25
0.0
 35
0.0
146
0.0
 13
0.0
 23
0.0
 33
0.0
 16
1.0
 26
0.0
 36
0.0
 17
0.0
 27
1.0
 37
0.0
 76
     0
330
2
  0
MLINESTYLE
  5
31
102
{ACAD_REACTORS
330
2D
102
}
330
2D
100
AcDbMlineStyle
  2
STANDARD
 70
     0
  3

 62
   256
 51
90.0
 52
90.0
 71
     2
 49
0.5
 62
   256
  6
BYLAYER
 49
-0.5
 62
   256
  6
BYLAYER
  0
ACDBPLACEHOLDER
  5
7
102
{ACAD_REACTORS
330
8
102
}
330
8
  0
XRECORD
  5
6C1
102
{ACAD_REACTORS
330
6BF
102
}
330
6BF
100
AcDbXrecord
280
     1
340
30
  0
XRECORD
  5
6C0
102
{ACAD_REACTORS
330
6BF
102
}
330
6BF
100
AcDbXrecord
280
     1
340
2F
  0
DICTIONARYVAR
  5
5BD
102
{ACAD_REACTORS
330
5BB
102
}
330
5BB
100
DictionaryVariables
280
     0
  1
1
  0
DICTIONARYVAR
  5
5BC
102
{ACAD_REACTORS
330
5BB
102
}
330
5BB
100
DictionaryVariables
280
     0
  1
1
  0
DICTIONARYVAR
  5
5BE
102
{ACAD_REACTORS
330
5BB
102
}
330
5BB
100
DictionaryVariables
280
     0
  1

  0
XRECORD
  5
17
102
{ACAD_REACTORS
330
16
102
}
330
16
100
AcDbXrecord
280
     1
  1
clg
  1
a-c*
  1
*
  1
*
 70
     0
  1
*
  1
*
  0
XRECORD
  5
18
102
{ACAD_REACTORS
330
16
102
}
330
16
100
AcDbXrecord
280
     1
  1
Roof
  1
a-roo*.*
  1
*
  1
*
 70
     0
  1
*
  1
*
  0
XRECORD
  5
19
102
{ACAD_REACTORS
330
16
102
}
330
16
100
AcDbXrecord
280
     1
  1
sk
  1
*sketch
  1
*
  1
*
 70
     0
  1
*
  1
*
  0
DICTIONARY
  5
6C4
330
13
100
AcDbDictionary
280
     1
281
     1
  3
ACAD_XREC_ROUNDTRIP
360
6C5
  0
DICTIONARY
  5
6C2
330
C
100
AcDbDictionary
280
     1
281
     1
  3
ACAD_XREC_ROUNDTRIP
360
6C3
  0
XRECORD
  5
6C5
102
{ACAD_REACTORS
330
6C4
102
}
330
6C4
100
AcDbXrecord
280
     1
102
SHADEPLOT
 70
     0
102
SHADEPLOTRESLEVEL
 70
     2
102
SHADEPLOTCUSTOMDPI
 70
   300
  0
XRECORD
  5
6C3
102
{ACAD_REACTORS
330
6C2
102
}
330
6C2
100
AcDbXrecord
280
     1
102
SHADEPLOT
 70
     0
102
SHADEPLOTRESLEVEL
 70
     2
102
SHADEPLOTCUSTOMDPI
 70
   300
  0
ENDSEC
  0
EOF
