  0
SECTION
  2
HEADER
  9
$ACADVER
  1
AC1015
  9
$ACADMAINTVER
 70
    20
  9
$DWGCODEPAGE
  3
ANSI_1252
  9
$INSBASE
 10
0.0
 20
0.0
 30
0.0
  9
$EXTMIN
 10
154.4754649969695
 20
-80.44094354268066
 30
-0.0015258207003583
  9
$EXTMAX
 10
164.0628668769062
 20
-76.89341979425205
 30
0.0000000349246037
  9
$LIMMIN
 10
0.0
 20
0.0
  9
$LIMMAX
 10
408.0
 20
264.0
  9
$ORTHOMODE
 70
     1
  9
$REGENMODE
 70
     1
  9
$FILLMODE
 70
     1
  9
$QTEXTMODE
 70
     0
  9
$MIRRTEXT
 70
     1
  9
$LTSCALE
 40
0.25
  9
$ATTMODE
 70
     1
  9
$TEXTSIZE
 40
0.1875
  9
$TRACEWID
 40
0.05
  9
$TEXTSTYLE
  7
STANDARD
  9
$CLAYER
  8
0
  9
$CELTYPE
  6
CONTINUOUS
  9
$CECOLOR
 62
   256
  9
$CELTSCALE
 40
1.0
  9
$DISPSILH
 70
     0
  9
$DIMSCALE
 40
1.0
  9
$DIMASZ
 40
0.125
  9
$DIMEXO
 40
0.0625
  9
$DIMDLI
 40
0.38
  9
$DIMRND
 40
0.0
  9
$DIMDLE
 40
0.0
  9
$DIMEXE
 40
0.09375
  9
$DIMTP
 40
0.0
  9
$DIMTM
 40
0.0
  9
$DIMTXT
 40
0.18
  9
$DIMCEN
 40
0.09
  9
$DIMTSZ
 40
0.0
  9
$DIMTOL
 70
     0
  9
$DIMLIM
 70
     0
  9
$DIMTIH
 70
     1
  9
$DIMTOH
 70
     1
  9
$DIMSE1
 70
     0
  9
$DIMSE2
 70
     0
  9
$DIMTAD
 70
     0
  9
$DIMZIN
 70
     0
  9
$DIMBLK
  1

  9
$DIMASO
 70
     1
  9
$DIMSHO
 70
     1
  9
$DIMPOST
  1

  9
$DIMAPOST
  1

  9
$DIMALT
 70
     1
  9
$DIMALTD
 70
     4
  9
$DIMALTF
 40
1.0
  9
$DIMLFAC
 40
1.0
  9
$DIMTOFL
 70
     0
  9
$DIMTVP
 40
0.0
  9
$DIMTIX
 70
     0
  9
$DIMSOXD
 70
     0
  9
$DIMSAH
 70
     0
  9
$DIMBLK1
  1

  9
$DIMBLK2
  1

  9
$DIMSTYLE
  2
STANDARD
  9
$DIMCLRD
 70
     0
  9
$DIMCLRE
 70
     0
  9
$DIMCLRT
 70
     0
  9
$DIMTFAC
 40
1.0
  9
$DIMGAP
 40
0.09
  9
$DIMJUST
 70
     0
  9
$DIMSD1
 70
     0
  9
$DIMSD2
 70
     0
  9
$DIMTOLJ
 70
     1
  9
$DIMTZIN
 70
     0
  9
$DIMALTZ
 70
     0
  9
$DIMALTTZ
 70
     0
  9
$DIMUPT
 70
     0
  9
$DIMDEC
 70
     4
  9
$DIMTDEC
 70
     4
  9
$DIMALTU
 70
     5
  9
$DIMALTTD
 70
     4
  9
$DIMTXSTY
  7
STANDARD
  9
$DIMAUNIT
 70
     0
  9
$DIMADEC
 70
     8
  9
$DIMALTRND
 40
0.0
  9
$DIMAZIN
 70
     0
  9
$DIMDSEP
 70
    46
  9
$DIMATFIT
 70
     3
  9
$DIMFRAC
 70
     0
  9
$DIMLDRBLK
  1

  9
$DIMLUNIT
 70
     2
  9
$DIMLWD
 70
    -2
  9
$DIMLWE
 70
    -2
  9
$DIMTMOVE
 70
     0
  9
$LUNITS
 70
     4
  9
$LUPREC
 70
     5
  9
$SKETCHINC
 40
0.1
  9
$FILLETRAD
 40
0.01
  9
$AUNITS
 70
     0
  9
$AUPREC
 70
     1
  9
$MENU
  1
acad
  9
$ELEVATION
 40
0.0
  9
$PELEVATION
 40
0.0
  9
$THICKNESS
 40
0.0
  9
$LIMCHECK
 70
     0
  9
$CHAMFERA
 40
0.0
  9
$CHAMFERB
 40
0.0
  9
$CHAMFERC
 40
1.0
  9
$CHAMFERD
 40
0.0
  9
$SKPOLY
 70
     0
  9
$TDCREATE
 40
2453453.437640602
  9
$TDUCREATE
 40
2453453.770973935
  9
$TDUPDATE
 40
2453808.516263194
  9
$TDUUPDATE
 40
2453808.849596528
  9
$TDINDWG
 40
4.9521311111
  9
$TDUSRTIMER
 40
4.9521311111
  9
$USRTIMER
 70
     1
  9
$ANGBASE
 50
0.0
  9
$ANGDIR
 70
     0
  9
$PDMODE
 70
     0
  9
$PDSIZE
 40
0.0
  9
$PLINEWID
 40
0.0
  9
$SPLFRAME
 70
     0
  9
$SPLINETYPE
 70
     6
  9
$SPLINESEGS
 70
     8
  9
$HANDSEED
  5
30F
  9
$SURFTAB1
 70
     6
  9
$SURFTAB2
 70
     6
  9
$SURFTYPE
 70
     6
  9
$SURFU
 70
     6
  9
$SURFV
 70
     6
  9
$UCSBASE
  2

  9
$UCSNAME
  2

  9
$UCSORG
 10
0.0
 20
0.0
 30
0.0
  9
$UCSXDIR
 10
1.0
 20
0.0
 30
0.0
  9
$UCSYDIR
 10
0.0
 20
1.0
 30
0.0
  9
$UCSORTHOREF
  2

  9
$UCSORTHOVIEW
 70
     1
  9
$UCSORGTOP
 10
0.0
 20
0.0
 30
0.0
  9
$UCSORGBOTTOM
 10
0.0
 20
0.0
 30
0.0
  9
$UCSORGLEFT
 10
0.0
 20
0.0
 30
0.0
  9
$UCSORGRIGHT
 10
0.0
 20
0.0
 30
0.0
  9
$UCSORGFRONT
 10
0.0
 20
0.0
 30
0.0
  9
$UCSORGBACK
 10
0.0
 20
0.0
 30
0.0
  9
$PUCSBASE
  2

  9
$PUCSNAME
  2

  9
$PUCSORG
 10
0.0
 20
0.0
 30
0.0
  9
$PUCSXDIR
 10
1.0
 20
0.0
 30
0.0
  9
$PUCSYDIR
 10
0.0
 20
1.0
 30
0.0
  9
$PUCSORTHOREF
  2

  9
$PUCSORTHOVIEW
 70
     0
  9
$PUCSORGTOP
 10
0.0
 20
0.0
 30
0.0
  9
$PUCSORGBOTTOM
 10
0.0
 20
0.0
 30
0.0
  9
$PUCSORGLEFT
 10
0.0
 20
0.0
 30
0.0
  9
$PUCSORGRIGHT
 10
0.0
 20
0.0
 30
0.0
  9
$PUCSORGFRONT
 10
0.0
 20
0.0
 30
0.0
  9
$PUCSORGBACK
 10
0.0
 20
0.0
 30
0.0
  9
$USERI1
 70
     0
  9
$USERI2
 70
     0
  9
$USERI3
 70
     0
  9
$USERI4
 70
     0
  9
$USERI5
 70
     0
  9
$USERR1
 40
0.0
  9
$USERR2
 40
0.0
  9
$USERR3
 40
0.0
  9
$USERR4
 40
0.0
  9
$USERR5
 40
0.0
  9
$WORLDVIEW
 70
     1
  9
$SHADEDGE
 70
     3
  9
$SHADEDIF
 70
    70
  9
$TILEMODE
 70
     1
  9
$MAXACTVP
 70
    48
  9
$PINSBASE
 10
0.0
 20
0.0
 30
0.0
  9
$PLIMCHECK
 70
     0
  9
$PEXTMIN
 10
0.0
 20
0.0
 30
0.0
  9
$PEXTMAX
 10
11.0
 20
8.5
 30
0.0
  9
$PLIMMIN
 10
0.0
 20
0.0
  9
$PLIMMAX
 10
11.0
 20
8.5
  9
$UNITMODE
 70
     0
  9
$VISRETAIN
 70
     1
  9
$PLINEGEN
 70
     0
  9
$PSLTSCALE
 70
     1
  9
$TREEDEPTH
 70
  3020
  9
$CMLSTYLE
  2
STANDARD
  9
$CMLJUST
 70
     0
  9
$CMLSCALE
 40
1.0
  9
$PROXYGRAPHICS
 70
     1
  9
$MEASUREMENT
 70
     0
  9
$CELWEIGHT
370
    -1
  9
$ENDCAPS
280
     0
  9
$JOINSTYLE
280
     0
  9
$LWDISPLAY
290
     0
  9
$INSUNITS
 70
     0
  9
$HYPERLINKBASE
  1

  9
$STYLESHEET
  1

  9
$XEDIT
290
     1
  9
$CEPSNTYPE
380
     0
  9
$PSTYLEMODE
290
     1
  9
$FINGERPRINTGUID
  2
{429355A8-7BC6-4FCE-9B99-57A0ED0E2088}
  9
$VERSIONGUID
  2
{A7AE8548-4482-4D65-B367-F2D6D948F575}
  9
$EXTNAMES
290
     1
  9
$PSVPSCALE
 40
0.0
  9
$OLESTARTUP
290
     0
  0
ENDSEC
  0
SECTION
  2
CLASSES
  0
CLASS
  1
DICTIONARYVAR
  2
AcDbDictionaryVar
  3
ObjectDBX Classes
 90
        0
280
     0
281
     0
  0
CLASS
  1
ACDBDICTIONARYWDFLT
  2
AcDbDictionaryWithDefault
  3
ObjectDBX Classes
 90
        0
280
     0
281
     0
  0
CLASS
  1
ACDBPLACEHOLDER
  2
AcDbPlaceHolder
  3
ObjectDBX Classes
 90
        0
280
     0
281
     0
  0
CLASS
  1
LAYOUT
  2
AcDbLayout
  3
ObjectDBX Classes
 90
        0
280
     0
281
     0
  0
ENDSEC
  0
SECTION
  2
TABLES
  0
TABLE
  2
VPORT
  5
24
330
0
100
AcDbSymbolTable
 70
     3
  0
VPORT
  5
307
330
24
100
AcDbSymbolTableRecord
100
AcDbViewportTableRecord
  2
*Active
 70
     0
 10
0.0
 20
0.0
 11
1.0
 21
1.0
 12
159.2691659369379
 22
-78.66718166846635
 13
0.0
 23
0.0
 14
0.5
 24
0.5
 15
0.5
 25
0.5
 16
0.0
 26
0.0
 36
1.0
 17
0.0
 27
0.0
 37
0.0
 40
6.617236644312012
 41
1.45595238095238
 42
50.0
 43
0.0
 44
0.0
 50
0.0
 51
0.0
 71
     0
 72
   100
 73
     1
 74
     1
 75
     0
 76
     0
 77
     0
 78
     1
281
     0
 65
     1
110
0.0
120
0.0
130
0.0
111
1.0
121
0.0
131
0.0
112
0.0
122
1.0
132
0.0
 79
     0
146
0.0
  0
ENDTAB
  0
TABLE
  2
LTYPE
  5
1F
330
0
100
AcDbSymbolTable
 70
     3
  0
LTYPE
  5
20
330
1F
100
AcDbSymbolTableRecord
100
AcDbLinetypeTableRecord
  2
BYBLOCK
 70
     0
  3

 72
    65
 73
     0
 40
0.0
  0
LTYPE
  5
21
330
1F
100
AcDbSymbolTableRecord
100
AcDbLinetypeTableRecord
  2
BYLAYER
 70
     0
  3

 72
    65
 73
     0
 40
0.0
  0
LTYPE
  5
A
330
1F
100
AcDbSymbolTableRecord
100
AcDbLinetypeTableRecord
  2
CONTINUOUS
 70
     0
  3
Solid line
 72
    65
 73
     0
 40
0.0
  0
LTYPE
  5
17E
330
1F
100
AcDbSymbolTableRecord
100
AcDbLinetypeTableRecord
  2
ACAD_ISO02W100
 70
     0
  3
ISO dash __ __ __ __ __ __ __ __ __ __ __ __ __
 72
    65
 73
     2
 40
15.0
 49
12.0
 74
     0
 49
-3.0
 74
     0
  0
LTYPE
  5
1C1
330
1F
100
AcDbSymbolTableRecord
100
AcDbLinetypeTableRecord
  2
CENTER
 70
     0
  3
Center ____ _ ____ _ ____ _ ____ _ ____ _ ____
 72
    65
 73
     4
 40
2.0
 49
1.25
 74
     0
 49
-0.25
 74
     0
 49
0.25
 74
     0
 49
-0.25
 74
     0
  0
ENDTAB
  0
TABLE
  2
LAYER
  5
14
102
{ACAD_XDICTIONARY
360
15
102
}
330
0
100
AcDbSymbolTable
 70
     5
  0
LAYER
  5
6
330
14
100
AcDbSymbolTableRecord
100
AcDbLayerTableRecord
  2
0
 70
     0
 62
     7
  6
CONTINUOUS
370
    -3
390
7
  0
LAYER
  5
40
330
14
100
AcDbSymbolTableRecord
100
AcDbLayerTableRecord
  2
5
 70
     0
 62
     5
  6
CONTINUOUS
370
    -3
390
7
  0
LAYER
  5
1C0
330
14
100
AcDbSymbolTableRecord
100
AcDbLayerTableRecord
  2
2
 70
     0
 62
     4
  6
CENTER
370
    -3
390
7
  0
LAYER
  5
17D
330
14
100
AcDbSymbolTableRecord
100
AcDbLayerTableRecord
  2
HIDDEN
 70
     0
 62
     8
  6
ACAD_ISO02W100
370
    -3
390
7
  0
LAYER
  5
3E
330
14
100
AcDbSymbolTableRecord
100
AcDbLayerTableRecord
  2
Glazing
 70
     0
 62
     5
  6
CONTINUOUS
370
    -3
390
7
  0
ENDTAB
  0
TABLE
  2
STYLE
  5
1B
330
0
100
AcDbSymbolTable
 70
     2
  0
STYLE
  5
1C
330
1B
100
AcDbSymbolTableRecord
100
AcDbTextStyleTableRecord
  2
STANDARD
 70
     0
 40
0.1875
 41
1.0
 50
0.0
 71
     0
 42
0.1875
  3
ARIAL.TTF
  4

1001
ACAD
1000
Arial
1071
       34
  0
STYLE
  5
2A
330
1B
100
AcDbSymbolTableRecord
100
AcDbTextStyleTableRecord
  2
ARCHITXT
 70
     0
 40
3.0
 41
1.0
 50
0.0
 71
     0
 42
3.0
  3
architxt.shx
  4

  0
ENDTAB
  0
TABLE
  2
VIEW
  5
22
330
0
100
AcDbSymbolTable
 70
     0
  0
ENDTAB
  0
TABLE
  2
UCS
  5
23
330
0
100
AcDbSymbolTable
 70
     0
  0
ENDTAB
  0
TABLE
  2
APPID
  5
26
330
0
100
AcDbSymbolTable
 70
     1
  0
APPID
  5
1D
330
26
100
AcDbSymbolTableRecord
100
AcDbRegAppTableRecord
  2
ACAD
 70
     0
  0
ENDTAB
  0
TABLE
  2
DIMSTYLE
  5
27
330
0
100
AcDbSymbolTable
 70
     2
100
AcDbDimStyleTable
 71
     2
340
28
340
29
  0
DIMSTYLE
105
28
330
27
100
AcDbSymbolTableRecord
100
AcDbDimStyleTableRecord
  2
STANDARD
 70
     0
 41
0.125
 44
0.09375
143
1.0
170
     1
171
     4
179
     8
273
     5
274
     4
340
1C
  0
DIMSTYLE
105
29
330
27
100
AcDbSymbolTableRecord
100
AcDbDimStyleTableRecord
  2
ARCHITXT_WS
 70
     0
 40
24.0
 41
0.1875
 43
0.375
 44
0.1875
140
0.125
141
0.0625
147
0.0625
174
     1
271
     5
272
     5
276
     2
277
     4
340
2A
  0
ENDTAB
  0
TABLE
  2
BLOCK_RECORD
  5
1
330
0
100
AcDbSymbolTable
 70
     5
  0
BLOCK_RECORD
  5
2
102
{ACAD_XDICTIONARY
360
3
102
}
330
1
100
AcDbSymbolTableRecord
100
AcDbBlockTableRecord
  2
*MODEL_SPACE
340
C
  0
BLOCK_RECORD
  5
E
102
{ACAD_XDICTIONARY
360
F
102
}
330
1
100
AcDbSymbolTableRecord
100
AcDbBlockTableRecord
  2
*PAPER_SPACE
340
13
  0
BLOCK_RECORD
  5
10D
330
1
100
AcDbSymbolTableRecord
100
AcDbBlockTableRecord
  2
epdm
340
0
310
2800000020000000200000000100080000000000000400000000000000000000000000000000000000000000000080000080000000808000800000008000800080800000C0C0C000C0DCC000F0CAA6000020400000206000002080000020A0000020C0000020E00000400000004020000040400000406000004080000040A0
310
000040C0000040E00000600000006020000060400000606000006080000060A0000060C0000060E00000800000008020000080400000806000008080000080A0000080C0000080E00000A0000000A0200000A0400000A0600000A0800000A0A00000A0C00000A0E00000C0000000C0200000C0400000C0600000C0800000C0
310
A00000C0C00000C0E00000E0000000E0200000E0400000E0600000E0800000E0A00000E0C00000E0E00040000000400020004000400040006000400080004000A0004000C0004000E00040200000402020004020400040206000402080004020A0004020C0004020E000404000004040200040404000404060004040800040
310
40A0004040C0004040E00040600000406020004060400040606000406080004060A0004060C0004060E00040800000408020004080400040806000408080004080A0004080C0004080E00040A0000040A0200040A0400040A0600040A0800040A0A00040A0C00040A0E00040C0000040C0200040C0400040C0600040C08000
310
40C0A00040C0C00040C0E00040E0000040E0200040E0400040E0600040E0800040E0A00040E0C00040E0E00080000000800020008000400080006000800080008000A0008000C0008000E00080200000802020008020400080206000802080008020A0008020C0008020E00080400000804020008040400080406000804080
310
008040A0008040C0008040E00080600000806020008060400080606000806080008060A0008060C0008060E00080800000808020008080400080806000808080008080A0008080C0008080E00080A0000080A0200080A0400080A0600080A0800080A0A00080A0C00080A0E00080C0000080C0200080C0400080C0600080C0
310
800080C0A00080C0C00080C0E00080E0000080E0200080E0400080E0600080E0800080E0A00080E0C00080E0E000C0000000C0002000C0004000C0006000C0008000C000A000C000C000C000E000C0200000C0202000C0204000C0206000C0208000C020A000C020C000C020E000C0400000C0402000C0404000C0406000C0
310
408000C040A000C040C000C040E000C0600000C0602000C0604000C0606000C0608000C060A000C060C000C060E000C0800000C0802000C0804000C0806000C0808000C080A000C080C000C080E000C0A00000C0A02000C0A04000C0A06000C0A08000C0A0A000C0A0C000C0A0E000C0C00000C0C02000C0C04000C0C06000
310
C0C08000C0C0A000F0FBFF00A4A0A000808080000000FF0000FF000000FFFF00FF000000FF00FF00FFFF0000FFFFFF0000000000000000000000000000000000000000000000000000000000000000000000000000000000000000000000000000000000000000000000000000000000000000000000000000000000000000
310
00000000000000000000000000000000000000000000000000000000000000000000000000000000000000000000000000000000000000000000000000000000000000000000000000000000000000000000000000000000000000000000000000000000000000000000000000000000000000000000000000000000000000
310
00000000000000000000000000000000000000000000000000000000000000000000000000000000000000000000000000000000000000000000000000000000000000000000000000000000000000000000000000000000000000000000FFFCFCFCFCFCFFFF0000000000000000000000000000000000000000000000FFFF
310
FFFFFFFFFF00FFFF00000000000000000000000000000000000000000000FFFFFCFCFFFFFFFFFFFF00000000000000000000000000000000000000000000FCFC00FC00FFFF00FCFF000000000000000000000000000000000000000000000000FC00FFFF00FF00000000000000000000000000000000000000000000000000
310
00FCFFFF00FFFF00000000000000000000000000000000000000000000000000FCFFFF00FFFFFFFC00000000000000000000000000FFFFFFFFFFFFFFFCFCFCFCFCFF00FFFFFF00FCFCFCFCFCFCFCFCFCFCFCFC0000FFFFFFFFFFFFFFFFFFFFFFFF00FFFFFF00FFFFFFFFFFFFFFFFFFFFFFFFFF0000FFFFFFFFFFFFFFFFFFFF
310
FF00FFFFFF00FFFFFFFFFFFFFFFFFFFFFFFFFFFF0000FFFFFFFFFFFFFFFFFFFF00FFFFFFFFFFFFFFFFFFFFFFFFFFFFFFFFFFFFFF0000FFFF00FFFFFFFF00FF00FFFFFFFF00FF00FFFFFFFF00FF00FFFFFFFFFFFF0000FC00FFFCFFFC00FC00FFFCFFFC00FCFCFFFCFFFC00FFFCFFFCFFFCFFFFFC000000FCFCFFFC00FC00FC
310
FCFFFC00FC00FFFCFFFC00FCFCFFFCFFFC00FCFC0000000000000000000000000000000000000000000000000000000000000000000000000000000000000000000000000000000000000000000000000000000000000000000000000000000000000000000000000000000000000000000000000000000000000000000000
310
00000000000000000000000000000000000000000000000000000000000000000000000000000000000000000000000000000000000000000000000000000000000000000000000000000000000000000000000000000000000000000000000000000000000000000000000000000000000000000000000000000000000000
310
0000000000000000000000000000000000000000000000000000000000000000000000000000000000000000000000000000000000000000
102
{BLKREFS
331
10C
331
179
102
}
  0
BLOCK_RECORD
  5
47
330
1
100
AcDbSymbolTableRecord
100
AcDbBlockTableRecord
  2
purlin fin
340
0
310
2800000020000000200000000100080000000000000400000000000000000000000000000000000000000000000080000080000000808000800000008000800080800000C0C0C000C0DCC000F0CAA6000020400000206000002080000020A0000020C0000020E00000400000004020000040400000406000004080000040A0
310
000040C0000040E00000600000006020000060400000606000006080000060A0000060C0000060E00000800000008020000080400000806000008080000080A0000080C0000080E00000A0000000A0200000A0400000A0600000A0800000A0A00000A0C00000A0E00000C0000000C0200000C0400000C0600000C0800000C0
310
A00000C0C00000C0E00000E0000000E0200000E0400000E0600000E0800000E0A00000E0C00000E0E00040000000400020004000400040006000400080004000A0004000C0004000E00040200000402020004020400040206000402080004020A0004020C0004020E000404000004040200040404000404060004040800040
310
40A0004040C0004040E00040600000406020004060400040606000406080004060A0004060C0004060E00040800000408020004080400040806000408080004080A0004080C0004080E00040A0000040A0200040A0400040A0600040A0800040A0A00040A0C00040A0E00040C0000040C0200040C0400040C0600040C08000
310
40C0A00040C0C00040C0E00040E0000040E0200040E0400040E0600040E0800040E0A00040E0C00040E0E00080000000800020008000400080006000800080008000A0008000C0008000E00080200000802020008020400080206000802080008020A0008020C0008020E00080400000804020008040400080406000804080
310
008040A0008040C0008040E00080600000806020008060400080606000806080008060A0008060C0008060E00080800000808020008080400080806000808080008080A0008080C0008080E00080A0000080A0200080A0400080A0600080A0800080A0A00080A0C00080A0E00080C0000080C0200080C0400080C0600080C0
310
800080C0A00080C0C00080C0E00080E0000080E0200080E0400080E0600080E0800080E0A00080E0C00080E0E000C0000000C0002000C0004000C0006000C0008000C000A000C000C000C000E000C0200000C0202000C0204000C0206000C0208000C020A000C020C000C020E000C0400000C0402000C0404000C0406000C0
310
408000C040A000C040C000C040E000C0600000C0602000C0604000C0606000C0608000C060A000C060C000C060E000C0800000C0802000C0804000C0806000C0808000C080A000C080C000C080E000C0A00000C0A02000C0A04000C0A06000C0A08000C0A0A000C0A0C000C0A0E000C0C00000C0C02000C0C04000C0C06000
310
C0C08000C0C0A000F0FBFF00A4A0A000808080000000FF0000FF000000FFFF00FF000000FF00FF00FFFF0000FFFFFF000000000000000000000000000000000000000000000000000000000000000000000000000000FF000000000000000000000000000000000000FF000000000000000000000000FFFF00000000000000
310
00000000000000000000FF000000000000000000000000FFFF00000000000000000000000000000000FFFF000000000000000000000000FFFF00000000000000000000000000000000FFFF000000000000000000000000FFFF00000000000000000000000000000000FFFF000000000000000000000000FFFF000000000000
310
00000000000000000000FFFF000000000000000000000000FFFF00000000000000000000000000000000FFFF000000000000000000000000FFFF00000000000000000000000000000000FFFF000000000000000000000000FFFF00000000000000000000000000000000FFFF000000000000000000000000FFFF0000000000
310
0000000000000000000000FFFF000000000000000000000000FFFF00000000000000000000000000000000FFFF000000000000000000000000FFFF00000000000000000000000000000000FFFF000000000000000000000000FFFF00000000000000000000000000000000FFFF000000000000000000000000FFFF00000000
310
000000000000000000000000FFFF000000000000000000000000FFFF00000000000000000000000000000000FFFF000000000000000000000000FFFF00000000000000000000000000000000FFFF000000000000000000000000FFFFFFFFFFFFFFFFFFFFFFFFFFFFFFFFFFFFFFFF000000000000000000000000FF00000000
310
0000000000000000000000000000FF000000000000000000000000FFFFFFFF00FFFFFFFFFFFFFFFFFFFF00FFFFFFFF000000000000000000000000FFFF00FFFFFF000000FFFF000000FFFFFF00FFFF000000000000000000000000000000000000000000FFFF00000000000000000000000000000000000000000000000000
310
0000000000FFFF000000000000000000000000000000000000000000000000000000000000FFFF000000000000000000000000000000000000000000000000000000000000FFFF000000000000000000000000000000000000000000000000000000000000FFFF000000000000000000000000000000000000000000000000
310
000000000000FFFF000000000000000000000000000000000000000000000000000000000000FFFF000000000000000000000000000000000000000000000000000000000000FFFF000000000000000000000000000000000000000000000000000000000000FFFF0000000000000000000000000000000000000000000000
310
00000000000000FFFF0000000000000000000000000000000000000000000000000000000000000000000000000000000000000000000000
102
{BLKREFS
331
46
102
}
  0
BLOCK_RECORD
  5
A8
330
1
100
AcDbSymbolTableRecord
100
AcDbBlockTableRecord
  2
snap bottom
340
0
310
2800000020000000200000000100080000000000000400000000000000000000000000000000000000000000000080000080000000808000800000008000800080800000C0C0C000C0DCC000F0CAA6000020400000206000002080000020A0000020C0000020E00000400000004020000040400000406000004080000040A0
310
000040C0000040E00000600000006020000060400000606000006080000060A0000060C0000060E00000800000008020000080400000806000008080000080A0000080C0000080E00000A0000000A0200000A0400000A0600000A0800000A0A00000A0C00000A0E00000C0000000C0200000C0400000C0600000C0800000C0
310
A00000C0C00000C0E00000E0000000E0200000E0400000E0600000E0800000E0A00000E0C00000E0E00040000000400020004000400040006000400080004000A0004000C0004000E00040200000402020004020400040206000402080004020A0004020C0004020E000404000004040200040404000404060004040800040
310
40A0004040C0004040E00040600000406020004060400040606000406080004060A0004060C0004060E00040800000408020004080400040806000408080004080A0004080C0004080E00040A0000040A0200040A0400040A0600040A0800040A0A00040A0C00040A0E00040C0000040C0200040C0400040C0600040C08000
310
40C0A00040C0C00040C0E00040E0000040E0200040E0400040E0600040E0800040E0A00040E0C00040E0E00080000000800020008000400080006000800080008000A0008000C0008000E00080200000802020008020400080206000802080008020A0008020C0008020E00080400000804020008040400080406000804080
310
008040A0008040C0008040E00080600000806020008060400080606000806080008060A0008060C0008060E00080800000808020008080400080806000808080008080A0008080C0008080E00080A0000080A0200080A0400080A0600080A0800080A0A00080A0C00080A0E00080C0000080C0200080C0400080C0600080C0
310
800080C0A00080C0C00080C0E00080E0000080E0200080E0400080E0600080E0800080E0A00080E0C00080E0E000C0000000C0002000C0004000C0006000C0008000C000A000C000C000C000E000C0200000C0202000C0204000C0206000C0208000C020A000C020C000C020E000C0400000C0402000C0404000C0406000C0
310
408000C040A000C040C000C040E000C0600000C0602000C0604000C0606000C0608000C060A000C060C000C060E000C0800000C0802000C0804000C0806000C0808000C080A000C080C000C080E000C0A00000C0A02000C0A04000C0A06000C0A08000C0A0A000C0A0C000C0A0E000C0C00000C0C02000C0C04000C0C06000
310
C0C08000C0C0A000F0FBFF00A4A0A000808080000000FF0000FF000000FFFF00FF000000FF00FF00FFFF0000FFFFFF0000000000000000000000000000000000000000000000000000000000000000000000000000000000000000000000000000000000000000000000000000000000000000000000000000000000000000
310
00000000000000000000000000000000000000000000000000000000000000000000000000000000000000000000000000000000000000000000000000000000000000000000000000000000000000000000000000000000000000000000000000000000000000000000000000000000000000000000000000000000000000
310
00000000000000000000000000000000000000000000000000000000000000000000000000000000000000000000000000000000000000000000000000000000000000000000000000000000000000000000000000000000000000000000000000000000000000000000000000000000000000000000000000000000000000
310
0000000000000000000000000000000000000000FFFFFFFFFFFFFFFFFFFFFFFFFFFFFFFFFFFFFFFFFFFFFFFFFFFFFFFFFFFF0000FF00000000000000000000000000000000000000000000000000000000FF0000FFFFFFFFFFFFFFFFFFFFFFFFFFFFFFFFFFFFFFFFFFFFFFFFFFFFFFFFFFFF0000FFFF000000FF0000000000
310
00000000000000000000000000FF000000FFFF0000FFFF0000FFFF000000000000000000000000000000000000FFFF0000FFFF000000FF000000FF000000000000000000000000000000000000FF000000FF0000000000000000FF000000000000000000000000000000000000FF000000000000000000000000FF00000000
310
0000000000000000000000000000FF000000000000000000000000FF000000000000000000000000000000000000FF000000000000000000000000FF000000000000000000000000000000000000FF000000000000000000000000000000000000000000000000000000000000000000000000000000000000000000000000
310
00000000000000000000000000000000000000000000000000000000000000000000000000000000000000000000000000000000000000000000000000000000000000000000000000000000000000000000000000000000000000000000000000000000000000000000000000000000000000000000000000000000000000
310
00000000000000000000000000000000000000000000000000000000000000000000000000000000000000000000000000000000000000000000000000000000000000000000000000000000000000000000000000000000000000000000000000000000000000000000000000000000000000000000000000000000000000
310
0000000000000000000000000000000000000000000000000000000000000000000000000000000000000000000000000000000000000000
102
{BLKREFS
331
A7
102
}
  0
BLOCK_RECORD
  5
E2
330
1
100
AcDbSymbolTableRecord
100
AcDbBlockTableRecord
  2
*X3
340
0
102
{BLKREFS
331
E1
102
}
  0
BLOCK_RECORD
  5
DE
330
1
100
AcDbSymbolTableRecord
100
AcDbBlockTableRecord
  2
work point
340
0
310
2800000020000000200000000100080000000000000400000000000000000000000000000000000000000000000080000080000000808000800000008000800080800000C0C0C000C0DCC000F0CAA6000020400000206000002080000020A0000020C0000020E00000400000004020000040400000406000004080000040A0
310
000040C0000040E00000600000006020000060400000606000006080000060A0000060C0000060E00000800000008020000080400000806000008080000080A0000080C0000080E00000A0000000A0200000A0400000A0600000A0800000A0A00000A0C00000A0E00000C0000000C0200000C0400000C0600000C0800000C0
310
A00000C0C00000C0E00000E0000000E0200000E0400000E0600000E0800000E0A00000E0C00000E0E00040000000400020004000400040006000400080004000A0004000C0004000E00040200000402020004020400040206000402080004020A0004020C0004020E000404000004040200040404000404060004040800040
310
40A0004040C0004040E00040600000406020004060400040606000406080004060A0004060C0004060E00040800000408020004080400040806000408080004080A0004080C0004080E00040A0000040A0200040A0400040A0600040A0800040A0A00040A0C00040A0E00040C0000040C0200040C0400040C0600040C08000
310
40C0A00040C0C00040C0E00040E0000040E0200040E0400040E0600040E0800040E0A00040E0C00040E0E00080000000800020008000400080006000800080008000A0008000C0008000E00080200000802020008020400080206000802080008020A0008020C0008020E00080400000804020008040400080406000804080
310
008040A0008040C0008040E00080600000806020008060400080606000806080008060A0008060C0008060E00080800000808020008080400080806000808080008080A0008080C0008080E00080A0000080A0200080A0400080A0600080A0800080A0A00080A0C00080A0E00080C0000080C0200080C0400080C0600080C0
310
800080C0A00080C0C00080C0E00080E0000080E0200080E0400080E0600080E0800080E0A00080E0C00080E0E000C0000000C0002000C0004000C0006000C0008000C000A000C000C000C000E000C0200000C0202000C0204000C0206000C0208000C020A000C020C000C020E000C0400000C0402000C0404000C0406000C0
310
408000C040A000C040C000C040E000C0600000C0602000C0604000C0606000C0608000C060A000C060C000C060E000C0800000C0802000C0804000C0806000C0808000C080A000C080C000C080E000C0A00000C0A02000C0A04000C0A06000C0A08000C0A0A000C0A0C000C0A0E000C0C00000C0C02000C0C04000C0C06000
310
C0C08000C0C0A000F0FBFF00A4A0A000808080000000FF0000FF000000FFFF00FF000000FF00FF00FFFF0000FFFFFF000000000000000000000000000000000000000000000000000000000000000000000000000000000000000000000000FF00000000000000000000000000000000000000000000000000000000000000
310
FF00000000000000000000000000000000000000000000000000000000000000FF00000000000000000000000000000000000000000000000000000000000000FF00000000000000000000000000000000000000000000000000000000000000FF000000000000000000000000000000000000000000000000000000000000
310
00FF00000000000000000000000000000000000000000000000000000000000000FF00000000000000000000000000000000000000000000000000000000000000FF00000000000000000000000000000000000000000000000000000000000000FF0000000000000000000000000000000000000000000000000000000000
310
00FFFFFFFFFF00000000000000000000000000000000000000000000000000FFFF00FFFFFFFFFF0000000000000000000000000000000000000000000000FF000000FFFFFFFFFFFF000000000000000000000000000000000000000000FF00000000FFFFFFFFFFFFFF0000000000000000000000000000000000000000FF00
310
000000FFFFFFFFFFFFFF0000000000000000000000000000000000000000FF00000000FFFFFFFFFFFFFF0000000000000000000000FFFFFFFFFFFFFFFFFFFFFFFFFFFFFFFFFFFFFFFFFFFFFFFFFFFFFFFFFFFF0000000000000000000000FFFFFFFFFFFFFF00000000FF0000000000000000000000000000000000000000FF
310
FFFFFFFFFFFF00000000FF000000000000000000000000000000000000000000FFFFFFFFFFFF000000FF0000000000000000000000000000000000000000000000FFFFFFFFFF0000FF00000000000000000000000000000000000000000000000000FFFFFFFFFFFF0000000000000000000000000000000000000000000000
310
0000000000FF00000000000000000000000000000000000000000000000000000000000000FF00000000000000000000000000000000000000000000000000000000000000FF00000000000000000000000000000000000000000000000000000000000000FF00000000000000000000000000000000000000000000000000
310
000000000000FF00000000000000000000000000000000000000000000000000000000000000FF00000000000000000000000000000000000000000000000000000000000000FF00000000000000000000000000000000000000000000000000000000000000FF000000000000000000000000000000000000000000000000
310
00000000000000FF000000000000000000000000000000000000000000000000000000000000000000000000000000000000000000000000
102
{BLKREFS
331
DD
102
}
  0
ENDTAB
  0
ENDSEC
  0
SECTION
  2
BLOCKS
  0
BLOCK
  5
5
330
2
100
AcDbEntity
  8
0
100
AcDbBlockBegin
  2
*MODEL_SPACE
 70
     0
 10
0.0
 20
0.0
 30
0.0
  3
*MODEL_SPACE
  1

  0
ENDBLK
  5
B
330
2
100
AcDbEntity
  8
0
100
AcDbBlockEnd
  0
BLOCK
  5
11
330
E
100
AcDbEntity
 67
     1
  8
0
100
AcDbBlockBegin
  2
*PAPER_SPACE
 70
     0
 10
0.0
 20
0.0
 30
0.0
  3
*PAPER_SPACE
  1

  0
ENDBLK
  5
12
330
E
100
AcDbEntity
 67
     1
  8
0
100
AcDbBlockEnd
  0
BLOCK
  5
10E
330
10D
100
AcDbEntity
  8
0
100
AcDbBlockBegin
  2
epdm
 70
     0
 10
0.0
 20
0.0
 30
0.0
  3
epdm
  1

  0
LINE
  5
10F
330
10D
100
AcDbEntity
  8
5
100
AcDbLine
 10
-3.7342876288553
 20
5.081818992145358
 30
0.0
 11
-3.79070225244123
 21
5.062661067774548
 31
0.0
  0
LINE
  5
110
330
10D
100
AcDbEntity
  8
5
100
AcDbLine
 10
-3.904010361953952
 20
5.081818992145358
 30
0.0
 11
-3.847595738368022
 21
5.06266106777455
 31
0.0
  0
LINE
  5
111
330
10D
100
AcDbEntity
  8
0
 62
     0
100
AcDbLine
 10
-3.831085386472681
 20
5.062661067774548
 30
0.0
 11
-3.879509494485192
 21
5.111085175787058
 31
0.0
  0
LINE
  5
112
330
10D
100
AcDbEntity
  8
0
 62
     0
100
AcDbLine
 10
-3.84936330732429
 20
5.063261319096492
 30
0.0
 11
-3.904010361953945
 21
5.11790837372615
 31
0.0
  0
LINE
  5
113
330
10D
100
AcDbEntity
  8
0
 62
     0
100
AcDbLine
 10
-3.781259168532224
 20
5.065867858423082
 30
0.0
 11
-3.859784160816312
 21
5.14439285070717
 31
0.0
  0
LINE
  5
114
330
10D
100
AcDbEntity
  8
0
 62
     0
100
AcDbLine
 10
-3.795730047413352
 20
5.062661067774548
 30
0.0
 11
-3.84983420580229
 21
5.116765226163481
 31
0.0
  0
LINE
  5
115
330
10D
100
AcDbEntity
  8
0
 62
     0
100
AcDbLine
 10
-3.81340771694302
 20
5.062661067774548
 30
0.0
 11
-3.851618669269948
 21
5.100872020101476
 31
0.0
  0
LINE
  5
116
330
10D
100
AcDbEntity
  8
5
100
AcDbLine
 10
-3.79070225244123
 20
5.062661067774548
 30
0.0
 11
-3.847595738368022
 21
5.06266106777455
 31
0.0
  0
LINE
  5
117
330
10D
100
AcDbEntity
  8
5
100
AcDbLine
 10
-3.79532826093464
 20
5.097704922538818
 30
0.0
 11
-3.7342876288553
 21
5.120056985403987
 31
0.0
  0
LINE
  5
118
330
10D
100
AcDbEntity
  8
5
100
AcDbLine
 10
-3.764063546942781
 20
5.188416018424497
 30
0.0
 11
-3.79532826093464
 21
5.097704922538818
 31
0.0
  0
LINE
  5
119
330
10D
100
AcDbEntity
  8
0
 62
     0
100
AcDbLine
 10
-3.768062854535196
 20
5.070349213955719
 30
0.0
 11
-3.869734115830341
 21
5.172020475250858
 31
0.0
  0
LINE
  5
11A
330
10D
100
AcDbEntity
  8
5
100
AcDbLine
 10
-3.778175527431054
 20
5.288786934748507
 30
0.0
 11
-3.799020256880035
 21
5.308469012926966
 31
0.0
  0
LINE
  5
11B
330
10D
100
AcDbEntity
  8
0
 62
     0
100
AcDbLine
 10
-3.691675294177679
 20
5.188416018424497
 30
0.0
 11
-3.805556559643813
 21
5.302297283890631
 31
0.0
  0
LINE
  5
11C
330
10D
100
AcDbEntity
  8
0
 62
     0
100
AcDbLine
 10
-3.768164674788282
 20
5.176517051386785
 30
0.0
 11
-3.891522287447552
 21
5.299874664046056
 31
0.0
  0
LINE
  5
11D
330
10D
100
AcDbEntity
  8
0
 62
     0
100
AcDbLine
 10
-3.76238597229633
 20
5.188416018424497
 30
0.0
 11
-3.882429880218696
 21
5.308459926346861
 31
0.0
  0
LINE
  5
11E
330
10D
100
AcDbEntity
  8
0
 62
     0
100
AcDbLine
 10
-3.744708302766669
 20
5.188416018424497
 30
0.0
 11
-3.853085627160114
 21
5.296793342817942
 31
0.0
  0
LINE
  5
11F
330
10D
100
AcDbEntity
  8
0
 62
     0
100
AcDbLine
 10
-3.727030633237001
 20
5.188416018424497
 30
0.0
 11
-3.843993219931251
 21
5.305378605118747
 31
0.0
  0
LINE
  5
120
330
10D
100
AcDbEntity
  8
0
 62
     0
100
AcDbLine
 10
-3.70935296370734
 20
5.188416018424497
 30
0.0
 11
-3.814648966872669
 21
5.293712021589826
 31
0.0
  0
LINE
  5
121
330
10D
100
AcDbEntity
  8
0
 62
     0
100
AcDbLine
 10
-3.77722691889131
 20
5.150223956430487
 30
0.0
 11
-3.929958947734997
 21
5.30295598527417
 31
0.0
  0
LINE
  5
122
330
10D
100
AcDbEntity
  8
0
 62
     0
100
AcDbLine
 10
-3.7726957968398
 20
5.163370503908636
 30
0.0
 11
-3.900614694676415
 21
5.291289401745251
 31
0.0
  0
LINE
  5
123
330
10D
100
AcDbEntity
  8
0
 62
     0
100
AcDbLine
 10
-3.781758040942827
 20
5.13707740895234
 30
0.0
 11
-3.939051354963853
 21
5.294370722973365
 31
0.0
  0
LINE
  5
124
330
10D
100
AcDbEntity
  8
5
100
AcDbLine
 10
-4.069949034206496
 20
5.188416018424497
 30
0.0
 11
-4.069949034206496
 21
5.288896419438431
 31
0.0
  0
LINE
  5
125
330
10D
100
AcDbEntity
  8
0
 62
     0
100
AcDbLine
 10
-3.886129659003978
 20
5.188416018424495
 30
0.0
 11
-3.986580422480153
 21
5.288866781900674
 31
0.0
  0
LINE
  5
126
330
10D
100
AcDbEntity
  8
0
 62
     0
100
AcDbLine
 10
-3.903807328533639
 20
5.188416018424495
 30
0.0
 11
-4.015924675538736
 21
5.300533365429593
 31
0.0
  0
LINE
  5
127
330
10D
100
AcDbEntity
  8
0
 62
     0
100
AcDbLine
 10
-3.9214849980633
 20
5.188416018424495
 30
0.0
 11
-4.025017082767599
 21
5.291948103128788
 31
0.0
  0
LINE
  5
128
330
10D
100
AcDbEntity
  8
0
 62
     0
100
AcDbLine
 10
-3.939162667592968
 20
5.188416018424495
 30
0.0
 11
-4.054361335826181
 21
5.303614686657709
 31
0.0
  0
LINE
  5
129
330
10D
100
AcDbEntity
  8
0
 62
     0
100
AcDbLine
 10
-3.956840337122629
 20
5.188416018424495
 30
0.0
 11
-4.063453743055037
 21
5.295029424356904
 31
0.0
  0
LINE
  5
12A
330
10D
100
AcDbEntity
  8
0
 62
     0
100
AcDbLine
 10
-3.786289162994345
 20
5.123930861474189
 30
0.0
 11
-3.968395608022435
 21
5.306037306502284
 31
0.0
  0
LINE
  5
12B
330
10D
100
AcDbEntity
  8
0
 62
     0
100
AcDbLine
 10
-3.790820285045855
 20
5.110784313996042
 30
0.0
 11
-3.977488015251298
 21
5.297452044201479
 31
0.0
  0
LINE
  5
12C
330
10D
100
AcDbEntity
  8
5
100
AcDbLine
 10
-4.069949034206496
 20
5.188416018424497
 30
0.0
 11
-3.875638891202912
 21
5.188416018424497
 31
0.0
  0
LINE
  5
12D
330
10D
100
AcDbEntity
  8
0
 62
     0
100
AcDbLine
 10
-4.045228684770949
 20
5.188416018424497
 30
0.0
 11
-4.069949034206496
 21
5.213136367860041
 31
0.0
  0
LINE
  5
12E
330
10D
100
AcDbEntity
  8
0
 62
     0
100
AcDbLine
 10
-4.062906354300617
 20
5.188416018424497
 30
0.0
 11
-4.069949034206496
 21
5.195458698330378
 31
0.0
  0
LINE
  5
12F
330
10D
100
AcDbEntity
  8
0
 62
     0
100
AcDbLine
 10
-3.992195676181959
 20
5.188416018424495
 30
0.0
 11
-4.069949034206496
 21
5.266169376449033
 31
0.0
  0
LINE
  5
130
330
10D
100
AcDbEntity
  8
0
 62
     0
100
AcDbLine
 10
-4.00987334571162
 20
5.188416018424495
 30
0.0
 11
-4.069949034206496
 21
5.24849170691937
 31
0.0
  0
LINE
  5
131
330
10D
100
AcDbEntity
  8
0
 62
     0
100
AcDbLine
 10
-4.027551015241288
 20
5.188416018424495
 30
0.0
 11
-4.069949034206496
 21
5.230814037389706
 31
0.0
  0
LINE
  5
132
330
10D
100
AcDbEntity
  8
0
 62
     0
100
AcDbLine
 10
-3.974518006652298
 20
5.188416018424495
 30
0.0
 11
-4.069949034206496
 21
5.283847045978697
 31
0.0
  0
LINE
  5
133
330
10D
100
AcDbEntity
  8
5
100
AcDbLine
 10
-3.904010361953945
 20
5.120056985403987
 30
0.0
 11
-3.904010361953952
 21
5.081818992145358
 31
0.0
  0
LINE
  5
134
330
10D
100
AcDbEntity
  8
0
 62
     0
100
AcDbLine
 10
-3.876131085828612
 20
5.072351428071149
 30
0.0
 11
-3.904010361953945
 21
5.100230704196487
 31
0.0
  0
LINE
  5
135
330
10D
100
AcDbEntity
  8
0
 62
     0
100
AcDbLine
 10
-3.902898864332934
 20
5.081441537045806
 30
0.0
 11
-3.904010361953952
 21
5.082553034666823
 31
0.0
  0
LINE
  5
136
330
10D
100
AcDbEntity
  8
5
100
AcDbLine
 10
-3.842969729874612
 20
5.097704922538818
 30
0.0
 11
-3.904010361953945
 21
5.120056985403987
 31
0.0
  0
LINE
  5
137
330
10D
100
AcDbEntity
  8
5
100
AcDbLine
 10
-3.875638891202912
 20
5.188416018424497
 30
0.0
 11
-3.842969729874612
 21
5.097704922538818
 31
0.0
  0
LINE
  5
138
330
10D
100
AcDbEntity
  8
5
100
AcDbLine
 10
-3.944975527431056
 20
5.288786934748507
 30
0.0
 11
-3.96582025688003
 21
5.308469012926966
 31
0.0
  0
LINE
  5
139
330
10D
100
AcDbEntity
  8
5
100
AcDbLine
 10
-4.049220256880028
 20
5.308469012926966
 30
0.0
 11
-4.070064986329009
 21
5.288786934748507
 31
0.0
  0
LINE
  5
13A
330
10D
100
AcDbEntity
  8
5
100
AcDbLine
 10
-4.028375527431053
 20
5.288786934748507
 30
0.0
 11
-4.049220256880028
 21
5.308469012926966
 31
0.0
  0
LINE
  5
13B
330
10D
100
AcDbEntity
  8
5
100
AcDbLine
 10
-4.007520256880036
 20
5.308469012926966
 30
0.0
 11
-4.028364986329004
 21
5.288786934748507
 31
0.0
  0
LINE
  5
13C
330
10D
100
AcDbEntity
  8
5
100
AcDbLine
 10
-3.986675527431055
 20
5.288786934748507
 30
0.0
 11
-4.007520256880036
 21
5.308469012926966
 31
0.0
  0
LINE
  5
13D
330
10D
100
AcDbEntity
  8
5
100
AcDbLine
 10
-3.96582025688003
 20
5.308469012926966
 30
0.0
 11
-3.986664986329012
 21
5.288786934748507
 31
0.0
  0
LINE
  5
13E
330
10D
100
AcDbEntity
  8
5
100
AcDbLine
 10
-3.924120256880032
 20
5.308469012926966
 30
0.0
 11
-3.944964986329006
 21
5.288786934748507
 31
0.0
  0
LINE
  5
13F
330
10D
100
AcDbEntity
  8
5
100
AcDbLine
 10
-3.903275527431057
 20
5.288786934748507
 30
0.0
 11
-3.924120256880032
 21
5.308469012926966
 31
0.0
  0
LINE
  5
140
330
10D
100
AcDbEntity
  8
5
100
AcDbLine
 10
-3.882420256880033
 20
5.308469012926966
 30
0.0
 11
-3.903264986329007
 21
5.288786934748507
 31
0.0
  0
LINE
  5
141
330
10D
100
AcDbEntity
  8
5
100
AcDbLine
 10
-3.861575527431051
 20
5.288786934748507
 30
0.0
 11
-3.882420256880033
 21
5.308469012926966
 31
0.0
  0
LINE
  5
142
330
10D
100
AcDbEntity
  8
5
100
AcDbLine
 10
-3.840720256880027
 20
5.308469012926966
 30
0.0
 11
-3.861564986329009
 21
5.288786934748507
 31
0.0
  0
LINE
  5
143
330
10D
100
AcDbEntity
  8
5
100
AcDbLine
 10
-3.81987552743106
 20
5.288786934748507
 30
0.0
 11
-3.840720256880027
 21
5.308469012926966
 31
0.0
  0
LINE
  5
144
330
10D
100
AcDbEntity
  8
5
100
AcDbLine
 10
-3.799020256880035
 20
5.308469012926966
 30
0.0
 11
-3.81986498632901
 21
5.288786934748507
 31
0.0
  0
LINE
  5
145
330
10D
100
AcDbEntity
  8
5
100
AcDbLine
 10
-3.569675527431053
 20
5.188416018424497
 30
0.0
 11
-3.569675527431053
 21
5.288786934748507
 31
0.0
  0
LINE
  5
146
330
10D
100
AcDbEntity
  8
0
 62
     0
100
AcDbLine
 10
-3.569675527431053
 20
5.225515277444847
 30
0.0
 11
-3.642717511265184
 21
5.298557261278979
 31
0.0
  0
LINE
  5
147
330
10D
100
AcDbEntity
  8
0
 62
     0
100
AcDbLine
 10
-3.569675527431053
 20
5.243192946974511
 30
0.0
 11
-3.633625104036328
 21
5.307142523579784
 31
0.0
  0
LINE
  5
148
330
10D
100
AcDbEntity
  8
0
 62
     0
100
AcDbLine
 10
-3.569675527431053
 20
5.260870616504174
 30
0.0
 11
-3.604280850977739
 21
5.295475940050863
 31
0.0
  0
LINE
  5
149
330
10D
100
AcDbEntity
  8
0
 62
     0
100
AcDbLine
 10
-3.569675527431053
 20
5.278548286033839
 30
0.0
 11
-3.595188443748883
 21
5.304061202351668
 31
0.0
  0
LINE
  5
14A
330
10D
100
AcDbEntity
  8
0
 62
     0
100
AcDbLine
 10
-3.673997624648011
 20
5.188416018424497
 30
0.0
 11
-3.776212306585231
 21
5.290630700361711
 31
0.0
  0
LINE
  5
14B
330
10D
100
AcDbEntity
  8
0
 62
     0
100
AcDbLine
 10
-3.65631995511835
 20
5.188416018424497
 30
0.0
 11
-3.767119899356368
 21
5.299215962662518
 31
0.0
  0
LINE
  5
14C
330
10D
100
AcDbEntity
  8
0
 62
     0
100
AcDbLine
 10
-3.638642285588682
 20
5.188416018424497
 30
0.0
 11
-3.758027492127512
 21
5.307801224963323
 31
0.0
  0
LINE
  5
14D
330
10D
100
AcDbEntity
  8
0
 62
     0
100
AcDbLine
 10
-3.620964616059021
 20
5.188416018424497
 30
0.0
 11
-3.72868323906893
 21
5.296134641434402
 31
0.0
  0
LINE
  5
14E
330
10D
100
AcDbEntity
  8
0
 62
     0
100
AcDbLine
 10
-3.60328694652936
 20
5.188416018424497
 30
0.0
 11
-3.719590831840067
 21
5.304719903735207
 31
0.0
  0
LINE
  5
14F
330
10D
100
AcDbEntity
  8
0
 62
     0
100
AcDbLine
 10
-3.585609276999692
 20
5.188416018424497
 30
0.0
 11
-3.690246578781485
 21
5.293053320206288
 31
0.0
  0
LINE
  5
150
330
10D
100
AcDbEntity
  8
0
 62
     0
100
AcDbLine
 10
-3.569675527431053
 20
5.190159938385519
 30
0.0
 11
-3.681154171552629
 21
5.301638582507093
 31
0.0
  0
LINE
  5
151
330
10D
100
AcDbEntity
  8
0
 62
     0
100
AcDbLine
 10
-3.569675527431053
 20
5.207837607915184
 30
0.0
 11
-3.651809918494047
 21
5.289971998978174
 31
0.0
  0
LINE
  5
152
330
10D
100
AcDbEntity
  8
5
100
AcDbLine
 10
-3.569675527431053
 20
5.188416018424497
 30
0.0
 11
-3.764063546942781
 21
5.188416018424497
 31
0.0
  0
LINE
  5
153
330
10D
100
AcDbEntity
  8
5
100
AcDbLine
 10
-3.7342876288553
 20
5.120056985403987
 30
0.0
 11
-3.7342876288553
 21
5.081818992145358
 31
0.0
  0
LINE
  5
154
330
10D
100
AcDbEntity
  8
0
 62
     0
100
AcDbLine
 10
-3.7342876288553
 20
5.107284666394475
 30
0.0
 11
-3.74363653436769
 21
5.116633571906861
 31
0.0
  0
LINE
  5
155
330
10D
100
AcDbEntity
  8
0
 62
     0
100
AcDbLine
 10
-3.7342876288553
 20
5.089606996864812
 30
0.0
 11
-3.756575990545451
 21
5.111895358554965
 31
0.0
  0
LINE
  5
156
330
10D
100
AcDbEntity
  8
0
 62
     0
100
AcDbLine
 10
-3.741670226541147
 20
5.079311925020995
 30
0.0
 11
-3.76951544672322
 21
5.107157145203068
 31
0.0
  0
LINE
  5
157
330
10D
100
AcDbEntity
  8
0
 62
     0
100
AcDbLine
 10
-3.754866540538175
 20
5.074830569488357
 30
0.0
 11
-3.782454902900989
 21
5.102418931851172
 31
0.0
  0
LINE
  5
158
330
10D
100
AcDbEntity
  8
5
100
AcDbLine
 10
-3.611375527431059
 20
5.288786934748507
 30
0.0
 11
-3.632220256880033
 21
5.308469012926966
 31
0.0
  0
LINE
  5
159
330
10D
100
AcDbEntity
  8
5
100
AcDbLine
 10
-3.75732025688003
 20
5.308469012926966
 30
0.0
 11
-3.778164986329011
 21
5.288786934748507
 31
0.0
  0
LINE
  5
15A
330
10D
100
AcDbEntity
  8
5
100
AcDbLine
 10
-3.736475527431055
 20
5.288786934748507
 30
0.0
 11
-3.75732025688003
 21
5.308469012926966
 31
0.0
  0
LINE
  5
15B
330
10D
100
AcDbEntity
  8
5
100
AcDbLine
 10
-3.715620256880031
 20
5.308469012926966
 30
0.0
 11
-3.736464986329005
 21
5.288786934748507
 31
0.0
  0
LINE
  5
15C
330
10D
100
AcDbEntity
  8
5
100
AcDbLine
 10
-3.694775527431056
 20
5.288786934748507
 30
0.0
 11
-3.715620256880031
 21
5.308469012926966
 31
0.0
  0
LINE
  5
15D
330
10D
100
AcDbEntity
  8
5
100
AcDbLine
 10
-3.673920256880032
 20
5.308469012926966
 30
0.0
 11
-3.694764986329007
 21
5.288786934748507
 31
0.0
  0
LINE
  5
15E
330
10D
100
AcDbEntity
  8
5
100
AcDbLine
 10
-3.653075527431051
 20
5.288786934748507
 30
0.0
 11
-3.673920256880032
 21
5.308469012926966
 31
0.0
  0
LINE
  5
15F
330
10D
100
AcDbEntity
  8
5
100
AcDbLine
 10
-3.632220256880033
 20
5.308469012926966
 30
0.0
 11
-3.653064986329008
 21
5.288786934748507
 31
0.0
  0
LINE
  5
160
330
10D
100
AcDbEntity
  8
5
100
AcDbLine
 10
-3.590520256880035
 20
5.308469012926966
 30
0.0
 11
-3.611364986329009
 21
5.288786934748507
 31
0.0
  0
LINE
  5
161
330
10D
100
AcDbEntity
  8
5
100
AcDbLine
 10
-3.569675527431053
 20
5.288786934748507
 30
0.0
 11
-3.590520256880035
 21
5.308469012926966
 31
0.0
  0
LINE
  5
162
330
10D
100
AcDbEntity
  8
5
100
AcDbLine
 10
-3.590520256880035
 20
5.308469012926966
 30
0.0
 11
-3.611364986329009
 21
5.288786934748507
 31
0.0
  0
LINE
  5
163
330
10D
100
AcDbEntity
  8
5
100
AcDbLine
 10
-3.569675527431053
 20
5.288786934748507
 30
0.0
 11
-3.590520256880035
 21
5.308469012926966
 31
0.0
  0
LINE
  5
164
330
10D
100
AcDbEntity
  8
5
100
AcDbLine
 10
-3.590520256880035
 20
5.308469012926966
 30
0.0
 11
-3.611364986329009
 21
5.288786934748507
 31
0.0
  0
LINE
  5
165
330
10D
100
AcDbEntity
  8
5
100
AcDbLine
 10
-3.569675527431053
 20
5.288786934748507
 30
0.0
 11
-3.590520256880035
 21
5.308469012926966
 31
0.0
  0
LINE
  5
166
330
10D
100
AcDbEntity
  8
5
100
AcDbLine
 10
-3.590520256880035
 20
5.308469012926966
 30
0.0
 11
-3.611364986329009
 21
5.288786934748507
 31
0.0
  0
LINE
  5
167
330
10D
100
AcDbEntity
  8
5
100
AcDbLine
 10
-3.569675527431053
 20
5.288786934748507
 30
0.0
 11
-3.590520256880035
 21
5.308469012926966
 31
0.0
  0
LINE
  5
168
330
10D
100
AcDbEntity
  8
5
100
AcDbLine
 10
-3.590520256880035
 20
5.308469012926966
 30
0.0
 11
-3.611364986329009
 21
5.288786934748507
 31
0.0
  0
LINE
  5
169
330
10D
100
AcDbEntity
  8
5
100
AcDbLine
 10
-3.569675527431053
 20
5.288786934748507
 30
0.0
 11
-3.590520256880035
 21
5.308469012926966
 31
0.0
  0
LINE
  5
16A
330
10D
100
AcDbEntity
  8
5
100
AcDbLine
 10
-3.590520256880035
 20
5.308469012926966
 30
0.0
 11
-3.611364986329009
 21
5.288786934748507
 31
0.0
  0
LINE
  5
16B
330
10D
100
AcDbEntity
  8
5
100
AcDbLine
 10
-3.569675527431053
 20
5.288786934748507
 30
0.0
 11
-3.590520256880035
 21
5.308469012926966
 31
0.0
  0
LINE
  5
16C
330
10D
100
AcDbEntity
  8
5
100
AcDbLine
 10
-3.590520256880035
 20
5.308469012926966
 30
0.0
 11
-3.611364986329009
 21
5.288786934748507
 31
0.0
  0
LINE
  5
16D
330
10D
100
AcDbEntity
  8
5
100
AcDbLine
 10
-3.569675527431053
 20
5.288786934748507
 30
0.0
 11
-3.590520256880035
 21
5.308469012926966
 31
0.0
  0
LINE
  5
16E
330
10D
100
AcDbEntity
  8
5
100
AcDbLine
 10
-3.590520256880035
 20
5.308469012926966
 30
0.0
 11
-3.611364986329009
 21
5.288786934748507
 31
0.0
  0
LINE
  5
16F
330
10D
100
AcDbEntity
  8
5
100
AcDbLine
 10
-3.569675527431053
 20
5.288786934748507
 30
0.0
 11
-3.590520256880035
 21
5.308469012926966
 31
0.0
  0
LINE
  5
170
330
10D
100
AcDbEntity
  8
5
100
AcDbLine
 10
-3.590520256880035
 20
5.308469012926966
 30
0.0
 11
-3.611364986329009
 21
5.288786934748507
 31
0.0
  0
LINE
  5
171
330
10D
100
AcDbEntity
  8
5
100
AcDbLine
 10
-3.569675527431053
 20
5.288786934748507
 30
0.0
 11
-3.590520256880035
 21
5.308469012926966
 31
0.0
  0
LINE
  5
172
330
10D
100
AcDbEntity
  8
5
100
AcDbLine
 10
-3.590520256880035
 20
5.308469012926966
 30
0.0
 11
-3.611364986329009
 21
5.288786934748507
 31
0.0
  0
LINE
  5
173
330
10D
100
AcDbEntity
  8
5
100
AcDbLine
 10
-3.569675527431053
 20
5.288786934748507
 30
0.0
 11
-3.590520256880035
 21
5.308469012926966
 31
0.0
  0
LINE
  5
174
330
10D
100
AcDbEntity
  8
5
100
AcDbLine
 10
-3.590520256880035
 20
5.308469012926966
 30
0.0
 11
-3.611364986329009
 21
5.288786934748507
 31
0.0
  0
LINE
  5
175
330
10D
100
AcDbEntity
  8
5
100
AcDbLine
 10
-3.569675527431053
 20
5.288786934748507
 30
0.0
 11
-3.590520256880035
 21
5.308469012926966
 31
0.0
  0
LINE
  5
176
330
10D
100
AcDbEntity
  8
5
100
AcDbLine
 10
-3.590520256880035
 20
5.308469012926966
 30
0.0
 11
-3.611364986329009
 21
5.288786934748507
 31
0.0
  0
LINE
  5
177
330
10D
100
AcDbEntity
  8
5
100
AcDbLine
 10
-3.569675527431053
 20
5.288786934748507
 30
0.0
 11
-3.590520256880035
 21
5.308469012926966
 31
0.0
  0
ENDBLK
  5
178
330
10D
100
AcDbEntity
  8
0
100
AcDbBlockEnd
  0
BLOCK
  5
48
330
47
100
AcDbEntity
  8
0
 62
     0
100
AcDbBlockBegin
  2
purlin fin
 70
     0
 10
0.0
 20
0.0
 30
0.0
  3
purlin fin
  1

  0
LINE
  5
49
330
47
100
AcDbEntity
  8
0
  6
Continuous
 62
     0
100
AcDbLine
 10
4.887215926865481
 20
-49.52591724314613
 30
0.0
 11
4.887215926865481
 21
-49.94291724314613
 31
0.0
  0
LINE
  5
4A
330
47
100
AcDbEntity
  8
0
  6
Continuous
 62
     0
100
AcDbLine
 10
2.887215926865481
 20
-49.52591724314613
 30
0.0
 11
2.887215926865481
 21
-49.94291724314613
 31
0.0
  0
LINE
  5
4B
330
47
100
AcDbEntity
  8
0
  6
Continuous
 62
     0
100
AcDbLine
 10
3.012215926865481
 20
-48.33991724314614
 30
0.0
 11
3.012215926865481
 21
-49.64091724314613
 31
0.0
  0
LINE
  5
4C
330
47
100
AcDbEntity
  8
0
  6
Continuous
 62
     0
100
AcDbLine
 10
4.762215926865481
 20
-48.33991724314614
 30
0.0
 11
4.762215926865481
 21
-49.64091724314613
 31
0.0
  0
ARC
  5
4D
330
47
100
AcDbEntity
  8
0
  6
Continuous
 62
     0
100
AcDbCircle
 10
3.012215926865481
 20
-49.70291724314613
 30
0.0
 40
0.062
100
AcDbArc
 50
90.00000000000019
 51
269.0605377690504
  0
ARC
  5
4E
330
47
100
AcDbEntity
  8
0
  6
Continuous
 62
     0
100
AcDbCircle
 10
2.897215926865481
 20
-49.94291724314613
 30
0.0
 40
0.01
100
AcDbArc
 50
180.0
 51
270.0000000000135
  0
ARC
  5
4F
330
47
100
AcDbEntity
  8
0
  6
Continuous
 62
     0
100
AcDbCircle
 10
2.911034977793034
 20
-49.94291724314614
 30
0.0
 40
0.01
100
AcDbArc
 50
270.0
 51
333.439999999999
  0
LINE
  5
50
330
47
100
AcDbEntity
  8
0
  6
Continuous
 62
     0
100
AcDbLine
 10
2.911034977793034
 20
-49.95291724314613
 30
0.0
 11
2.897215926865484
 21
-49.95291724314612
 31
0.0
  0
LINE
  5
51
330
47
100
AcDbEntity
  8
0
  6
Continuous
 62
     0
100
AcDbLine
 10
2.919979643930309
 20
-49.94738859055968
 30
0.0
 11
3.011199376451242
 21
-49.76490890891867
 31
0.0
  0
LINE
  5
52
330
47
100
AcDbEntity
  8
0
  6
Continuous
 62
     0
100
AcDbLine
 10
4.854452209800653
 20
-49.94738859055968
 30
0.0
 11
4.76323247727972
 21
-49.76490890891867
 31
0.0
  0
LINE
  5
53
330
47
100
AcDbEntity
  8
0
  6
Continuous
 62
     0
100
AcDbLine
 10
4.863396875937928
 20
-49.95291724314613
 30
0.0
 11
4.877215926865479
 21
-49.95291724314612
 31
0.0
  0
ARC
  5
54
330
47
100
AcDbEntity
  8
0
  6
Continuous
 62
     0
100
AcDbCircle
 10
4.863396875937928
 20
-49.94291724314614
 30
0.0
 40
0.01
100
AcDbArc
 50
206.560000000001
 51
270.0
  0
ARC
  5
55
330
47
100
AcDbEntity
  8
0
  6
Continuous
 62
     0
100
AcDbCircle
 10
4.877215926865481
 20
-49.94291724314613
 30
0.0
 40
0.01
100
AcDbArc
 50
269.9999999999865
 51
0.0000000000000064
  0
ARC
  5
56
330
47
100
AcDbEntity
  8
0
  6
Continuous
 62
     0
100
AcDbCircle
 10
4.762215926865481
 20
-49.70291724314613
 30
0.0
 40
0.062
100
AcDbArc
 50
270.9394622309496
 51
89.9999999999998
  0
LINE
  5
57
330
47
100
AcDbEntity
  8
0
  6
Continuous
 62
     0
100
AcDbLine
 10
3.397215926865481
 20
-48.20491724314614
 30
0.0
 11
3.814715926865481
 21
-48.20491724314615
 31
0.0
  0
LINE
  5
58
330
47
100
AcDbEntity
  8
0
  6
Continuous
 62
     0
100
AcDbLine
 10
3.022215926865481
 20
-48.32991724314614
 30
0.0
 11
4.752215926865481
 21
-48.32991724314616
 31
0.0
  0
LINE
  5
59
330
47
100
AcDbEntity
  8
0
  6
Continuous
 62
     0
100
AcDbLine
 10
3.037215926865481
 20
-48.12991724314614
 30
0.0
 11
3.074715926865481
 21
-48.12991724314614
 31
0.0
  0
LINE
  5
5A
330
47
100
AcDbEntity
  8
0
  6
Continuous
 62
     0
100
AcDbLine
 10
3.199715926865481
 20
-48.12991724314614
 30
0.0
 11
3.237215926865481
 21
-48.12991724314615
 31
0.0
  0
ARC
  5
5B
330
47
100
AcDbEntity
  8
0
  6
Continuous
 62
     0
100
AcDbCircle
 10
3.137215926865481
 20
-48.04791724314614
 30
0.0
 40
0.188
100
AcDbArc
 50
237.8650719958524
 51
302.1349280041475
  0
LINE
  5
5C
330
47
100
AcDbEntity
  8
0
  6
Continuous
 62
     0
100
AcDbLine
 10
3.037215926865481
 20
-48.12991724314614
 30
0.0
 11
3.037215926865481
 21
-48.2071152330832
 31
0.0
  0
LINE
  5
5D
330
47
100
AcDbEntity
  8
0
  6
Continuous
 62
     0
100
AcDbLine
 10
3.237215926865481
 20
-48.12991724314615
 30
0.0
 11
3.237215926865481
 21
-48.2071152330832
 31
0.0
  0
ARC
  5
5E
330
47
100
AcDbEntity
  8
0
  6
Continuous
 62
     0
100
AcDbCircle
 10
3.231715926865481
 20
-48.11191724314614
 30
0.0
 40
0.032
100
AcDbArc
 50
90.0
 51
180.0
  0
LINE
  5
5F
330
47
100
AcDbEntity
  8
0
  6
Continuous
 62
     0
100
AcDbLine
 10
3.199715926865481
 20
-48.11191724314614
 30
0.0
 11
3.199715926865481
 21
-48.12991724314614
 31
0.0
  0
ARC
  5
60
330
47
100
AcDbEntity
  8
0
  6
Continuous
 62
     0
100
AcDbCircle
 10
3.042715926865481
 20
-48.11191724314613
 30
0.0
 40
0.032
100
AcDbArc
 50
0.0
 51
90.0
  0
LINE
  5
61
330
47
100
AcDbEntity
  8
0
  6
Continuous
 62
     0
100
AcDbLine
 10
3.074715926865481
 20
-48.11191724314613
 30
0.0
 11
3.074715926865481
 21
-48.12991724314614
 31
0.0
  0
ARC
  5
62
330
47
100
AcDbEntity
  8
0
  6
Continuous
 62
     0
100
AcDbCircle
 10
3.022215926865481
 20
-48.33991724314614
 30
0.0
 40
0.01
100
AcDbArc
 50
89.99999999999934
 51
180.0
  0
ARC
  5
63
330
47
100
AcDbEntity
  8
0
  6
Continuous
 62
     0
100
AcDbCircle
 10
3.397215926865481
 20
-48.19491724314613
 30
0.0
 40
0.01
100
AcDbArc
 50
180.0
 51
269.9999999999989
  0
ARC
  5
64
330
47
100
AcDbEntity
  8
0
  6
Continuous
 62
     0
100
AcDbCircle
 10
2.897215926865481
 20
-48.08991724314614
 30
0.0
 40
0.01
100
AcDbArc
 50
90.00000000000261
 51
180.0
  0
LINE
  5
65
330
47
100
AcDbEntity
  8
0
  6
Continuous
 62
     0
100
AcDbLine
 10
2.897215926865481
 20
-48.07991724314614
 30
0.0
 11
3.042715926865481
 21
-48.07991724314613
 31
0.0
  0
ARC
  5
66
330
47
100
AcDbEntity
  8
0
  6
Continuous
 62
     0
100
AcDbCircle
 10
3.377215926865481
 20
-48.08991724314615
 30
0.0
 40
0.01
100
AcDbArc
 50
0.0
 51
90.0
  0
LINE
  5
67
330
47
100
AcDbEntity
  8
0
  6
Continuous
 62
     0
100
AcDbLine
 10
3.387215926865481
 20
-48.08991724314615
 30
0.0
 11
3.387215926865481
 21
-48.19491724314613
 31
0.0
  0
LINE
  5
68
330
47
100
AcDbEntity
  8
0
  6
Continuous
 62
     0
100
AcDbLine
 10
3.231715926865481
 20
-48.07991724314614
 30
0.0
 11
3.377215926865481
 21
-48.07991724314614
 31
0.0
  0
LINE
  5
69
330
47
100
AcDbEntity
  8
0
  6
Continuous
 62
     0
100
AcDbLine
 10
2.897215926865481
 20
-49.51591724314614
 30
0.0
 11
2.887215926865481
 21
-49.52591724314613
 31
0.0
  0
LINE
  5
6A
330
47
100
AcDbEntity
  8
0
  6
Continuous
 62
     0
100
AcDbLine
 10
2.897215926865481
 20
-49.51591724314614
 30
0.0
 11
2.887215926865481
 21
-49.50591724314615
 31
0.0
  0
LINE
  5
6B
330
47
100
AcDbEntity
  8
0
  6
Continuous
 62
     0
100
AcDbLine
 10
2.887215926865481
 20
-48.08991724314614
 30
0.0
 11
2.887215926865481
 21
-49.50591724314615
 31
0.0
  0
LINE
  5
6C
330
47
100
AcDbEntity
  8
0
  6
Continuous
 62
     0
100
AcDbLine
 10
3.949715926865481
 20
-47.44491724314617
 30
0.0
 11
3.949715926865481
 21
-47.09191724314614
 31
0.0
  0
LINE
  5
6D
330
47
100
AcDbEntity
  8
0
  6
Continuous
 62
     0
100
AcDbLine
 10
3.834715926865481
 20
-47.08191724314613
 30
0.0
 11
3.939715926865481
 21
-47.08191724314614
 31
0.0
  0
ARC
  5
6E
330
47
100
AcDbEntity
  8
0
  6
Continuous
 62
     0
100
AcDbCircle
 10
3.939715926865481
 20
-47.09191724314614
 30
0.0
 40
0.01
100
AcDbArc
 50
0.0
 51
89.99999999999646
  0
LINE
  5
6F
330
47
100
AcDbEntity
  8
0
  6
Continuous
 62
     0
100
AcDbLine
 10
3.824715926865481
 20
-47.44491724314618
 30
0.0
 11
3.824715926865481
 21
-47.09191724314613
 31
0.0
  0
ARC
  5
70
330
47
100
AcDbEntity
  8
0
  6
Continuous
 62
     0
100
AcDbCircle
 10
3.834715926865481
 20
-47.09191724314613
 30
0.0
 40
0.01
100
AcDbArc
 50
90.0
 51
180.0
  0
LINE
  5
71
330
47
100
AcDbEntity
  8
0
  6
Continuous
 62
     0
100
AcDbLine
 10
3.95971592686548
 20
-48.20491724314614
 30
0.0
 11
4.377215926865481
 21
-48.20491724314615
 31
0.0
  0
LINE
  5
72
330
47
100
AcDbEntity
  8
0
  6
Continuous
 62
     0
100
AcDbLine
 10
3.94971592686548
 20
-48.19491724314614
 30
0.0
 11
3.949715926865481
 21
-47.77731274101898
 31
0.0
  0
ARC
  5
73
330
47
100
AcDbEntity
  8
0
  6
Continuous
 62
     0
100
AcDbCircle
 10
3.95971592686548
 20
-48.19491724314614
 30
0.0
 40
0.01
100
AcDbArc
 50
180.0
 51
269.999999999999
  0
LINE
  5
74
330
47
100
AcDbEntity
  8
0
  6
Continuous
 62
     0
100
AcDbLine
 10
3.824715926865481
 20
-48.19491724314615
 30
0.0
 11
3.824715926865481
 21
-47.77731274101895
 31
0.0
  0
ARC
  5
75
330
47
100
AcDbEntity
  8
0
  6
Continuous
 62
     0
100
AcDbCircle
 10
3.814715926865481
 20
-48.19491724314615
 30
0.0
 40
0.01
100
AcDbArc
 50
269.9999999999991
 51
360.0
  0
LINE
  5
76
330
47
100
AcDbEntity
  8
0
  6
Continuous
 62
     0
100
AcDbLine
 10
3.824715926865481
 20
-47.75731274101898
 30
0.0
 11
3.824715926865481
 21
-47.46491724314618
 31
0.0
  0
LINE
  5
77
330
47
100
AcDbEntity
  8
0
  6
Continuous
 62
     0
100
AcDbLine
 10
3.834715926865471
 20
-47.45491724314617
 30
0.0
 11
3.824715926865472
 21
-47.44491724314617
 31
0.0
  0
LINE
  5
78
330
47
100
AcDbEntity
  8
0
  6
Continuous
 62
     0
100
AcDbLine
 10
3.834715926865471
 20
-47.45491724314617
 30
0.0
 11
3.824715926865486
 21
-47.46491724314618
 31
0.0
  0
LINE
  5
79
330
47
100
AcDbEntity
  8
0
  6
Continuous
 62
     0
100
AcDbLine
 10
3.834715926865451
 20
-47.76731274101896
 30
0.0
 11
3.824715926865465
 21
-47.77731274101897
 31
0.0
  0
LINE
  5
7A
330
47
100
AcDbEntity
  8
0
  6
Continuous
 62
     0
100
AcDbLine
 10
3.834715926865451
 20
-47.76731274101895
 30
0.0
 11
3.824715926865451
 21
-47.75731274101896
 31
0.0
  0
LINE
  5
7B
330
47
100
AcDbEntity
  8
0
  6
Continuous
 62
     0
100
AcDbLine
 10
3.824715926865464
 20
-47.75731274101898
 30
0.0
 11
3.824715926865471
 21
-47.4649172431462
 31
0.0
  0
LINE
  5
7C
330
47
100
AcDbEntity
  8
0
  6
Continuous
 62
     0
100
AcDbLine
 10
3.949715926865481
 20
-47.75731274101898
 30
0.0
 11
3.949715926865481
 21
-47.4649172431462
 31
0.0
  0
LINE
  5
7D
330
47
100
AcDbEntity
  8
0
  6
Continuous
 62
     0
100
AcDbLine
 10
3.939715926865494
 20
-47.76731274101895
 30
0.0
 11
3.949715926865493
 21
-47.75731274101896
 31
0.0
  0
LINE
  5
7E
330
47
100
AcDbEntity
  8
0
  6
Continuous
 62
     0
100
AcDbLine
 10
3.939715926865494
 20
-47.76731274101896
 30
0.0
 11
3.949715926865479
 21
-47.77731274101897
 31
0.0
  0
LINE
  5
7F
330
47
100
AcDbEntity
  8
0
  6
Continuous
 62
     0
100
AcDbLine
 10
3.939715926865481
 20
-47.45491724314617
 30
0.0
 11
3.949715926865467
 21
-47.46491724314618
 31
0.0
  0
LINE
  5
80
330
47
100
AcDbEntity
  8
0
  6
Continuous
 62
     0
100
AcDbLine
 10
3.939715926865481
 20
-47.45491724314617
 30
0.0
 11
3.949715926865481
 21
-47.44491724314617
 31
0.0
  0
LINE
  5
81
330
47
100
AcDbEntity
  8
0
  6
Continuous
 62
     0
100
AcDbLine
 10
4.699715926865481
 20
-48.11191724314613
 30
0.0
 11
4.699715926865481
 21
-48.12991724314614
 31
0.0
  0
ARC
  5
82
330
47
100
AcDbEntity
  8
0
  6
Continuous
 62
     0
100
AcDbCircle
 10
4.731715926865481
 20
-48.11191724314613
 30
0.0
 40
0.032
100
AcDbArc
 50
90.0
 51
180.0
  0
LINE
  5
83
330
47
100
AcDbEntity
  8
0
  6
Continuous
 62
     0
100
AcDbLine
 10
4.574715926865481
 20
-48.11191724314614
 30
0.0
 11
4.574715926865481
 21
-48.12991724314614
 31
0.0
  0
ARC
  5
84
330
47
100
AcDbEntity
  8
0
  6
Continuous
 62
     0
100
AcDbCircle
 10
4.542715926865481
 20
-48.11191724314614
 30
0.0
 40
0.032
100
AcDbArc
 50
0.0000000000000064
 51
90.0
  0
LINE
  5
85
330
47
100
AcDbEntity
  8
0
  6
Continuous
 62
     0
100
AcDbLine
 10
4.537215926865481
 20
-48.12991724314615
 30
0.0
 11
4.537215926865481
 21
-48.2071152330832
 31
0.0
  0
LINE
  5
86
330
47
100
AcDbEntity
  8
0
  6
Continuous
 62
     0
100
AcDbLine
 10
4.737215926865481
 20
-48.12991724314614
 30
0.0
 11
4.737215926865481
 21
-48.2071152330832
 31
0.0
  0
ARC
  5
87
330
47
100
AcDbEntity
  8
0
  6
Continuous
 62
     0
100
AcDbCircle
 10
4.637215926865481
 20
-48.04791724314614
 30
0.0
 40
0.188
100
AcDbArc
 50
237.8650719958525
 51
302.1349280041476
  0
LINE
  5
88
330
47
100
AcDbEntity
  8
0
  6
Continuous
 62
     0
100
AcDbLine
 10
4.574715926865481
 20
-48.12991724314614
 30
0.0
 11
4.537215926865481
 21
-48.12991724314615
 31
0.0
  0
LINE
  5
89
330
47
100
AcDbEntity
  8
0
  6
Continuous
 62
     0
100
AcDbLine
 10
4.737215926865481
 20
-48.12991724314614
 30
0.0
 11
4.699715926865481
 21
-48.12991724314614
 31
0.0
  0
ARC
  5
8A
330
47
100
AcDbEntity
  8
0
  6
Continuous
 62
     0
100
AcDbCircle
 10
4.752215926865481
 20
-48.33991724314614
 30
0.0
 40
0.01
100
AcDbArc
 50
0.0
 51
90.00000000000133
  0
ARC
  5
8B
330
47
100
AcDbEntity
  8
0
  6
Continuous
 62
     0
100
AcDbCircle
 10
4.377215926865481
 20
-48.19491724314615
 30
0.0
 40
0.01
100
AcDbArc
 50
270.0
 51
0.0
  0
ARC
  5
8C
330
47
100
AcDbEntity
  8
0
  6
Continuous
 62
     0
100
AcDbCircle
 10
4.397215926865481
 20
-48.08991724314615
 30
0.0
 40
0.01
100
AcDbArc
 50
90.0
 51
180.0
  0
LINE
  5
8D
330
47
100
AcDbEntity
  8
0
  6
Continuous
 62
     0
100
AcDbLine
 10
4.542715926865481
 20
-48.07991724314614
 30
0.0
 11
4.397215926865481
 21
-48.07991724314614
 31
0.0
  0
LINE
  5
8E
330
47
100
AcDbEntity
  8
0
  6
Continuous
 62
     0
100
AcDbLine
 10
4.387215926865481
 20
-48.08991724314615
 30
0.0
 11
4.387215926865481
 21
-48.19491724314615
 31
0.0
  0
ARC
  5
8F
330
47
100
AcDbEntity
  8
0
  6
Continuous
 62
     0
100
AcDbCircle
 10
4.877215926865481
 20
-48.08991724314615
 30
0.0
 40
0.01
100
AcDbArc
 50
0.0
 51
89.99999999999735
  0
LINE
  5
90
330
47
100
AcDbEntity
  8
0
  6
Continuous
 62
     0
100
AcDbLine
 10
4.877215926865481
 20
-48.07991724314614
 30
0.0
 11
4.731715926865481
 21
-48.07991724314613
 31
0.0
  0
LINE
  5
91
330
47
100
AcDbEntity
  8
0
  6
Continuous
 62
     0
100
AcDbLine
 10
4.877215926865481
 20
-49.51591724314614
 30
0.0
 11
4.887215926865481
 21
-49.50591724314615
 31
0.0
  0
LINE
  5
92
330
47
100
AcDbEntity
  8
0
  6
Continuous
 62
     0
100
AcDbLine
 10
4.877215926865481
 20
-49.51591724314614
 30
0.0
 11
4.887215926865481
 21
-49.52591724314613
 31
0.0
  0
LINE
  5
93
330
47
100
AcDbEntity
  8
0
  6
Continuous
 62
     0
100
AcDbLine
 10
4.887215926865481
 20
-48.08991724314615
 30
0.0
 11
4.887215926865481
 21
-49.50591724314615
 31
0.0
  0
ENDBLK
  5
94
330
47
100
AcDbEntity
  8
0
 62
     0
100
AcDbBlockEnd
  0
BLOCK
  5
A9
330
A8
100
AcDbEntity
  8
0
 62
     0
100
AcDbBlockBegin
  2
snap bottom
 70
     0
 10
0.0
 20
0.0
 30
0.0
  3
snap bottom
  1

  0
ARC
  5
AA
330
A8
100
AcDbEntity
  8
0
  6
Continuous
 62
     0
100
AcDbCircle
 10
8.146588015093087
 20
-55.6325175405397
 30
0.0
 40
0.054
100
AcDbArc
 50
270.0000000000009
 51
89.99999999999909
  0
LINE
  5
AB
330
A8
100
AcDbEntity
  8
0
  6
Continuous
 62
     0
100
AcDbLine
 10
8.084588015093085
 20
-55.26751754053969
 30
0.0
 11
8.084588015093089
 21
-55.87251754053971
 31
0.0
  0
ARC
  5
AC
330
A8
100
AcDbEntity
  8
0
  6
Continuous
 62
     0
100
AcDbCircle
 10
6.396588015093087
 20
-55.6325175405397
 30
0.0
 40
0.054
100
AcDbArc
 50
90.0000000000009
 51
269.9999999999991
  0
LINE
  5
AD
330
A8
100
AcDbEntity
  8
0
  6
Continuous
 62
     0
100
AcDbLine
 10
6.458588015093087
 20
-55.26751754053969
 30
0.0
 11
6.458588015093085
 21
-55.87251754053971
 31
0.0
  0
LINE
  5
AE
330
A8
100
AcDbEntity
  8
0
  6
Continuous
 62
     0
100
AcDbLine
 10
6.031588015093086
 20
-56.00751754053971
 30
0.0
 11
8.511588015093087
 21
-56.0075175405397
 31
0.0
  0
LINE
  5
AF
330
A8
100
AcDbEntity
  8
0
  6
Continuous
 62
     0
100
AcDbLine
 10
6.468588015093085
 20
-55.8825175405397
 30
0.0
 11
8.074588015093087
 21
-55.8825175405397
 31
0.0
  0
ARC
  5
B0
330
A8
100
AcDbEntity
  8
0
  6
Continuous
 62
     0
100
AcDbCircle
 10
6.386588015093088
 20
-55.87251754053969
 30
0.0
 40
0.01
100
AcDbArc
 50
270.0
 51
0.0000000000002685
  0
LINE
  5
B1
330
A8
100
AcDbEntity
  8
0
  6
Continuous
 62
     0
100
AcDbLine
 10
6.396588015093086
 20
-55.6865175405397
 30
0.0
 11
6.396588015093088
 21
-55.87251754053969
 31
0.0
  0
ARC
  5
B2
330
A8
100
AcDbEntity
  8
0
  6
Continuous
 62
     0
100
AcDbCircle
 10
6.468588015093085
 20
-55.87251754053971
 30
0.0
 40
0.01
100
AcDbArc
 50
179.9999999999999
 51
270.0000000000005
  0
ARC
  5
B3
330
A8
100
AcDbEntity
  8
0
  6
Continuous
 62
     0
100
AcDbCircle
 10
6.093588015093087
 20
-55.8725175405397
 30
0.0
 40
0.01
100
AcDbArc
 50
180.0000000000002
 51
270.0000000000013
  0
LINE
  5
B4
330
A8
100
AcDbEntity
  8
0
  6
Continuous
 62
     0
100
AcDbLine
 10
6.093588015093087
 20
-55.8825175405397
 30
0.0
 11
6.386588015093088
 21
-55.8825175405397
 31
0.0
  0
ARC
  5
B5
330
A8
100
AcDbEntity
  8
0
  6
Continuous
 62
     0
100
AcDbCircle
 10
6.073588015093087
 20
-55.64251754053969
 30
0.0
 40
0.01
100
AcDbArc
 50
0.0000000000002176
 51
90.00000000000003
  0
LINE
  5
B6
330
A8
100
AcDbEntity
  8
0
  6
Continuous
 62
     0
100
AcDbLine
 10
6.083588015093087
 20
-55.64251754053969
 30
0.0
 11
6.083588015093087
 21
-55.8725175405397
 31
0.0
  0
ARC
  5
B7
330
A8
100
AcDbEntity
  8
0
  6
Continuous
 62
     0
100
AcDbCircle
 10
6.031588015093087
 20
-55.64251754053969
 30
0.0
 40
0.01
100
AcDbArc
 50
90.00000000000785
 51
180.0
  0
LINE
  5
B8
330
A8
100
AcDbEntity
  8
0
  6
Continuous
 62
     0
100
AcDbLine
 10
6.031588015093086
 20
-55.6325175405397
 30
0.0
 11
6.073588015093087
 21
-55.63251754053969
 31
0.0
  0
ARC
  5
B9
330
A8
100
AcDbEntity
  8
0
  6
Continuous
 62
     0
100
AcDbCircle
 10
6.031588015093086
 20
-55.99751754053971
 30
0.0
 40
0.01
100
AcDbArc
 50
179.9999999999998
 51
270.0
  0
LINE
  5
BA
330
A8
100
AcDbEntity
  8
0
  6
Continuous
 62
     0
100
AcDbLine
 10
6.021588015093087
 20
-55.99751754053971
 30
0.0
 11
6.021588015093088
 21
-55.64251754053969
 31
0.0
  0
ARC
  5
BB
330
A8
100
AcDbEntity
  8
0
  6
Continuous
 62
     0
100
AcDbCircle
 10
8.511588015093087
 20
-55.9975175405397
 30
0.0
 40
0.01
100
AcDbArc
 50
270.0000000000002
 51
0.0
  0
ARC
  5
BC
330
A8
100
AcDbEntity
  8
0
  6
Continuous
 62
     0
100
AcDbCircle
 10
8.449588015093087
 20
-55.87251754053971
 30
0.0
 40
0.01
100
AcDbArc
 50
269.9999999999987
 51
0.0
  0
ARC
  5
BD
330
A8
100
AcDbEntity
  8
0
  6
Continuous
 62
     0
100
AcDbCircle
 10
8.511588015093087
 20
-55.6425175405397
 30
0.0
 40
0.01
100
AcDbArc
 50
0.0
 51
90.00000000000003
  0
LINE
  5
BE
330
A8
100
AcDbEntity
  8
0
  6
Continuous
 62
     0
100
AcDbLine
 10
8.521588015093087
 20
-55.9975175405397
 30
0.0
 11
8.521588015093087
 21
-55.6425175405397
 31
0.0
  0
ARC
  5
BF
330
A8
100
AcDbEntity
  8
0
  6
Continuous
 62
     0
100
AcDbCircle
 10
8.469588015093089
 20
-55.64251754053969
 30
0.0
 40
0.01
100
AcDbArc
 50
89.99999999999216
 51
180.0
  0
LINE
  5
C0
330
A8
100
AcDbEntity
  8
0
  6
Continuous
 62
     0
100
AcDbLine
 10
8.511588015093087
 20
-55.63251754053971
 30
0.0
 11
8.469588015093091
 21
-55.63251754053969
 31
0.0
  0
LINE
  5
C1
330
A8
100
AcDbEntity
  8
0
  6
Continuous
 62
     0
100
AcDbLine
 10
8.459588015093089
 20
-55.64251754053969
 30
0.0
 11
8.459588015093087
 21
-55.87251754053971
 31
0.0
  0
ARC
  5
C2
330
A8
100
AcDbEntity
  8
0
  6
Continuous
 62
     0
100
AcDbCircle
 10
8.156588015093085
 20
-55.87251754053969
 30
0.0
 40
0.01
100
AcDbArc
 50
179.9999999999997
 51
270.0
  0
LINE
  5
C3
330
A8
100
AcDbEntity
  8
0
  6
Continuous
 62
     0
100
AcDbLine
 10
8.146588015093087
 20
-55.6865175405397
 30
0.0
 11
8.146588015093087
 21
-55.87251754053969
 31
0.0
  0
ARC
  5
C4
330
A8
100
AcDbEntity
  8
0
  6
Continuous
 62
     0
100
AcDbCircle
 10
8.074588015093087
 20
-55.87251754053971
 30
0.0
 40
0.01
100
AcDbArc
 50
269.9999999999995
 51
0.0000000000000649
  0
LINE
  5
C5
330
A8
100
AcDbEntity
  8
0
  6
Continuous
 62
     0
100
AcDbLine
 10
8.156588015093085
 20
-55.8825175405397
 30
0.0
 11
8.449588015093087
 21
-55.8825175405397
 31
0.0
  0
ARC
  5
C6
330
A8
100
AcDbEntity
  8
0
  6
Continuous
 62
     0
100
AcDbCircle
 10
6.406588015093085
 20
-55.31389060749866
 30
0.0
 40
0.01
100
AcDbArc
 50
149.9999999999993
 51
180.0
  0
LINE
  5
C7
330
A8
100
AcDbEntity
  8
0
  6
Continuous
 62
     0
100
AcDbLine
 10
6.396588015093085
 20
-55.31389060749866
 30
0.0
 11
6.396588015093086
 21
-55.5785175405397
 31
0.0
  0
ARC
  5
C8
330
A8
100
AcDbEntity
  8
0
  6
Continuous
 62
     0
100
AcDbCircle
 10
6.433361517784994
 20
-55.26751754053969
 30
0.0
 40
0.01
100
AcDbArc
 50
90.00000000000003
 51
150.0000000000011
  0
LINE
  5
C9
330
A8
100
AcDbEntity
  8
0
  6
Continuous
 62
     0
100
AcDbLine
 10
6.424701263747149
 20
-55.26251754053969
 30
0.0
 11
6.397927761055241
 21
-55.30889060749866
 31
0.0
  0
ARC
  5
CA
330
A8
100
AcDbEntity
  8
0
  6
Continuous
 62
     0
100
AcDbCircle
 10
6.448588015093087
 20
-55.26751754053969
 30
0.0
 40
0.01
100
AcDbArc
 50
0.0
 51
90.00000000000003
  0
LINE
  5
CB
330
A8
100
AcDbEntity
  8
0
  6
Continuous
 62
     0
100
AcDbLine
 10
6.433361517784994
 20
-55.2575175405397
 30
0.0
 11
6.448588015093087
 21
-55.2575175405397
 31
0.0
  0
ARC
  5
CC
330
A8
100
AcDbEntity
  8
0
  6
Continuous
 62
     0
100
AcDbCircle
 10
8.136588015093089
 20
-55.31389060749866
 30
0.0
 40
0.01
100
AcDbArc
 50
0.0
 51
30.00000000000071
  0
LINE
  5
CD
330
A8
100
AcDbEntity
  8
0
  6
Continuous
 62
     0
100
AcDbLine
 10
8.146588015093088
 20
-55.31389060749866
 30
0.0
 11
8.146588015093087
 21
-55.5785175405397
 31
0.0
  0
ARC
  5
CE
330
A8
100
AcDbEntity
  8
0
  6
Continuous
 62
     0
100
AcDbCircle
 10
8.109814512401179
 20
-55.26751754053969
 30
0.0
 40
0.01
100
AcDbArc
 50
29.99999999999893
 51
90.00000000000003
  0
LINE
  5
CF
330
A8
100
AcDbEntity
  8
0
  6
Continuous
 62
     0
100
AcDbLine
 10
8.118474766439025
 20
-55.26251754053969
 30
0.0
 11
8.145248269130933
 21
-55.30889060749866
 31
0.0
  0
ARC
  5
D0
330
A8
100
AcDbEntity
  8
0
  6
Continuous
 62
     0
100
AcDbCircle
 10
8.094588015093087
 20
-55.26751754053969
 30
0.0
 40
0.01
100
AcDbArc
 50
90.00000000000003
 51
180.0
  0
LINE
  5
D1
330
A8
100
AcDbEntity
  8
0
  6
Continuous
 62
     0
100
AcDbLine
 10
8.109814512401179
 20
-55.2575175405397
 30
0.0
 11
8.094588015093087
 21
-55.2575175405397
 31
0.0
  0
ENDBLK
  5
D2
330
A8
100
AcDbEntity
  8
0
 62
     0
100
AcDbBlockEnd
  0
BLOCK
  5
E3
330
E2
100
AcDbEntity
  8
0
100
AcDbBlockBegin
  2
*X3
 70
     1
 10
0.0
 20
0.0
 30
0.0
  3
*X3
  1

  0
LINE
  5
E4
330
E2
100
AcDbEntity
  8
0
 62
     0
100
AcDbLine
 10
6.455653718588217
 20
3.485805237604717
 30
0.0
 11
6.482008789598947
 21
3.512160308615448
 31
0.0
  0
LINE
  5
E5
330
E2
100
AcDbEntity
  8
0
 62
     0
100
AcDbLine
 10
6.420298379528889
 20
3.485805237604717
 30
0.0
 11
6.482008789598947
 21
3.547515647674775
 31
0.0
  0
LINE
  5
E6
330
E2
100
AcDbEntity
  8
0
 62
     0
100
AcDbLine
 10
6.384943040469562
 20
3.485805237604717
 30
0.0
 11
6.482008789598947
 21
3.582870986734103
 31
0.0
  0
LINE
  5
E7
330
E2
100
AcDbEntity
  8
0
 62
     0
100
AcDbLine
 10
6.349587701410235
 20
3.485805237604717
 30
0.0
 11
6.482008789598947
 21
3.61822632579343
 31
0.0
  0
LINE
  5
E8
330
E2
100
AcDbEntity
  8
0
 62
     0
100
AcDbLine
 10
6.314232362350908
 20
3.485805237604717
 30
0.0
 11
6.482008789598947
 21
3.653581664852757
 31
0.0
  0
LINE
  5
E9
330
E2
100
AcDbEntity
  8
0
 62
     0
100
AcDbLine
 10
6.27887702329158
 20
3.485805237604717
 30
0.0
 11
6.482008789598947
 21
3.688937003912085
 31
0.0
  0
LINE
  5
EA
330
E2
100
AcDbEntity
  8
0
 62
     0
100
AcDbLine
 10
6.243521684232253
 20
3.485805237604717
 30
0.0
 11
6.482008789598947
 21
3.724292342971412
 31
0.0
  0
LINE
  5
EB
330
E2
100
AcDbEntity
  8
0
 62
     0
100
AcDbLine
 10
6.208166345172926
 20
3.485805237604717
 30
0.0
 11
6.482008789598947
 21
3.75964768203074
 31
0.0
  0
LINE
  5
EC
330
E2
100
AcDbEntity
  8
0
 62
     0
100
AcDbLine
 10
6.172811006113598
 20
3.485805237604717
 30
0.0
 11
6.482008789598947
 21
3.795003021090066
 31
0.0
  0
LINE
  5
ED
330
E2
100
AcDbEntity
  8
0
 62
     0
100
AcDbLine
 10
6.13745566705427
 20
3.485805237604717
 30
0.0
 11
6.482008789598947
 21
3.830358360149394
 31
0.0
  0
LINE
  5
EE
330
E2
100
AcDbEntity
  8
0
 62
     0
100
AcDbLine
 10
6.107041342511141
 20
3.490746252120915
 30
0.0
 11
6.477067775082751
 21
3.860772684692525
 31
0.0
  0
LINE
  5
EF
330
E2
100
AcDbEntity
  8
0
 62
     0
100
AcDbLine
 10
6.10944813505911
 20
3.528508383728212
 30
0.0
 11
6.439305643475454
 21
3.858365892144556
 31
0.0
  0
LINE
  5
F0
330
E2
100
AcDbEntity
  8
0
 62
     0
100
AcDbLine
 10
6.116884707869568
 20
3.571300295597997
 30
0.0
 11
6.396513731605669
 21
3.850929319334097
 31
0.0
  0
LINE
  5
F1
330
E2
100
AcDbEntity
  8
0
 62
     0
100
AcDbLine
 10
6.132862699926207
 20
3.622633626713963
 30
0.0
 11
6.345180400489703
 21
3.834951327277459
 31
0.0
  0
LINE
  5
F2
330
E2
100
AcDbEntity
  8
0
 62
     0
100
AcDbLine
 10
6.172699196925758
 20
3.697825462772842
 30
0.0
 11
6.269988564430825
 21
3.795114830277908
 31
0.0
  0
LINE
  5
F3
330
E2
100
AcDbEntity
  8
0
 62
     0
100
AcDbLine
 10
6.482008789598947
 20
3.47680496955612
 30
0.0
 11
6.491009057647545
 21
3.485805237604717
 31
0.0
  0
LINE
  5
F4
330
E2
100
AcDbEntity
  8
0
 62
     0
100
AcDbLine
 10
6.482008789598947
 20
3.441449630496793
 30
0.0
 11
6.526364396706872
 21
3.485805237604717
 31
0.0
  0
LINE
  5
F5
330
E2
100
AcDbEntity
  8
0
 62
     0
100
AcDbLine
 10
6.482008789598947
 20
3.406094291437466
 30
0.0
 11
6.5617197357662
 21
3.485805237604717
 31
0.0
  0
LINE
  5
F6
330
E2
100
AcDbEntity
  8
0
 62
     0
100
AcDbLine
 10
6.482008789598947
 20
3.370738952378138
 30
0.0
 11
6.597075074825526
 21
3.485805237604717
 31
0.0
  0
LINE
  5
F7
330
E2
100
AcDbEntity
  8
0
 62
     0
100
AcDbLine
 10
6.482008789598947
 20
3.335383613318811
 30
0.0
 11
6.632430413884853
 21
3.485805237604717
 31
0.0
  0
LINE
  5
F8
330
E2
100
AcDbEntity
  8
0
 62
     0
100
AcDbLine
 10
6.482008789598947
 20
3.300028274259484
 30
0.0
 11
6.667785752944181
 21
3.485805237604717
 31
0.0
  0
LINE
  5
F9
330
E2
100
AcDbEntity
  8
0
 62
     0
100
AcDbLine
 10
6.482008789598947
 20
3.264672935200156
 30
0.0
 11
6.703141092003509
 21
3.485805237604717
 31
0.0
  0
LINE
  5
FA
330
E2
100
AcDbEntity
  8
0
 62
     0
100
AcDbLine
 10
6.482008789598947
 20
3.229317596140829
 30
0.0
 11
6.738496431062836
 21
3.485805237604717
 31
0.0
  0
LINE
  5
FB
330
E2
100
AcDbEntity
  8
0
 62
     0
100
AcDbLine
 10
6.482008789598947
 20
3.193962257081501
 30
0.0
 11
6.773851770122163
 21
3.485805237604717
 31
0.0
  0
LINE
  5
FC
330
E2
100
AcDbEntity
  8
0
 62
     0
100
AcDbLine
 10
6.482008789598947
 20
3.158606918022174
 30
0.0
 11
6.809207109181491
 21
3.485805237604717
 31
0.0
  0
LINE
  5
FD
330
E2
100
AcDbEntity
  8
0
 62
     0
100
AcDbLine
 10
6.482008789598947
 20
3.123251578962847
 30
0.0
 11
6.844562448240818
 21
3.485805237604717
 31
0.0
  0
LINE
  5
FE
330
E2
100
AcDbEntity
  8
0
 62
     0
100
AcDbLine
 10
6.505664664989164
 20
3.111552115293735
 30
0.0
 11
6.85626191190993
 21
3.462149362214502
 31
0.0
  0
LINE
  5
FF
330
E2
100
AcDbEntity
  8
0
 62
     0
100
AcDbLine
 10
6.545725937059539
 20
3.116258048304783
 30
0.0
 11
6.851555978898883
 21
3.422088090144127
 31
0.0
  0
LINE
  5
100
330
E2
100
AcDbEntity
  8
0
 62
     0
100
AcDbLine
 10
6.592175968206674
 20
3.127352740392591
 30
0.0
 11
6.840461286811075
 21
3.375638058996992
 31
0.0
  0
LINE
  5
101
330
E2
100
AcDbEntity
  8
0
 62
     0
100
AcDbLine
 10
6.651444518775554
 20
3.151265951902144
 30
0.0
 11
6.816548075301522
 21
3.316369508428111
 31
0.0
  0
ENDBLK
  5
102
330
E2
100
AcDbEntity
  8
0
100
AcDbBlockEnd
  0
BLOCK
  5
DF
330
DE
100
AcDbEntity
  8
0
100
AcDbBlockBegin
  2
work point
 70
     0
 10
0.0
 20
0.0
 30
0.0
  3
work point
  1

  0
LINE
  5
E0
330
DE
100
AcDbEntity
  8
0
100
AcDbLine
 10
0.6056250806605572
 20
-88.19980482706348
 30
0.0
 11
1.070572365767889
 21
-88.19980482706348
 31
0.0
  0
INSERT
  5
E1
330
DE
100
AcDbEntity
  8
0
100
AcDbBlockReference
  2
*X3
 10
-0.7831360848958014
 20
-89.07165010974274
 30
0.0
 41
0.2501130221717222
 42
0.2501130221716889
 43
0.2501130221716889
  0
CIRCLE
  5
103
330
DE
100
AcDbEntity
  8
0
100
AcDbCircle
 10
0.8380987232142231
 20
-88.19980482706348
 30
0.0
 40
0.0937923833143834
  0
LINE
  5
104
330
DE
100
AcDbEntity
  8
0
100
AcDbLine
 10
0.8380987232142231
 20
-87.96733118450983
 30
0.0
 11
0.8380987232142231
 21
-88.43227846961726
 31
0.0
  0
ENDBLK
  5
105
330
DE
100
AcDbEntity
  8
0
100
AcDbBlockEnd
  0
ENDSEC
  0
SECTION
  2
ENTITIES
  0
MTEXT
  5
32
102
{ACAD_REACTORS
330
2A6
102
}
330
2
100
AcDbEntity
  8
0
  6
Continuous
100
AcDbMText
 10
157.8462244508075
 20
-76.98331878752677
 30
0.0
 40
0.1875
 41
4.4125
 71
     3
 72
     1
  1
SILICONE SEAL
 73
     1
 44
1.0
1001
ACAD
1000
MTEXTBEGIN
1070
    73
1070
     1
1070
    44
1040
1.0
1070
    74
1070
     0
1000
MTEXTEND
  0
MTEXT
  5
33
102
{ACAD_REACTORS
330
2A7
102
}
330
2
100
AcDbEntity
  8
0
  6
Continuous
100
AcDbMText
 10
157.8462244508075
 20
-77.30989244754008
 30
0.0
 40
0.1875
 41
4.4125
 71
     3
 72
     1
  1
BACKER ROD
 73
     1
 44
1.0
1001
ACAD
1000
MTEXTBEGIN
1070
    73
1070
     1
1070
    44
1040
1.0
1070
    74
1070
     0
1000
MTEXTEND
  0
MTEXT
  5
34
102
{ACAD_REACTORS
330
9E
102
}
330
2
100
AcDbEntity
  8
0
  6
Continuous
100
AcDbMText
 10
157.8462244508075
 20
-78.02524464718644
 30
0.0
 40
0.1875
 41
4.4125
 71
     3
 72
     1
  1
EPDM SETTING BLOCK
 73
     1
 44
1.0
1001
ACAD
1000
MTEXTBEGIN
1070
    73
1070
     1
1070
    44
1040
1.0
1070
    74
1070
     0
1000
MTEXTEND
  0
MTEXT
  5
35
102
{ACAD_REACTORS
330
9F
102
}
330
2
100
AcDbEntity
  8
0
  6
Continuous
100
AcDbMText
 10
157.8462244508075
 20
-78.29738931165113
 30
0.0
 40
0.1875
 41
4.4125
 71
     3
 72
     1
  1
EPDM GLAZING GASKET
 73
     1
 44
1.0
1001
ACAD
1000
MTEXTBEGIN
1070
    73
1070
     1
1070
    44
1040
1.0
1070
    74
1070
     0
1000
MTEXTEND
  0
MTEXT
  5
36
102
{ACAD_REACTORS
330
A0
102
}
330
2
100
AcDbEntity
  8
0
  6
Continuous
100
AcDbMText
 10
157.8462244508075
 20
-78.99260679290851
 30
0.0
 40
0.1875
 41
4.4125
 71
     3
 72
     1
  1
TEK SCREW
 73
     1
 44
1.0
1001
ACAD
1000
MTEXTBEGIN
1070
    73
1070
     1
1070
    44
1040
1.0
1070
    74
1070
     0
1000
MTEXTEND
  0
MTEXT
  5
37
102
{ACAD_REACTORS
330
A1
102
}
330
2
100
AcDbEntity
  8
0
  6
Continuous
100
AcDbMText
 10
157.8462244508075
 20
-79.36153256474537
 30
0.0
 40
0.1875
 41
4.4125
 71
     3
 72
     1
  1
ALUMINUM PURLIN CLIP
 73
     1
 44
1.0
1001
ACAD
1000
MTEXTBEGIN
1070
    73
1070
     1
1070
    44
1040
1.0
1070
    74
1070
     0
1000
MTEXTEND
  0
MTEXT
  5
38
102
{ACAD_REACTORS
330
A2
102
}
330
2
100
AcDbEntity
  8
0
  6
Continuous
100
AcDbMText
 10
157.8462244508075
 20
-79.69226248977506
 30
0.0
 40
0.1875
 41
4.4125
 71
     3
 72
     1
  1
INTER-SKY PURLIN W/ FIN
 73
     1
 44
1.0
1001
ACAD
1000
MTEXTBEGIN
1070
    73
1070
     1
1070
    44
1040
1.0
1070
    74
1070
     0
1000
MTEXTEND
  0
MTEXT
  5
39
102
{ACAD_REACTORS
330
D8
102
}
330
2
100
AcDbEntity
  8
0
  6
Continuous
100
AcDbMText
 10
157.8462244508075
 20
-80.14918316195538
 30
0.0
 40
0.1875
 41
4.4125
 71
     3
 72
     1
  1
ALUMINUM SNAP BOTTOM
 73
     1
 44
1.0
1001
ACAD
1000
MTEXTBEGIN
1070
    73
1070
     1
1070
    44
1040
1.0
1070
    74
1070
     0
1000
MTEXTEND
  0
MTEXT
  5
3A
102
{ACAD_REACTORS
330
D7
102
}
330
2
100
AcDbEntity
  8
0
  6
Continuous
100
AcDbMText
 10
157.8462244508075
 20
-77.65979281993137
 30
0.0
 40
0.1875
 41
4.4125
 71
     3
 72
     1
  1
GLAZING
 73
     1
 44
1.0
1001
ACAD
1000
MTEXTBEGIN
1070
    73
1070
     1
1070
    44
1040
1.0
1070
    74
1070
     0
1000
MTEXTEND
  0
LINE
  5
3B
330
2
100
AcDbEntity
  8
0
  6
Continuous
100
AcDbLine
 10
162.2838570916223
 20
-77.25238016745294
 30
0.0
 11
161.7838570916223
 21
-77.75238016745294
 31
0.0
  0
LINE
  5
3C
330
2
100
AcDbEntity
  8
0
  6
Continuous
100
AcDbLine
 10
161.7838570916223
 20
-77.25238016745294
 30
0.0
 11
162.2838570916223
 21
-77.75238016745293
 31
0.0
  0
LINE
  5
3D
330
2
100
AcDbEntity
  8
Glazing
  6
Continuous
100
AcDbLine
 10
162.2838570916223
 20
-77.25238016745293
 30
0.0
 11
162.2838570916223
 21
-77.75238016745293
 31
0.0
  0
LINE
  5
3F
330
2
100
AcDbEntity
  8
5
  6
Continuous
100
AcDbLine
 10
161.7838570916223
 20
-78.31238016745293
 30
0.0
 11
161.7838570916223
 21
-77.00238016745294
 31
0.0
  0
LINE
  5
41
330
2
100
AcDbEntity
  8
0
  6
Continuous
100
AcDbLine
 10
163.5338570916223
 20
-77.48962793895612
 30
0.0
 11
164.0338570916223
 21
-77.82513239594975
 31
0.0
  0
LINE
  5
42
330
2
100
AcDbEntity
  8
0
  6
Continuous
100
AcDbLine
 10
159.0340889958673
 20
-77.48962793895612
 30
0.0
 11
158.5340889958673
 21
-77.82513239594975
 31
0.0
  0
LINE
  5
43
330
2
100
AcDbEntity
  8
Glazing
  6
Continuous
100
AcDbLine
 10
160.2840889958673
 20
-77.25238016745293
 30
0.0
 11
160.2840889958673
 21
-77.75238016745293
 31
0.0
  0
LINE
  5
44
330
2
100
AcDbEntity
  8
0
  6
Continuous
100
AcDbLine
 10
160.7840889958673
 20
-77.25238016745294
 30
0.0
 11
160.2840889958673
 21
-77.75238016745293
 31
0.0
  0
LINE
  5
45
330
2
100
AcDbEntity
  8
0
  6
Continuous
100
AcDbLine
 10
160.2840889958673
 20
-77.25238016745294
 30
0.0
 11
160.7840889958673
 21
-77.75238016745294
 31
0.0
  0
INSERT
  5
46
330
2
100
AcDbEntity
  8
0
  6
Continuous
 62
     0
100
AcDbBlockReference
  2
purlin fin
 10
157.3967571168793
 20
-30.35251591880925
 30
0.0
  0
LINE
  5
95
330
2
100
AcDbEntity
  8
5
  6
Continuous
100
AcDbLine
 10
160.7840889958673
 20
-78.31238016745293
 30
0.0
 11
160.7840889958673
 21
-77.00238016745294
 31
0.0
  0
LINE
  5
96
330
2
100
AcDbEntity
  8
5
  6
Continuous
100
AcDbLine
 10
161.190285203063
 20
-77.55743316195538
 30
0.0
 11
161.190285203063
 21
-78.55743316195539
 31
0.0
  0
LINE
  5
97
330
2
100
AcDbEntity
  8
5
  6
Continuous
100
AcDbLine
 10
160.815285203063
 20
-78.55743316195539
 30
0.0
 11
160.815285203063
 21
-77.55743316195538
 31
0.0
  0
LINE
  5
98
330
2
100
AcDbEntity
  8
0
  6
Continuous
 62
     0
100
AcDbLine
 10
160.815285203063
 20
-77.55743316195538
 30
0.0
 11
161.190285203063
 21
-78.55743316195539
 31
0.0
  0
LINE
  5
99
330
2
100
AcDbEntity
  8
0
  6
Continuous
 62
     0
100
AcDbLine
 10
160.815285203063
 20
-78.55743316195539
 30
0.0
 11
161.190285203063
 21
-77.55743316195538
 31
0.0
  0
LINE
  5
9A
330
2
100
AcDbEntity
  8
5
  6
Continuous
100
AcDbLine
 10
161.3776608844266
 20
-77.55743316195538
 30
0.0
 11
161.3776608844266
 21
-78.55743316195539
 31
0.0
  0
LINE
  5
9B
330
2
100
AcDbEntity
  8
5
  6
Continuous
100
AcDbLine
 10
161.7526608844266
 20
-78.55743316195539
 30
0.0
 11
161.7526608844266
 21
-77.55743316195538
 31
0.0
  0
LINE
  5
9C
330
2
100
AcDbEntity
  8
0
  6
Continuous
 62
     0
100
AcDbLine
 10
161.7526608844266
 20
-78.55743316195539
 30
0.0
 11
161.3776608844266
 21
-77.55743316195538
 31
0.0
  0
LINE
  5
9D
330
2
100
AcDbEntity
  8
0
  6
Continuous
 62
     0
100
AcDbLine
 10
161.7526608844266
 20
-77.55743316195538
 30
0.0
 11
161.3776608844266
 21
-78.55743316195539
 31
0.0
  0
LEADER
  5
9E
330
2
100
AcDbEntity
  8
0
  6
Continuous
100
AcDbLeader
  3
STANDARD
 73
     0
 40
0.1940228512960437
 41
2.904203615279672
 76
     2
 10
160.9558830040221
 20
-78.11899464718644
 30
0.0
 10
157.9362244508075
 20
-78.11899464718644
 30
0.0
340
34
213
0.0
223
-0.09375
233
0.0
1001
ACAD
1000
DSTYLE
1002
{
1070
   147
1040
0.09
1070
    77
1070
     0
1002
}
  0
LEADER
  5
9F
330
2
100
AcDbEntity
  8
0
  6
Continuous
100
AcDbLeader
  3
STANDARD
 73
     0
 40
0.1938949522510232
 41
3.088761937244202
 76
     2
 10
160.4376256728267
 20
-78.39113931165113
 30
0.0
 10
157.9362244508075
 20
-78.39113931165113
 30
0.0
340
35
213
0.0
223
-0.09375
233
0.0
1001
ACAD
1000
DSTYLE
1002
{
1070
   147
1040
0.09
1070
    77
1070
     0
1002
}
  0
LEADER
  5
A0
330
2
100
AcDbEntity
  8
0
  6
Continuous
100
AcDbLeader
  3
STANDARD
 73
     0
 40
0.1938949522510232
 41
1.548090040927694
 76
     2
 10
160.2160912050366
 20
-79.0863567929085
 30
0.0
 10
157.9362244508075
 20
-79.0863567929085
 30
0.0
340
36
213
0.0
223
-0.09375
233
0.0
1001
ACAD
1000
DSTYLE
1002
{
1070
   147
1040
0.09
1070
    77
1070
     0
1002
}
  0
LEADER
  5
A1
330
2
100
AcDbEntity
  8
0
  6
Continuous
100
AcDbLeader
  3
STANDARD
 73
     0
 40
0.1938949522510232
 41
3.074948840381991
 76
     2
 10
160.4717469844861
 20
-79.45528256474537
 30
0.0
 10
157.9362244508075
 20
-79.45528256474537
 30
0.0
340
37
213
0.0
223
-0.09375
233
0.0
1001
ACAD
1000
DSTYLE
1002
{
1070
   147
1040
0.09
1070
    77
1070
     0
1002
}
  0
LEADER
  5
A2
330
2
100
AcDbEntity
  8
0
  6
Continuous
100
AcDbLeader
  3
STANDARD
 73
     0
 40
0.1938949522510232
 41
3.272169167803547
 76
     2
 10
160.2839730437448
 20
-79.78601248977506
 30
0.0
 10
157.9362244508075
 20
-79.78601248977506
 30
0.0
340
38
213
0.0
223
-0.09375
233
0.0
1001
ACAD
1000
DSTYLE
1002
{
1070
   147
1040
0.09
1070
    77
1070
     0
1002
}
  0
LINE
  5
A3
330
2
100
AcDbEntity
  8
Glazing
  6
Continuous
100
AcDbLine
 10
160.7840889958673
 20
-77.75238016745294
 30
0.0
 11
158.6425111449331
 21
-77.75238016745294
 31
0.0
  0
LINE
  5
A4
330
2
100
AcDbEntity
  8
Glazing
  6
Continuous
100
AcDbLine
 10
160.7840889958673
 20
-78.06238016745294
 30
0.0
 11
158.7840889958673
 21
-78.06238016745294
 31
0.0
  0
LINE
  5
A5
330
2
100
AcDbEntity
  8
Glazing
  6
Continuous
100
AcDbLine
 10
160.7840889958673
 20
-78.00238016745294
 30
0.0
 11
158.7840889958673
 21
-78.00238016745294
 31
0.0
  0
LINE
  5
A6
330
2
100
AcDbEntity
  8
Glazing
  6
Continuous
100
AcDbLine
 10
160.7840889958673
 20
-78.31238016745293
 30
0.0
 11
158.7840889958673
 21
-78.31238016745293
 31
0.0
  0
INSERT
  5
A7
330
2
100
AcDbEntity
  8
0
  6
Continuous
 62
     0
100
AcDbBlockReference
  2
snap bottom
 10
154.0123850286518
 20
-24.42291562141568
 30
0.0
  0
ARC
  5
D3
330
2
100
AcDbEntity
  8
0
  6
Continuous
 62
     0
100
AcDbCircle
 10
160.2839724687964
 20
-79.16366337590805
 30
0.0
 40
0.1302118990505079
100
AcDbArc
 50
180.0
 51
270.0
  0
ARC
  5
D4
330
2
100
AcDbEntity
  8
0
  6
Continuous
 62
     0
100
AcDbCircle
 10
160.2839724687964
 20
-79.04908717400906
 30
0.0
 40
0.1302118990505079
100
AcDbArc
 50
90.00000000000305
 51
180.0000000000032
  0
ARC
  5
D5
330
2
100
AcDbEntity
  8
0
  6
Continuous
 62
     0
100
AcDbCircle
 10
160.2839724687964
 20
-79.16366337590805
 30
0.0
 40
0.1302118990505079
100
AcDbArc
 50
180.0
 51
270.0
  0
ARC
  5
D6
330
2
100
AcDbEntity
  8
0
  6
Continuous
 62
     0
100
AcDbCircle
 10
160.2839724687964
 20
-79.04908717400906
 30
0.0
 40
0.1302118990505079
100
AcDbArc
 50
90.00000000000305
 51
180.0000000000032
  0
LEADER
  5
D7
330
2
100
AcDbEntity
  8
0
  6
Continuous
100
AcDbLeader
  3
STANDARD
 73
     0
 40
0.1938949522510232
 41
1.119500341064119
 76
     2
 10
159.7323506402275
 20
-77.75354281993137
 30
0.0
 10
157.9362244508075
 20
-77.75354281993137
 30
0.0
340
3A
213
0.0
223
-0.09375
233
0.0
1001
ACAD
1000
DSTYLE
1002
{
1070
   147
1040
0.09
1070
    77
1070
     0
1002
}
  0
LEADER
  5
D8
330
2
100
AcDbEntity
  8
0
  6
Continuous
100
AcDbLeader
  3
STANDARD
 73
     0
 40
0.1940228512960437
 41
3.357222032742155
 76
     2
 10
160.0339730437449
 20
-80.24293316195539
 30
0.0
 10
157.9362244508075
 20
-80.24293316195539
 30
0.0
340
39
213
0.0
223
-0.09375
233
0.0
1001
ACAD
1000
DSTYLE
1002
{
1070
   147
1040
0.09
1070
    77
1070
     0
1002
}
  0
LINE
  5
D9
330
2
100
AcDbEntity
  8
0
  6
Continuous
100
AcDbLine
 10
158.5340889958673
 20
-77.82513239594975
 30
0.0
 11
158.7840889958673
 21
-77.82513239594975
 31
0.0
  0
LINE
  5
DA
330
2
100
AcDbEntity
  8
0
  6
Continuous
 62
     0
100
AcDbLine
 10
158.7840889958673
 20
-77.82513239594975
 30
0.0
 11
158.7840889958673
 21
-78.40738016745294
 31
0.0
  0
LINE
  5
DB
330
2
100
AcDbEntity
  8
0
  6
Continuous
 62
     0
100
AcDbLine
 10
160.1537605697459
 20
-79.16366337590805
 30
0.0
 11
160.1537605697459
 21
-79.04908717400906
 31
0.0
  0
LINE
  5
DC
330
2
100
AcDbEntity
  8
0
  6
Continuous
 62
     0
100
AcDbLine
 10
160.1537605697459
 20
-79.16366337590805
 30
0.0
 11
160.1537605697459
 21
-79.04908717400906
 31
0.0
  0
INSERT
  5
DD
330
2
100
AcDbEntity
  8
0
  6
Continuous
100
AcDbBlockReference
  2
work point
 10
160.4458743205306
 20
9.887424659610573
 30
0.0
  0
LINE
  5
106
330
2
100
AcDbEntity
  8
0
  6
Continuous
 62
     0
100
AcDbLine
 10
163.7838570916223
 20
-77.82513239594975
 30
0.0
 11
163.7838570916223
 21
-78.40738016745294
 31
0.0
  0
LINE
  5
107
330
2
100
AcDbEntity
  8
0
  6
Continuous
100
AcDbLine
 10
164.0338570916223
 20
-77.82513239594975
 30
0.0
 11
163.7838570916223
 21
-77.82513239594975
 31
0.0
  0
LINE
  5
108
330
2
100
AcDbEntity
  8
Glazing
  6
Continuous
100
AcDbLine
 10
161.7838570916223
 20
-78.31238016745293
 30
0.0
 11
163.7838570916223
 21
-78.31238016745293
 31
0.0
  0
LINE
  5
109
330
2
100
AcDbEntity
  8
Glazing
  6
Continuous
100
AcDbLine
 10
161.7838570916223
 20
-78.00238016745294
 30
0.0
 11
163.7838570916223
 21
-78.00238016745294
 31
0.0
  0
LINE
  5
10A
330
2
100
AcDbEntity
  8
Glazing
  6
Continuous
100
AcDbLine
 10
161.7838570916223
 20
-78.06238016745294
 30
0.0
 11
163.7838570916223
 21
-78.06238016745294
 31
0.0
  0
LINE
  5
10B
330
2
100
AcDbEntity
  8
Glazing
  6
Continuous
100
AcDbLine
 10
161.7838570916223
 20
-77.75238016745294
 30
0.0
 11
163.9254349425565
 21
-77.75238016745294
 31
0.0
  0
INSERT
  5
10C
330
2
100
AcDbEntity
  8
0
  6
Continuous
 62
     0
100
AcDbBlockReference
  2
epdm
 10
156.7142975163138
 20
-83.62084918037991
 30
0.0
 41
-1.0
  0
INSERT
  5
179
330
2
100
AcDbEntity
  8
0
  6
Continuous
 62
     0
100
AcDbBlockReference
  2
epdm
 10
165.8536485711759
 20
-83.62084918037991
 30
0.0
  0
LINE
  5
17A
330
2
100
AcDbEntity
  8
0
  6
Continuous
 62
     0
100
AcDbLine
 10
161.190285203063
 20
-78.4324331619554
 30
0.0
 11
161.2214730437448
 21
-78.4324331619554
 31
0.0
  0
LINE
  5
17B
330
2
100
AcDbEntity
  8
0
  6
Continuous
 62
     0
100
AcDbLine
 10
161.3464730437448
 20
-78.4324331619554
 30
0.0
 11
161.3776608844266
 21
-78.4324331619554
 31
0.0
  0
HATCH
  5
17C
330
2
100
AcDbEntity
  8
HIDDEN
  6
Continuous
100
AcDbHatch
 10
0.0
 20
0.0
 30
0.0
210
0.0
220
0.0
230
1.0
  2
ANSI31
 70
     0
 71
     0
 91
        4
 92
        7
 72
     0
 73
     1
 93
       10
 10
160.5417882152718
 20
-78.68243316583364
 10
160.4167879116858
 20
-78.68243316648683
 10
160.416788072893
 20
-79.00970016224055
 10
160.4181348740385
 20
-79.00970016872356
 10
160.4384119318438
 20
-79.04524913141003
 10
160.4661127478366
 20
-79.04539441586464
 10
160.4867601907981
 20
-79.01005917758223
 10
160.5070374147274
 20
-79.04560912846292
 10
160.5347374894152
 20
-79.04575440902954
 10
160.5417884103188
 20
-79.0336881692281
 97
        0
 92
        7
 72
     0
 73
     1
 93
       11
 10
160.5417884297178
 20
-79.16553801313821
 10
160.5409983922288
 20
-79.16553386958096
 10
160.5203500580496
 20
-79.20086910319539
 10
160.5000739881228
 20
-79.16531997976086
 10
160.4723736414736
 20
-79.16517389215609
 10
160.4517245761146
 20
-79.20050910582616
 10
160.4314483400364
 20
-79.1649596910858
 10
160.4211491370362
 20
-79.20048392919721
 10
160.416788265399
 20
-79.20048390820555
 10
160.4167882964169
 20
-79.59422685638681
 10
160.5417885848298
 20
-79.59422685639452
 97
        0
 92
        7
 72
     0
 73
     1
 93
       10
 10
162.026156921618
 20
-79.03368816922808
 10
162.0332078425216
 20
-79.04575440902952
 10
162.0609079172093
 20
-79.04560912846292
 10
162.0811851411386
 20
-79.01005917758223
 10
162.1018325841001
 20
-79.04539441586464
 10
162.1295334000929
 20
-79.04524913141003
 10
162.1498104578983
 20
-79.00970016872356
 10
162.1511572590437
 20
-79.00970016224054
 10
162.151157420251
 20
-78.68243315742398
 10
162.026157116665
 20
-78.68243315807717
 97
        0
 92
        7
 72
     0
 73
     1
 93
       11
 10
162.1511570665378
 20
-79.20048390820555
 10
162.1467961949006
 20
-79.20048392919721
 10
162.1364969919004
 20
-79.1649596910858
 10
162.1162207558221
 20
-79.20050910582614
 10
162.0955716904632
 20
-79.16517389215607
 10
162.0678713438139
 20
-79.16531997976086
 10
162.0475952738872
 20
-79.2008691031954
 10
162.026946939708
 20
-79.16553386958096
 10
162.026156902219
 20
-79.16553801313821
 10
162.0261567471069
 20
-79.59422685648608
 10
162.1511570355198
 20
-79.59422685649379
 97
        0
 75
     0
 76
     1
 52
0.0
 41
0.25
 77
     0
 78
     1
 53
45.0
 43
141.5310825105874
 44
-42.70647020678928
 45
-0.0220970869120796
 46
0.0220970869120796
 79
     0
 47
0.0029273141127875
 98
        4
 10
160.4820893840249
 20
-78.88178733876367
 10
160.4967314994194
 20
-79.32673935737148
 10
162.0634281957105
 20
-78.85836881146855
 10
162.0956404299733
 20
-79.34430310874302
  0
ARC
  5
17F
330
2
100
AcDbEntity
  8
Glazing
  6
Continuous
 62
     5
100
AcDbCircle
 10
161.7044343563776
 20
-79.1079952805176
 30
0.0
 40
0.156336
100
AcDbArc
 50
23.91620309999928
 51
338.2719830700004
  0
ARC
  5
180
330
2
100
AcDbEntity
  8
Glazing
  6
Continuous
 62
     5
100
AcDbCircle
 10
160.8635109755592
 20
-79.1079952805176
 30
0.0
 40
0.156336
100
AcDbArc
 50
201.7280169299997
 51
156.0837969000007
  0
LINE
  5
181
330
2
100
AcDbEntity
  8
0
  6
Continuous
 62
     0
100
AcDbLine
 10
160.9772175593648
 20
-79.08699619379945
 30
0.0
 11
160.9055111449292
 21
-79.08699560730138
 31
0.0
  0
LINE
  5
182
330
2
100
AcDbEntity
  8
0
  6
Continuous
 62
     0
100
AcDbLine
 10
160.9772172314551
 20
-79.12899620237659
 30
0.0
 11
160.9055108179682
 21
-79.12899561556216
 31
0.0
  0
LINE
  5
183
330
2
100
AcDbEntity
  8
0
  6
Continuous
 62
     0
100
AcDbLine
 10
160.9772175593648
 20
-79.08699619379945
 30
0.0
 11
160.9055111449292
 21
-79.08699560730138
 31
0.0
  0
LINE
  5
184
330
2
100
AcDbEntity
  8
0
  6
Continuous
 62
     0
100
AcDbLine
 10
160.9772172314551
 20
-79.12899620237659
 30
0.0
 11
160.9055108179682
 21
-79.12899561556216
 31
0.0
  0
ARC
  5
185
330
2
100
AcDbEntity
  8
Glazing
  6
Continuous
 62
     5
100
AcDbCircle
 10
160.8635109755592
 20
-79.1079952805176
 30
0.0
 40
0.156336
100
AcDbArc
 50
201.7280169299997
 51
156.0837969000007
  0
ARC
  5
186
330
2
100
AcDbEntity
  8
0
  6
Continuous
 62
     0
100
AcDbCircle
 10
160.8471192447373
 20
-79.10799557855263
 30
0.0
 40
0.131782
100
AcDbArc
 50
350.830114900001
 51
9.168986900000877
  0
ARC
  5
187
330
2
100
AcDbEntity
  8
0
  6
Continuous
 62
     0
100
AcDbCircle
 10
160.8471192447373
 20
-79.10799557855263
 30
0.0
 40
0.131782
100
AcDbArc
 50
350.830114900001
 51
9.168986900000877
  0
LINE
  5
188
330
2
100
AcDbEntity
  8
0
  6
Continuous
 62
     0
100
AcDbLine
 10
160.6786342359667
 20
-79.16566312163988
 30
0.0
 11
160.7050047491705
 21
-79.16580183395142
 31
0.0
  0
LINE
  5
189
330
2
100
AcDbEntity
  8
0
  6
Continuous
 62
     0
100
AcDbLine
 10
160.7050047491705
 20
-79.16580183395142
 30
0.0
 11
160.7099351044227
 21
-79.17444667841561
 31
0.0
  0
LINE
  5
18A
330
2
100
AcDbEntity
  8
0
  6
Continuous
 62
     0
100
AcDbLine
 10
160.5417882152718
 20
-78.68243312777308
 30
0.0
 11
160.5417884103188
 21
-79.03368816922813
 31
0.0
  0
LINE
  5
18B
330
2
100
AcDbEntity
  8
0
  6
Continuous
 62
     0
100
AcDbLine
 10
160.4167880729
 20
-79.00971426762644
 30
0.0
 11
160.4167879116858
 21
-78.68243315742398
 31
0.0
  0
LINE
  5
18C
330
2
100
AcDbEntity
  8
0
  6
Continuous
 62
     0
100
AcDbLine
 10
160.6378768385892
 20
-79.16604190655054
 30
0.0
 11
160.6581529116793
 21
-79.20159103947153
 31
0.0
  0
LINE
  5
18D
330
2
100
AcDbEntity
  8
0
  6
Continuous
 62
     0
100
AcDbLine
 10
160.6581529116793
 20
-79.20159103947153
 30
0.0
 11
160.6788014851099
 21
-79.16625665400946
 31
0.0
  0
LINE
  5
18E
330
2
100
AcDbEntity
  8
0
  6
Continuous
 62
     0
100
AcDbLine
 10
160.5409984685195
 20
-79.16553373902559
 30
0.0
 11
160.5756627314872
 21
-79.04596813732161
 31
0.0
  0
LINE
  5
18F
330
2
100
AcDbEntity
  8
0
  6
Continuous
 62
     0
100
AcDbLine
 10
160.5686983179525
 20
-79.16567914905126
 30
0.0
 11
160.6033625799716
 21
-79.04611354766363
 31
0.0
  0
LINE
  5
190
330
2
100
AcDbEntity
  8
0
  6
Continuous
 62
     0
100
AcDbLine
 10
160.5000739881228
 20
-79.16531997976086
 30
0.0
 11
160.5203500580496
 21
-79.2008691031954
 31
0.0
  0
LINE
  5
191
330
2
100
AcDbEntity
  8
0
  6
Continuous
 62
     0
100
AcDbLine
 10
160.5203500580496
 20
-79.2008691031954
 30
0.0
 11
160.5553856736818
 21
-79.01041917463513
 31
0.0
  0
LINE
  5
192
330
2
100
AcDbEntity
  8
0
  6
Continuous
 62
     0
100
AcDbLine
 10
160.5889753748093
 20
-79.20122811205406
 30
0.0
 11
160.6096229635245
 21
-79.16589389682652
 31
0.0
  0
LINE
  5
193
330
2
100
AcDbEntity
  8
0
  6
Continuous
 62
     0
100
AcDbLine
 10
160.6096229635245
 20
-79.16589389682652
 30
0.0
 11
160.6378768385892
 21
-79.16604190655054
 31
0.0
  0
LINE
  5
194
330
2
100
AcDbEntity
  8
0
  6
Continuous
 62
     0
100
AcDbLine
 10
160.5404454266545
 20
-79.16553096940908
 30
0.0
 11
160.5686983179525
 21
-79.16567914905126
 31
0.0
  0
LINE
  5
195
330
2
100
AcDbEntity
  8
0
  6
Continuous
 62
     0
100
AcDbLine
 10
160.5686983179525
 20
-79.16567914905126
 30
0.0
 11
160.5889753748093
 21
-79.20122811205406
 31
0.0
  0
LINE
  5
196
330
2
100
AcDbEntity
  8
0
  6
Continuous
 62
     0
100
AcDbLine
 10
160.5203500580496
 20
-79.2008691031954
 30
0.0
 11
160.5409984685195
 21
-79.16553373902559
 31
0.0
  0
LINE
  5
197
330
2
100
AcDbEntity
  8
0
  6
Continuous
 62
     0
100
AcDbLine
 10
160.4666648221932
 20
-79.04539731136857
 30
0.0
 11
160.4384119318438
 21
-79.04524913141003
 31
0.0
  0
LINE
  5
198
330
2
100
AcDbEntity
  8
0
  6
Continuous
 62
     0
100
AcDbLine
 10
160.4384119318438
 20
-79.04524913141003
 30
0.0
 11
160.4181350266119
 21
-79.11519074249934
 31
0.0
  0
LINE
  5
199
330
2
100
AcDbEntity
  8
0
  6
Continuous
 62
     0
100
AcDbLine
 10
160.6039156218365
 20
-79.04611631728015
 30
0.0
 11
160.5756627314872
 21
-79.04596813732161
 31
0.0
  0
LINE
  5
19A
330
2
100
AcDbEntity
  8
0
  6
Continuous
 62
     0
100
AcDbLine
 10
160.4314485061878
 20
-79.16495998239163
 30
0.0
 11
160.4517245761146
 21
-79.20050910582616
 31
0.0
  0
LINE
  5
19B
330
2
100
AcDbEntity
  8
0
  6
Continuous
 62
     0
100
AcDbLine
 10
160.4517245761146
 20
-79.20050910582616
 30
0.0
 11
160.4723731517599
 21
-79.16517473016693
 31
0.0
  0
LINE
  5
19C
330
2
100
AcDbEntity
  8
0
  6
Continuous
 62
     0
100
AcDbLine
 10
160.5756627314872
 20
-79.04596813732161
 30
0.0
 11
160.5553856736818
 21
-79.01041917463513
 31
0.0
  0
LINE
  5
19D
330
2
100
AcDbEntity
  8
0
  6
Continuous
 62
     0
100
AcDbLine
 10
160.4211491370362
 20
-79.20048392919721
 30
0.0
 11
160.4661127682068
 21
-79.04539438100393
 31
0.0
  0
LINE
  5
19E
330
2
100
AcDbEntity
  8
0
  6
Continuous
 62
     0
100
AcDbLine
 10
160.4718199447196
 20
-79.16517097203983
 30
0.0
 11
160.5000739881228
 21
-79.16531997976086
 31
0.0
  0
LINE
  5
19F
330
2
100
AcDbEntity
  8
0
  6
Continuous
 62
     0
100
AcDbLine
 10
160.5553856736818
 20
-79.01041917463513
 30
0.0
 11
160.5347380849665
 21
-79.04575338986266
 31
0.0
  0
LINE
  5
1A0
330
2
100
AcDbEntity
  8
0
  6
Continuous
 62
     0
100
AcDbLine
 10
160.5352903050769
 20
-79.04575730842146
 30
0.0
 11
160.5070374147274
 21
-79.04560912846294
 31
0.0
  0
LINE
  5
1A1
330
2
100
AcDbEntity
  8
0
  6
Continuous
 62
     0
100
AcDbLine
 10
160.5070374147274
 20
-79.04560912846294
 30
0.0
 11
160.4867601907981
 21
-79.01005917758223
 31
0.0
  0
LINE
  5
1A2
330
2
100
AcDbEntity
  8
0
  6
Continuous
 62
     0
100
AcDbLine
 10
160.4723731517599
 20
-79.16517473016693
 30
0.0
 11
160.5070374147274
 21
-79.04560912846294
 31
0.0
  0
LINE
  5
1A3
330
2
100
AcDbEntity
  8
0
  6
Continuous
 62
     0
100
AcDbLine
 10
160.4517245761146
 20
-79.20050910582616
 30
0.0
 11
160.4867601907981
 21
-79.01005917758223
 31
0.0
  0
LINE
  5
1A4
330
2
100
AcDbEntity
  8
0
  6
Continuous
 62
     0
100
AcDbLine
 10
160.4867601907981
 20
-79.01005917758223
 30
0.0
 11
160.4661127682068
 21
-79.04539438100393
 31
0.0
  0
LINE
  5
1A5
330
2
100
AcDbEntity
  8
0
  6
Continuous
 62
     0
100
AcDbLine
 10
160.5000739881228
 20
-79.16531997976086
 30
0.0
 11
160.5347380849665
 21
-79.04575338986266
 31
0.0
  0
LINE
  5
1A6
330
2
100
AcDbEntity
  8
0
  6
Continuous
 62
     0
100
AcDbLine
 10
160.4384119318438
 20
-79.04524913141003
 30
0.0
 11
160.4181348740385
 21
-79.00970016872356
 31
0.0
  0
LINE
  5
1A7
330
2
100
AcDbEntity
  8
0
  6
Continuous
 62
     0
100
AcDbLine
 10
160.4181348740385
 20
-79.00970016872356
 30
0.0
 11
160.4181350266119
 21
-79.11519074249934
 31
0.0
  0
LINE
  5
1A8
330
2
100
AcDbEntity
  8
0
  6
Continuous
 62
     0
100
AcDbLine
 10
160.6581529116793
 20
-79.20159103947153
 30
0.0
 11
160.6931886902722
 21
-79.01114208961899
 31
0.0
  0
LINE
  5
1A9
330
2
100
AcDbEntity
  8
0
  6
Continuous
 62
     0
100
AcDbLine
 10
160.6730931555433
 20
-79.0464792352111
 30
0.0
 11
160.6448402683572
 21
-79.04633106473911
 31
0.0
  0
LINE
  5
1AA
330
2
100
AcDbEntity
  8
0
  6
Continuous
 62
     0
100
AcDbLine
 10
160.6378768385892
 20
-79.16604190655054
 30
0.0
 11
160.6725411047202
 21
-79.04647631433302
 31
0.0
  0
LINE
  5
1AB
330
2
100
AcDbEntity
  8
0
  6
Continuous
 62
     0
100
AcDbLine
 10
160.6931886902722
 20
-79.01114208961899
 30
0.0
 11
160.6725411047202
 21
-79.04647631433302
 31
0.0
  0
LINE
  5
1AC
330
2
100
AcDbEntity
  8
0
  6
Continuous
 62
     0
100
AcDbLine
 10
160.6096229635245
 20
-79.16589389682652
 30
0.0
 11
160.6442872264922
 21
-79.04632829512255
 31
0.0
  0
LINE
  5
1AD
330
2
100
AcDbEntity
  8
0
  6
Continuous
 62
     0
100
AcDbLine
 10
160.5889753748093
 20
-79.20122811205406
 30
0.0
 11
160.6240111565655
 21
-79.01077917168805
 31
0.0
  0
LINE
  5
1AE
330
2
100
AcDbEntity
  8
0
  6
Continuous
 62
     0
100
AcDbLine
 10
160.6442872264922
 20
-79.04632829512255
 30
0.0
 11
160.6240111565655
 21
-79.01077917168805
 31
0.0
  0
LINE
  5
1AF
330
2
100
AcDbEntity
  8
0
  6
Continuous
 62
     0
100
AcDbLine
 10
160.6240111565655
 20
-79.01077917168805
 30
0.0
 11
160.6033625799716
 21
-79.04611354766363
 31
0.0
  0
LINE
  5
1B0
330
2
100
AcDbEntity
  8
0
  6
Continuous
 62
     0
100
AcDbLine
 10
160.5417884297178
 20
-79.16553801313813
 30
0.0
 11
160.5417885848298
 21
-79.59422685648608
 31
0.0
  0
LINE
  5
1B1
330
2
100
AcDbEntity
  8
0
  6
Continuous
 62
     0
100
AcDbLine
 10
160.4167882964169
 20
-79.59422685649379
 30
0.0
 11
160.416788265399
 21
-79.20048390820558
 31
0.0
  0
LINE
  5
1B2
330
2
100
AcDbEntity
  8
0
  6
Continuous
 62
     0
100
AcDbLine
 10
160.7888384036994
 20
-79.10636791738828
 30
0.0
 11
160.7544242503306
 21
-79.16606120270095
 31
0.0
  0
LINE
  5
1B3
330
2
100
AcDbEntity
  8
0
  6
Continuous
 62
     0
100
AcDbLine
 10
160.7138053437035
 20
-79.04458209345645
 30
0.0
 11
160.7548708775729
 21
-79.04479658095938
 31
0.0
  0
LINE
  5
1B4
330
2
100
AcDbEntity
  8
0
  6
Continuous
 62
     0
100
AcDbLine
 10
160.8215108061892
 20
-79.1289949537338
 30
0.0
 11
160.7757929195109
 21
-79.12899523383136
 31
0.0
  0
LINE
  5
1B5
330
2
100
AcDbEntity
  8
0
  6
Continuous
 62
     0
100
AcDbLine
 10
160.8215111372622
 20
-79.08699495464325
 30
0.0
 11
160.7781505657294
 21
-79.08699517709552
 31
0.0
  0
LINE
  5
1B6
330
2
100
AcDbEntity
  8
0
  6
Continuous
 62
     0
100
AcDbLine
 10
160.7548708775729
 20
-79.04479658095938
 30
0.0
 11
160.7888384036994
 21
-79.10636791738828
 31
0.0
  0
ARC
  5
1B7
330
2
100
AcDbEntity
  8
0
  6
Continuous
 62
     0
100
AcDbCircle
 10
160.8635112269257
 20
-79.09193399215985
 30
0.0
 40
0.131782
100
AcDbArc
 50
260.8301149300001
 51
279.1689869290015
  0
LINE
  5
1B8
330
2
100
AcDbEntity
  8
0
  6
Continuous
 62
     0
100
AcDbLine
 10
160.8425106443089
 20
-79.14999511849896
 30
0.0
 11
160.8425104341322
 21
-79.22203099479467
 31
0.0
  0
ARC
  5
1B9
330
2
100
AcDbEntity
  8
0
  6
Continuous
 62
     0
100
AcDbCircle
 10
160.821510643183
 20
-79.14999495770605
 30
0.0
 40
0.021
100
AcDbArc
 50
359.9995508999989
 51
89.99955090000099
  0
ARC
  5
1BA
330
2
100
AcDbEntity
  8
0
  6
Continuous
 62
     0
100
AcDbCircle
 10
160.905511308884
 20
-79.06599560301277
 30
0.0
 40
0.021
100
AcDbArc
 50
179.9995508999997
 51
269.9995509299998
  0
LINE
  5
1BB
330
2
100
AcDbEntity
  8
0
  6
Continuous
 62
     0
100
AcDbLine
 10
160.8425122366141
 20
-78.99430892228707
 30
0.0
 11
160.842511302343
 21
-79.06599511114757
 31
0.0
  0
LINE
  5
1BC
330
2
100
AcDbEntity
  8
0
  6
Continuous
 62
     0
100
AcDbLine
 10
160.884512238866
 20
-78.99430924387283
 30
0.0
 11
160.8845113077581
 21
-79.0659954422199
 31
0.0
  0
ARC
  5
1BD
330
2
100
AcDbEntity
  8
0
  6
Continuous
 62
     0
100
AcDbCircle
 10
160.8635104613572
 20
-79.12440641674222
 30
0.0
 40
0.131782
100
AcDbArc
 50
80.83011490000023
 51
99.16898690000129
  0
ARC
  5
1BE
330
2
100
AcDbEntity
  8
0
  6
Continuous
 62
     0
100
AcDbCircle
 10
160.9055106540133
 20
-79.14999561985067
 30
0.0
 40
0.021
100
AcDbArc
 50
89.99955090000099
 51
179.9995508999997
  0
LINE
  5
1BF
330
2
100
AcDbEntity
  8
2
  6
CENTER
 62
     4
100
AcDbLine
 10
160.9276921892681
 20
-79.10799582630068
 30
0.0
 11
160.7993299279742
 21
-79.10799572292869
 31
0.0
  0
ARC
  5
1C2
330
2
100
AcDbEntity
  8
0
  6
Continuous
 62
     0
100
AcDbCircle
 10
160.821511301217
 20
-79.06599495035466
 30
0.0
 40
0.021
100
AcDbArc
 50
269.9995509299998
 51
359.9995508999989
  0
LINE
  5
1C3
330
2
100
AcDbEntity
  8
0
  6
Continuous
 62
     0
100
AcDbLine
 10
160.8845106497241
 20
-79.14999544957125
 30
0.0
 11
160.8845104395474
 21
-79.22203132586701
 31
0.0
  0
LINE
  5
1C4
330
2
100
AcDbEntity
  8
2
  6
CENTER
 62
     4
100
AcDbLine
 10
160.8635116890472
 20
-79.04381505342161
 30
0.0
 11
160.8635104281951
 21
-79.17217649580783
 31
0.0
  0
LINE
  5
1C5
330
2
100
AcDbEntity
  8
0
  6
Continuous
 62
     0
100
AcDbLine
 10
160.6788014851099
 20
-79.16625665400946
 30
0.0
 11
160.7134657471289
 21
-79.04669105262181
 31
0.0
  0
LINE
  5
1C6
330
2
100
AcDbEntity
  8
0
  6
Continuous
 62
     0
100
AcDbLine
 10
160.7134657471289
 20
-79.04669105262181
 30
0.0
 11
160.6931886902722
 21
-79.01114208961899
 31
0.0
  0
LINE
  5
1C7
330
2
100
AcDbEntity
  8
0
  6
Continuous
 62
     0
100
AcDbLine
 10
160.7050047491705
 20
-79.16580183395142
 30
0.0
 11
160.7101267570535
 21
-79.13795868082303
 31
0.0
  0
LINE
  5
1C8
330
2
100
AcDbEntity
  8
0
  6
Continuous
 62
     0
100
AcDbLine
 10
160.7099351044227
 20
-79.17444667841561
 30
0.0
 11
160.7101267570535
 21
-79.13795868082303
 31
0.0
  0
LINE
  5
1C9
330
2
100
AcDbEntity
  8
0
  6
Continuous
 62
     0
100
AcDbLine
 10
160.7099803046177
 20
-79.16582803192821
 30
0.0
 11
160.7544242503306
 21
-79.16606120270095
 31
0.0
  0
LINE
  5
1CA
330
2
100
AcDbEntity
  8
0
  6
Continuous
 62
     0
100
AcDbLine
 10
160.2839724687964
 20
-78.91887527495855
 30
0.0
 11
160.2839724687964
 21
-79.29387527495855
 31
0.0
  0
LINE
  5
1CB
330
2
100
AcDbEntity
  8
0
  6
Continuous
 62
     0
100
AcDbLine
 10
160.416788265399
 20
-79.20048390820555
 30
0.0
 11
160.4211491370362
 21
-79.20048392919721
 31
0.0
  0
LINE
  5
1CC
330
2
100
AcDbEntity
  8
0
  6
Continuous
 62
     0
100
AcDbLine
 10
160.416788072893
 20
-79.00970016224055
 30
0.0
 11
160.4181348740385
 21
-79.00970016872356
 31
0.0
  0
LINE
  5
1CD
330
2
100
AcDbEntity
  8
0
  6
Continuous
 62
     0
100
AcDbLine
 10
160.6786342359667
 20
-79.16566312163988
 30
0.0
 11
160.7050047491705
 21
-79.16580183395142
 31
0.0
  0
LINE
  5
1CE
330
2
100
AcDbEntity
  8
0
  6
Continuous
 62
     0
100
AcDbLine
 10
160.7050047491705
 20
-79.16580183395142
 30
0.0
 11
160.7099351044227
 21
-79.17444667841561
 31
0.0
  0
LINE
  5
1CF
330
2
100
AcDbEntity
  8
0
  6
Continuous
 62
     0
100
AcDbLine
 10
160.5417882152718
 20
-78.68243312777308
 30
0.0
 11
160.5417884103188
 21
-79.03368816922813
 31
0.0
  0
LINE
  5
1D0
330
2
100
AcDbEntity
  8
0
  6
Continuous
 62
     0
100
AcDbLine
 10
160.4167880729
 20
-79.00971426762644
 30
0.0
 11
160.4167879116858
 21
-78.68243315742398
 31
0.0
  0
LINE
  5
1D1
330
2
100
AcDbEntity
  8
0
  6
Continuous
 62
     0
100
AcDbLine
 10
160.6378768385892
 20
-79.16604190655054
 30
0.0
 11
160.6581529116793
 21
-79.20159103947153
 31
0.0
  0
LINE
  5
1D2
330
2
100
AcDbEntity
  8
0
  6
Continuous
 62
     0
100
AcDbLine
 10
160.6581529116793
 20
-79.20159103947153
 30
0.0
 11
160.6788014851099
 21
-79.16625665400946
 31
0.0
  0
LINE
  5
1D3
330
2
100
AcDbEntity
  8
0
  6
Continuous
 62
     0
100
AcDbLine
 10
160.5409984685195
 20
-79.16553373902559
 30
0.0
 11
160.5756627314872
 21
-79.04596813732161
 31
0.0
  0
LINE
  5
1D4
330
2
100
AcDbEntity
  8
0
  6
Continuous
 62
     0
100
AcDbLine
 10
160.5686983179525
 20
-79.16567914905126
 30
0.0
 11
160.6033625799716
 21
-79.04611354766363
 31
0.0
  0
LINE
  5
1D5
330
2
100
AcDbEntity
  8
0
  6
Continuous
 62
     0
100
AcDbLine
 10
160.5000739881228
 20
-79.16531997976086
 30
0.0
 11
160.5203500580496
 21
-79.2008691031954
 31
0.0
  0
LINE
  5
1D6
330
2
100
AcDbEntity
  8
0
  6
Continuous
 62
     0
100
AcDbLine
 10
160.5203500580496
 20
-79.2008691031954
 30
0.0
 11
160.5553856736818
 21
-79.01041917463513
 31
0.0
  0
LINE
  5
1D7
330
2
100
AcDbEntity
  8
0
  6
Continuous
 62
     0
100
AcDbLine
 10
160.5889753748093
 20
-79.20122811205406
 30
0.0
 11
160.6096229635245
 21
-79.16589389682652
 31
0.0
  0
LINE
  5
1D8
330
2
100
AcDbEntity
  8
0
  6
Continuous
 62
     0
100
AcDbLine
 10
160.6096229635245
 20
-79.16589389682652
 30
0.0
 11
160.6378768385892
 21
-79.16604190655054
 31
0.0
  0
LINE
  5
1D9
330
2
100
AcDbEntity
  8
0
  6
Continuous
 62
     0
100
AcDbLine
 10
160.5404454266545
 20
-79.16553096940908
 30
0.0
 11
160.5686983179525
 21
-79.16567914905126
 31
0.0
  0
LINE
  5
1DA
330
2
100
AcDbEntity
  8
0
  6
Continuous
 62
     0
100
AcDbLine
 10
160.5686983179525
 20
-79.16567914905126
 30
0.0
 11
160.5889753748093
 21
-79.20122811205406
 31
0.0
  0
LINE
  5
1DB
330
2
100
AcDbEntity
  8
0
  6
Continuous
 62
     0
100
AcDbLine
 10
160.5203500580496
 20
-79.2008691031954
 30
0.0
 11
160.5409984685195
 21
-79.16553373902559
 31
0.0
  0
LINE
  5
1DC
330
2
100
AcDbEntity
  8
0
  6
Continuous
 62
     0
100
AcDbLine
 10
160.4666648221932
 20
-79.04539731136857
 30
0.0
 11
160.4384119318438
 21
-79.04524913141003
 31
0.0
  0
LINE
  5
1DD
330
2
100
AcDbEntity
  8
0
  6
Continuous
 62
     0
100
AcDbLine
 10
160.4384119318438
 20
-79.04524913141003
 30
0.0
 11
160.4181350266119
 21
-79.11519074249934
 31
0.0
  0
LINE
  5
1DE
330
2
100
AcDbEntity
  8
0
  6
Continuous
 62
     0
100
AcDbLine
 10
160.6039156218365
 20
-79.04611631728015
 30
0.0
 11
160.5756627314872
 21
-79.04596813732161
 31
0.0
  0
LINE
  5
1DF
330
2
100
AcDbEntity
  8
0
  6
Continuous
 62
     0
100
AcDbLine
 10
160.4314485061878
 20
-79.16495998239163
 30
0.0
 11
160.4517245761146
 21
-79.20050910582616
 31
0.0
  0
LINE
  5
1E0
330
2
100
AcDbEntity
  8
0
  6
Continuous
 62
     0
100
AcDbLine
 10
160.4517245761146
 20
-79.20050910582616
 30
0.0
 11
160.4723731517599
 21
-79.16517473016693
 31
0.0
  0
LINE
  5
1E1
330
2
100
AcDbEntity
  8
0
  6
Continuous
 62
     0
100
AcDbLine
 10
160.5756627314872
 20
-79.04596813732161
 30
0.0
 11
160.5553856736818
 21
-79.01041917463513
 31
0.0
  0
LINE
  5
1E2
330
2
100
AcDbEntity
  8
0
  6
Continuous
 62
     0
100
AcDbLine
 10
160.4211491370362
 20
-79.20048392919721
 30
0.0
 11
160.4661127682068
 21
-79.04539438100393
 31
0.0
  0
LINE
  5
1E3
330
2
100
AcDbEntity
  8
0
  6
Continuous
 62
     0
100
AcDbLine
 10
160.4718199447196
 20
-79.16517097203983
 30
0.0
 11
160.5000739881228
 21
-79.16531997976086
 31
0.0
  0
LINE
  5
1E4
330
2
100
AcDbEntity
  8
0
  6
Continuous
 62
     0
100
AcDbLine
 10
160.5553856736818
 20
-79.01041917463513
 30
0.0
 11
160.5347380849665
 21
-79.04575338986266
 31
0.0
  0
LINE
  5
1E5
330
2
100
AcDbEntity
  8
0
  6
Continuous
 62
     0
100
AcDbLine
 10
160.5352903050769
 20
-79.04575730842146
 30
0.0
 11
160.5070374147274
 21
-79.04560912846294
 31
0.0
  0
LINE
  5
1E6
330
2
100
AcDbEntity
  8
0
  6
Continuous
 62
     0
100
AcDbLine
 10
160.5070374147274
 20
-79.04560912846294
 30
0.0
 11
160.4867601907981
 21
-79.01005917758223
 31
0.0
  0
LINE
  5
1E7
330
2
100
AcDbEntity
  8
0
  6
Continuous
 62
     0
100
AcDbLine
 10
160.4723731517599
 20
-79.16517473016693
 30
0.0
 11
160.5070374147274
 21
-79.04560912846294
 31
0.0
  0
LINE
  5
1E8
330
2
100
AcDbEntity
  8
0
  6
Continuous
 62
     0
100
AcDbLine
 10
160.4517245761146
 20
-79.20050910582616
 30
0.0
 11
160.4867601907981
 21
-79.01005917758223
 31
0.0
  0
LINE
  5
1E9
330
2
100
AcDbEntity
  8
0
  6
Continuous
 62
     0
100
AcDbLine
 10
160.4867601907981
 20
-79.01005917758223
 30
0.0
 11
160.4661127682068
 21
-79.04539438100393
 31
0.0
  0
LINE
  5
1EA
330
2
100
AcDbEntity
  8
0
  6
Continuous
 62
     0
100
AcDbLine
 10
160.5000739881228
 20
-79.16531997976086
 30
0.0
 11
160.5347380849665
 21
-79.04575338986266
 31
0.0
  0
LINE
  5
1EB
330
2
100
AcDbEntity
  8
0
  6
Continuous
 62
     0
100
AcDbLine
 10
160.4384119318438
 20
-79.04524913141003
 30
0.0
 11
160.4181348740385
 21
-79.00970016872356
 31
0.0
  0
LINE
  5
1EC
330
2
100
AcDbEntity
  8
0
  6
Continuous
 62
     0
100
AcDbLine
 10
160.4181348740385
 20
-79.00970016872356
 30
0.0
 11
160.4181350266119
 21
-79.11519074249934
 31
0.0
  0
LINE
  5
1ED
330
2
100
AcDbEntity
  8
0
  6
Continuous
 62
     0
100
AcDbLine
 10
160.6581529116793
 20
-79.20159103947153
 30
0.0
 11
160.6931886902722
 21
-79.01114208961899
 31
0.0
  0
LINE
  5
1EE
330
2
100
AcDbEntity
  8
0
  6
Continuous
 62
     0
100
AcDbLine
 10
160.6730931555433
 20
-79.0464792352111
 30
0.0
 11
160.6448402683572
 21
-79.04633106473911
 31
0.0
  0
LINE
  5
1EF
330
2
100
AcDbEntity
  8
0
  6
Continuous
 62
     0
100
AcDbLine
 10
160.6378768385892
 20
-79.16604190655054
 30
0.0
 11
160.6725411047202
 21
-79.04647631433302
 31
0.0
  0
LINE
  5
1F0
330
2
100
AcDbEntity
  8
0
  6
Continuous
 62
     0
100
AcDbLine
 10
160.6931886902722
 20
-79.01114208961899
 30
0.0
 11
160.6725411047202
 21
-79.04647631433302
 31
0.0
  0
LINE
  5
1F1
330
2
100
AcDbEntity
  8
0
  6
Continuous
 62
     0
100
AcDbLine
 10
160.6096229635245
 20
-79.16589389682652
 30
0.0
 11
160.6442872264922
 21
-79.04632829512255
 31
0.0
  0
LINE
  5
1F2
330
2
100
AcDbEntity
  8
0
  6
Continuous
 62
     0
100
AcDbLine
 10
160.5889753748093
 20
-79.20122811205406
 30
0.0
 11
160.6240111565655
 21
-79.01077917168805
 31
0.0
  0
LINE
  5
1F3
330
2
100
AcDbEntity
  8
0
  6
Continuous
 62
     0
100
AcDbLine
 10
160.6442872264922
 20
-79.04632829512255
 30
0.0
 11
160.6240111565655
 21
-79.01077917168805
 31
0.0
  0
LINE
  5
1F4
330
2
100
AcDbEntity
  8
0
  6
Continuous
 62
     0
100
AcDbLine
 10
160.6240111565655
 20
-79.01077917168805
 30
0.0
 11
160.6033625799716
 21
-79.04611354766363
 31
0.0
  0
LINE
  5
1F5
330
2
100
AcDbEntity
  8
0
  6
Continuous
 62
     0
100
AcDbLine
 10
160.5417884297178
 20
-79.16553801313813
 30
0.0
 11
160.5417885848298
 21
-79.59422685648608
 31
0.0
  0
LINE
  5
1F6
330
2
100
AcDbEntity
  8
0
  6
Continuous
 62
     0
100
AcDbLine
 10
160.4167882964169
 20
-79.59422685649379
 30
0.0
 11
160.416788265399
 21
-79.20048390820558
 31
0.0
  0
LINE
  5
1F7
330
2
100
AcDbEntity
  8
0
  6
Continuous
 62
     0
100
AcDbLine
 10
160.7888384036994
 20
-79.10636791738828
 30
0.0
 11
160.7544242503306
 21
-79.16606120270095
 31
0.0
  0
LINE
  5
1F8
330
2
100
AcDbEntity
  8
0
  6
Continuous
 62
     0
100
AcDbLine
 10
160.7138053437035
 20
-79.04458209345645
 30
0.0
 11
160.7548708775729
 21
-79.04479658095938
 31
0.0
  0
LINE
  5
1F9
330
2
100
AcDbEntity
  8
0
  6
Continuous
 62
     0
100
AcDbLine
 10
160.8215108061892
 20
-79.1289949537338
 30
0.0
 11
160.7757929195109
 21
-79.12899523383136
 31
0.0
  0
LINE
  5
1FA
330
2
100
AcDbEntity
  8
0
  6
Continuous
 62
     0
100
AcDbLine
 10
160.8215111372622
 20
-79.08699495464325
 30
0.0
 11
160.7781505657294
 21
-79.08699517709552
 31
0.0
  0
LINE
  5
1FB
330
2
100
AcDbEntity
  8
0
  6
Continuous
 62
     0
100
AcDbLine
 10
160.7548708775729
 20
-79.04479658095938
 30
0.0
 11
160.7888384036994
 21
-79.10636791738828
 31
0.0
  0
ARC
  5
1FC
330
2
100
AcDbEntity
  8
0
  6
Continuous
 62
     0
100
AcDbCircle
 10
160.8635112269257
 20
-79.09193399215985
 30
0.0
 40
0.131782
100
AcDbArc
 50
260.8301149300001
 51
279.1689869290015
  0
LINE
  5
1FD
330
2
100
AcDbEntity
  8
0
  6
Continuous
 62
     0
100
AcDbLine
 10
160.8425106443089
 20
-79.14999511849896
 30
0.0
 11
160.8425104341322
 21
-79.22203099479467
 31
0.0
  0
ARC
  5
1FE
330
2
100
AcDbEntity
  8
0
  6
Continuous
 62
     0
100
AcDbCircle
 10
160.821510643183
 20
-79.14999495770605
 30
0.0
 40
0.021
100
AcDbArc
 50
359.9995508999989
 51
89.99955090000099
  0
ARC
  5
1FF
330
2
100
AcDbEntity
  8
0
  6
Continuous
 62
     0
100
AcDbCircle
 10
160.905511308884
 20
-79.06599560301277
 30
0.0
 40
0.021
100
AcDbArc
 50
179.9995508999997
 51
269.9995509299998
  0
LINE
  5
200
330
2
100
AcDbEntity
  8
0
  6
Continuous
 62
     0
100
AcDbLine
 10
160.8425122366141
 20
-78.99430892228707
 30
0.0
 11
160.842511302343
 21
-79.06599511114757
 31
0.0
  0
LINE
  5
201
330
2
100
AcDbEntity
  8
0
  6
Continuous
 62
     0
100
AcDbLine
 10
160.884512238866
 20
-78.99430924387283
 30
0.0
 11
160.8845113077581
 21
-79.0659954422199
 31
0.0
  0
ARC
  5
202
330
2
100
AcDbEntity
  8
0
  6
Continuous
 62
     0
100
AcDbCircle
 10
160.8635104613572
 20
-79.12440641674222
 30
0.0
 40
0.131782
100
AcDbArc
 50
80.83011490000023
 51
99.16898690000129
  0
ARC
  5
203
330
2
100
AcDbEntity
  8
0
  6
Continuous
 62
     0
100
AcDbCircle
 10
160.9055106540133
 20
-79.14999561985067
 30
0.0
 40
0.021
100
AcDbArc
 50
89.99955090000099
 51
179.9995508999997
  0
LINE
  5
204
330
2
100
AcDbEntity
  8
2
  6
CENTER
 62
     4
100
AcDbLine
 10
160.9276921892681
 20
-79.10799582630068
 30
0.0
 11
160.7993299279742
 21
-79.10799572292869
 31
0.0
  0
ARC
  5
205
330
2
100
AcDbEntity
  8
0
  6
Continuous
 62
     0
100
AcDbCircle
 10
160.821511301217
 20
-79.06599495035466
 30
0.0
 40
0.021
100
AcDbArc
 50
269.9995509299998
 51
359.9995508999989
  0
LINE
  5
206
330
2
100
AcDbEntity
  8
0
  6
Continuous
 62
     0
100
AcDbLine
 10
160.8845106497241
 20
-79.14999544957125
 30
0.0
 11
160.8845104395474
 21
-79.22203132586701
 31
0.0
  0
LINE
  5
207
330
2
100
AcDbEntity
  8
2
  6
CENTER
 62
     4
100
AcDbLine
 10
160.8635116890472
 20
-79.04381505342161
 30
0.0
 11
160.8635104281951
 21
-79.17217649580783
 31
0.0
  0
LINE
  5
208
330
2
100
AcDbEntity
  8
0
  6
Continuous
 62
     0
100
AcDbLine
 10
160.6788014851099
 20
-79.16625665400946
 30
0.0
 11
160.7134657471289
 21
-79.04669105262181
 31
0.0
  0
LINE
  5
209
330
2
100
AcDbEntity
  8
0
  6
Continuous
 62
     0
100
AcDbLine
 10
160.7134657471289
 20
-79.04669105262181
 30
0.0
 11
160.6931886902722
 21
-79.01114208961899
 31
0.0
  0
LINE
  5
20A
330
2
100
AcDbEntity
  8
0
  6
Continuous
 62
     0
100
AcDbLine
 10
160.7050047491705
 20
-79.16580183395142
 30
0.0
 11
160.7101267570535
 21
-79.13795868082303
 31
0.0
  0
LINE
  5
20B
330
2
100
AcDbEntity
  8
0
  6
Continuous
 62
     0
100
AcDbLine
 10
160.7099351044227
 20
-79.17444667841561
 30
0.0
 11
160.7101267570535
 21
-79.13795868082303
 31
0.0
  0
LINE
  5
20C
330
2
100
AcDbEntity
  8
0
  6
Continuous
 62
     0
100
AcDbLine
 10
160.7099803046177
 20
-79.16582803192821
 30
0.0
 11
160.7544242503306
 21
-79.16606120270095
 31
0.0
  0
LINE
  5
20D
330
2
100
AcDbEntity
  8
0
  6
Continuous
 62
     0
100
AcDbLine
 10
160.2839724687964
 20
-78.91887527495855
 30
0.0
 11
160.2839724687964
 21
-79.29387527495855
 31
0.0
  0
LINE
  5
20E
330
2
100
AcDbEntity
  8
0
  6
Continuous
 62
     0
100
AcDbLine
 10
160.416788265399
 20
-79.20048390820555
 30
0.0
 11
160.4211491370362
 21
-79.20048392919721
 31
0.0
  0
LINE
  5
20F
330
2
100
AcDbEntity
  8
0
  6
Continuous
 62
     0
100
AcDbLine
 10
160.416788072893
 20
-79.00970016224055
 30
0.0
 11
160.4181348740385
 21
-79.00970016872356
 31
0.0
  0
LINE
  5
210
330
2
100
AcDbEntity
  8
0
  6
Continuous
 62
     0
100
AcDbLine
 10
162.1511572590437
 20
-79.00970016224055
 30
0.0
 11
162.1498104578983
 21
-79.00970016872356
 31
0.0
  0
LINE
  5
211
330
2
100
AcDbEntity
  8
0
  6
Continuous
 62
     0
100
AcDbLine
 10
162.1511570665378
 20
-79.20048390820555
 30
0.0
 11
162.1467961949006
 21
-79.20048392919721
 31
0.0
  0
LINE
  5
212
330
2
100
AcDbEntity
  8
0
  6
Continuous
 62
     0
100
AcDbLine
 10
162.2839728631404
 20
-78.91887527495855
 30
0.0
 11
162.2839728631404
 21
-79.29387527495855
 31
0.0
  0
LINE
  5
213
330
2
100
AcDbEntity
  8
0
  6
Continuous
 62
     0
100
AcDbLine
 10
161.8579650273191
 20
-79.16582803192821
 30
0.0
 11
161.8135210816062
 21
-79.16606120270095
 31
0.0
  0
LINE
  5
214
330
2
100
AcDbEntity
  8
0
  6
Continuous
 62
     0
100
AcDbLine
 10
161.858010227514
 20
-79.17444667841561
 30
0.0
 11
161.8578185748833
 21
-79.13795868082303
 31
0.0
  0
LINE
  5
215
330
2
100
AcDbEntity
  8
0
  6
Continuous
 62
     0
100
AcDbLine
 10
161.8629405827662
 20
-79.16580183395142
 30
0.0
 11
161.8578185748833
 21
-79.13795868082303
 31
0.0
  0
LINE
  5
216
330
2
100
AcDbEntity
  8
0
  6
Continuous
 62
     0
100
AcDbLine
 10
161.8544795848078
 20
-79.04669105262181
 30
0.0
 11
161.8747566416645
 21
-79.01114208961899
 31
0.0
  0
LINE
  5
217
330
2
100
AcDbEntity
  8
0
  6
Continuous
 62
     0
100
AcDbLine
 10
161.8891438468268
 20
-79.16625665400946
 30
0.0
 11
161.8544795848078
 21
-79.04669105262181
 31
0.0
  0
LINE
  5
218
330
2
100
AcDbEntity
  8
2
  6
CENTER
 62
     4
100
AcDbLine
 10
161.7044336428895
 20
-79.04381505342161
 30
0.0
 11
161.7044349037416
 21
-79.17217649580783
 31
0.0
  0
LINE
  5
219
330
2
100
AcDbEntity
  8
0
  6
Continuous
 62
     0
100
AcDbLine
 10
161.6834346822127
 20
-79.14999544957125
 30
0.0
 11
161.6834348923894
 21
-79.22203132586701
 31
0.0
  0
ARC
  5
21A
330
2
100
AcDbEntity
  8
0
  6
Continuous
 62
     0
100
AcDbCircle
 10
161.7464340307198
 20
-79.06599495035466
 30
0.0
 40
0.021
100
AcDbArc
 50
180.000449100001
 51
270.0004490700002
  0
LINE
  5
21B
330
2
100
AcDbEntity
  8
2
  6
CENTER
 62
     4
100
AcDbLine
 10
161.6402531426686
 20
-79.10799582630068
 30
0.0
 11
161.7686154039625
 21
-79.10799572292869
 31
0.0
  0
ARC
  5
21C
330
2
100
AcDbEntity
  8
0
  6
Continuous
 62
     0
100
AcDbCircle
 10
161.6624346779234
 20
-79.14999561985067
 30
0.0
 40
0.021
100
AcDbArc
 50
0.0004491000002257
 51
90.00044909999902
  0
ARC
  5
21D
330
2
100
AcDbEntity
  8
0
  6
Continuous
 62
     0
100
AcDbCircle
 10
161.7044348705796
 20
-79.12440641674222
 30
0.0
 40
0.131782
100
AcDbArc
 50
80.83101309999872
 51
99.16988509999978
  0
LINE
  5
21E
330
2
100
AcDbEntity
  8
0
  6
Continuous
 62
     0
100
AcDbLine
 10
161.6834330930708
 20
-78.99430924387283
 30
0.0
 11
161.6834340241786
 21
-79.0659954422199
 31
0.0
  0
LINE
  5
21F
330
2
100
AcDbEntity
  8
0
  6
Continuous
 62
     0
100
AcDbLine
 10
161.7254330953227
 20
-78.99430892228707
 30
0.0
 11
161.7254340295938
 21
-79.06599511114757
 31
0.0
  0
ARC
  5
220
330
2
100
AcDbEntity
  8
0
  6
Continuous
 62
     0
100
AcDbCircle
 10
161.6624340230527
 20
-79.06599560301277
 30
0.0
 40
0.021
100
AcDbArc
 50
270.0004490700002
 51
0.0004491000002257
  0
ARC
  5
221
330
2
100
AcDbEntity
  8
0
  6
Continuous
 62
     0
100
AcDbCircle
 10
161.7464346887538
 20
-79.14999495770605
 30
0.0
 40
0.021
100
AcDbArc
 50
90.00044909999902
 51
180.000449100001
  0
LINE
  5
222
330
2
100
AcDbEntity
  8
0
  6
Continuous
 62
     0
100
AcDbLine
 10
161.7254346876278
 20
-79.14999511849896
 30
0.0
 11
161.7254348978045
 21
-79.22203099479467
 31
0.0
  0
ARC
  5
223
330
2
100
AcDbEntity
  8
0
  6
Continuous
 62
     0
100
AcDbCircle
 10
161.704434105011
 20
-79.09193399215985
 30
0.0
 40
0.131782
100
AcDbArc
 50
260.8310130709985
 51
279.1698850699999
  0
LINE
  5
224
330
2
100
AcDbEntity
  8
0
  6
Continuous
 62
     0
100
AcDbLine
 10
161.8130744543639
 20
-79.04479658095938
 30
0.0
 11
161.7791069282374
 21
-79.10636791738828
 31
0.0
  0
LINE
  5
225
330
2
100
AcDbEntity
  8
0
  6
Continuous
 62
     0
100
AcDbLine
 10
161.7464341946746
 20
-79.08699495464325
 30
0.0
 11
161.7897947662074
 21
-79.08699517709552
 31
0.0
  0
LINE
  5
226
330
2
100
AcDbEntity
  8
0
  6
Continuous
 62
     0
100
AcDbLine
 10
161.7464345257476
 20
-79.1289949537338
 30
0.0
 11
161.7921524124258
 21
-79.12899523383136
 31
0.0
  0
LINE
  5
227
330
2
100
AcDbEntity
  8
0
  6
Continuous
 62
     0
100
AcDbLine
 10
161.8541399882333
 20
-79.04458209345645
 30
0.0
 11
161.8130744543639
 21
-79.04479658095938
 31
0.0
  0
LINE
  5
228
330
2
100
AcDbEntity
  8
0
  6
Continuous
 62
     0
100
AcDbLine
 10
161.7791069282374
 20
-79.10636791738828
 30
0.0
 11
161.8135210816062
 21
-79.16606120270095
 31
0.0
  0
LINE
  5
229
330
2
100
AcDbEntity
  8
0
  6
Continuous
 62
     0
100
AcDbLine
 10
162.1511570355198
 20
-79.59422685649379
 30
0.0
 11
162.1511570665378
 21
-79.20048390820558
 31
0.0
  0
LINE
  5
22A
330
2
100
AcDbEntity
  8
0
  6
Continuous
 62
     0
100
AcDbLine
 10
162.026156902219
 20
-79.16553801313813
 30
0.0
 11
162.0261567471069
 21
-79.59422685648608
 31
0.0
  0
LINE
  5
22B
330
2
100
AcDbEntity
  8
0
  6
Continuous
 62
     0
100
AcDbLine
 10
161.9439341753713
 20
-79.01077917168805
 30
0.0
 11
161.9645827519652
 21
-79.04611354766363
 31
0.0
  0
LINE
  5
22C
330
2
100
AcDbEntity
  8
0
  6
Continuous
 62
     0
100
AcDbLine
 10
161.9236581054445
 20
-79.04632829512255
 30
0.0
 11
161.9439341753713
 21
-79.01077917168805
 31
0.0
  0
LINE
  5
22D
330
2
100
AcDbEntity
  8
0
  6
Continuous
 62
     0
100
AcDbLine
 10
161.9789699571275
 20
-79.20122811205406
 30
0.0
 11
161.9439341753713
 21
-79.01077917168805
 31
0.0
  0
LINE
  5
22E
330
2
100
AcDbEntity
  8
0
  6
Continuous
 62
     0
100
AcDbLine
 10
161.9583223684122
 20
-79.16589389682652
 30
0.0
 11
161.9236581054445
 21
-79.04632829512255
 31
0.0
  0
LINE
  5
22F
330
2
100
AcDbEntity
  8
0
  6
Continuous
 62
     0
100
AcDbLine
 10
161.8747566416645
 20
-79.01114208961899
 30
0.0
 11
161.8954042272166
 21
-79.04647631433302
 31
0.0
  0
LINE
  5
230
330
2
100
AcDbEntity
  8
0
  6
Continuous
 62
     0
100
AcDbLine
 10
161.9300684933475
 20
-79.16604190655054
 30
0.0
 11
161.8954042272166
 21
-79.04647631433302
 31
0.0
  0
LINE
  5
231
330
2
100
AcDbEntity
  8
0
  6
Continuous
 62
     0
100
AcDbLine
 10
161.8948521763934
 20
-79.0464792352111
 30
0.0
 11
161.9231050635796
 21
-79.04633106473911
 31
0.0
  0
LINE
  5
232
330
2
100
AcDbEntity
  8
0
  6
Continuous
 62
     0
100
AcDbLine
 10
161.9097924202574
 20
-79.20159103947153
 30
0.0
 11
161.8747566416645
 21
-79.01114208961899
 31
0.0
  0
LINE
  5
233
330
2
100
AcDbEntity
  8
0
  6
Continuous
 62
     0
100
AcDbLine
 10
162.1498104578983
 20
-79.00970016872356
 30
0.0
 11
162.1498103053248
 21
-79.11519074249934
 31
0.0
  0
LINE
  5
234
330
2
100
AcDbEntity
  8
0
  6
Continuous
 62
     0
100
AcDbLine
 10
162.1295334000929
 20
-79.04524913141003
 30
0.0
 11
162.1498104578983
 21
-79.00970016872356
 31
0.0
  0
LINE
  5
235
330
2
100
AcDbEntity
  8
0
  6
Continuous
 62
     0
100
AcDbLine
 10
162.0678713438139
 20
-79.16531997976086
 30
0.0
 11
162.0332072469703
 21
-79.04575338986266
 31
0.0
  0
LINE
  5
236
330
2
100
AcDbEntity
  8
0
  6
Continuous
 62
     0
100
AcDbLine
 10
162.0811851411386
 20
-79.01005917758223
 30
0.0
 11
162.10183256373
 21
-79.04539438100393
 31
0.0
  0
LINE
  5
237
330
2
100
AcDbEntity
  8
0
  6
Continuous
 62
     0
100
AcDbLine
 10
162.1162207558221
 20
-79.20050910582616
 30
0.0
 11
162.0811851411386
 21
-79.01005917758223
 31
0.0
  0
LINE
  5
238
330
2
100
AcDbEntity
  8
0
  6
Continuous
 62
     0
100
AcDbLine
 10
162.0955721801769
 20
-79.16517473016693
 30
0.0
 11
162.0609079172093
 21
-79.04560912846294
 31
0.0
  0
LINE
  5
239
330
2
100
AcDbEntity
  8
0
  6
Continuous
 62
     0
100
AcDbLine
 10
162.0609079172093
 20
-79.04560912846294
 30
0.0
 11
162.0811851411386
 21
-79.01005917758223
 31
0.0
  0
LINE
  5
23A
330
2
100
AcDbEntity
  8
0
  6
Continuous
 62
     0
100
AcDbLine
 10
162.0326550268599
 20
-79.04575730842146
 30
0.0
 11
162.0609079172093
 21
-79.04560912846294
 31
0.0
  0
LINE
  5
23B
330
2
100
AcDbEntity
  8
0
  6
Continuous
 62
     0
100
AcDbLine
 10
162.012559658255
 20
-79.01041917463513
 30
0.0
 11
162.0332072469703
 21
-79.04575338986266
 31
0.0
  0
LINE
  5
23C
330
2
100
AcDbEntity
  8
0
  6
Continuous
 62
     0
100
AcDbLine
 10
162.0961253872172
 20
-79.16517097203983
 30
0.0
 11
162.0678713438139
 21
-79.16531997976086
 31
0.0
  0
LINE
  5
23D
330
2
100
AcDbEntity
  8
0
  6
Continuous
 62
     0
100
AcDbLine
 10
162.1467961949006
 20
-79.20048392919721
 30
0.0
 11
162.10183256373
 21
-79.04539438100393
 31
0.0
  0
LINE
  5
23E
330
2
100
AcDbEntity
  8
0
  6
Continuous
 62
     0
100
AcDbLine
 10
161.9922826004496
 20
-79.04596813732161
 30
0.0
 11
162.012559658255
 21
-79.01041917463513
 31
0.0
  0
LINE
  5
23F
330
2
100
AcDbEntity
  8
0
  6
Continuous
 62
     0
100
AcDbLine
 10
162.1162207558221
 20
-79.20050910582616
 30
0.0
 11
162.0955721801769
 21
-79.16517473016693
 31
0.0
  0
LINE
  5
240
330
2
100
AcDbEntity
  8
0
  6
Continuous
 62
     0
100
AcDbLine
 10
162.1364968257489
 20
-79.16495998239163
 30
0.0
 11
162.1162207558221
 21
-79.20050910582616
 31
0.0
  0
LINE
  5
241
330
2
100
AcDbEntity
  8
0
  6
Continuous
 62
     0
100
AcDbLine
 10
161.9640297101002
 20
-79.04611631728015
 30
0.0
 11
161.9922826004496
 21
-79.04596813732161
 31
0.0
  0
LINE
  5
242
330
2
100
AcDbEntity
  8
0
  6
Continuous
 62
     0
100
AcDbLine
 10
162.1295334000929
 20
-79.04524913141003
 30
0.0
 11
162.1498103053248
 21
-79.11519074249934
 31
0.0
  0
LINE
  5
243
330
2
100
AcDbEntity
  8
0
  6
Continuous
 62
     0
100
AcDbLine
 10
162.1012805097436
 20
-79.04539731136857
 30
0.0
 11
162.1295334000929
 21
-79.04524913141003
 31
0.0
  0
LINE
  5
244
330
2
100
AcDbEntity
  8
0
  6
Continuous
 62
     0
100
AcDbLine
 10
162.0475952738872
 20
-79.2008691031954
 30
0.0
 11
162.0269468634173
 21
-79.16553373902559
 31
0.0
  0
LINE
  5
245
330
2
100
AcDbEntity
  8
0
  6
Continuous
 62
     0
100
AcDbLine
 10
161.9992470139842
 20
-79.16567914905126
 30
0.0
 11
161.9789699571275
 21
-79.20122811205406
 31
0.0
  0
LINE
  5
246
330
2
100
AcDbEntity
  8
0
  6
Continuous
 62
     0
100
AcDbLine
 10
162.0274999052822
 20
-79.16553096940908
 30
0.0
 11
161.9992470139842
 21
-79.16567914905126
 31
0.0
  0
LINE
  5
247
330
2
100
AcDbEntity
  8
0
  6
Continuous
 62
     0
100
AcDbLine
 10
161.9583223684122
 20
-79.16589389682652
 30
0.0
 11
161.9300684933475
 21
-79.16604190655054
 31
0.0
  0
LINE
  5
248
330
2
100
AcDbEntity
  8
0
  6
Continuous
 62
     0
100
AcDbLine
 10
161.9789699571275
 20
-79.20122811205406
 30
0.0
 11
161.9583223684122
 21
-79.16589389682652
 31
0.0
  0
LINE
  5
249
330
2
100
AcDbEntity
  8
0
  6
Continuous
 62
     0
100
AcDbLine
 10
162.0475952738872
 20
-79.2008691031954
 30
0.0
 11
162.012559658255
 21
-79.01041917463513
 31
0.0
  0
LINE
  5
24A
330
2
100
AcDbEntity
  8
0
  6
Continuous
 62
     0
100
AcDbLine
 10
162.0678713438139
 20
-79.16531997976086
 30
0.0
 11
162.0475952738872
 21
-79.2008691031954
 31
0.0
  0
LINE
  5
24B
330
2
100
AcDbEntity
  8
0
  6
Continuous
 62
     0
100
AcDbLine
 10
161.9992470139842
 20
-79.16567914905126
 30
0.0
 11
161.9645827519652
 21
-79.04611354766363
 31
0.0
  0
LINE
  5
24C
330
2
100
AcDbEntity
  8
0
  6
Continuous
 62
     0
100
AcDbLine
 10
162.0269468634173
 20
-79.16553373902559
 30
0.0
 11
161.9922826004496
 21
-79.04596813732161
 31
0.0
  0
LINE
  5
24D
330
2
100
AcDbEntity
  8
0
  6
Continuous
 62
     0
100
AcDbLine
 10
161.9097924202574
 20
-79.20159103947153
 30
0.0
 11
161.8891438468268
 21
-79.16625665400946
 31
0.0
  0
LINE
  5
24E
330
2
100
AcDbEntity
  8
0
  6
Continuous
 62
     0
100
AcDbLine
 10
161.9300684933475
 20
-79.16604190655054
 30
0.0
 11
161.9097924202574
 21
-79.20159103947153
 31
0.0
  0
LINE
  5
24F
330
2
100
AcDbEntity
  8
0
  6
Continuous
 62
     0
100
AcDbLine
 10
162.1511572590368
 20
-79.00971426762644
 30
0.0
 11
162.151157420251
 21
-78.68243315742398
 31
0.0
  0
LINE
  5
250
330
2
100
AcDbEntity
  8
0
  6
Continuous
 62
     0
100
AcDbLine
 10
162.026157116665
 20
-78.68243312777308
 30
0.0
 11
162.026156921618
 21
-79.03368816922813
 31
0.0
  0
LINE
  5
251
330
2
100
AcDbEntity
  8
0
  6
Continuous
 62
     0
100
AcDbLine
 10
161.8629405827662
 20
-79.16580183395142
 30
0.0
 11
161.858010227514
 21
-79.17444667841561
 31
0.0
  0
LINE
  5
252
330
2
100
AcDbEntity
  8
0
  6
Continuous
 62
     0
100
AcDbLine
 10
161.8893110959701
 20
-79.16566312163988
 30
0.0
 11
161.8629405827662
 21
-79.16580183395142
 31
0.0
  0
LINE
  5
253
330
2
100
AcDbEntity
  8
0
  6
Continuous
 62
     0
100
AcDbLine
 10
162.4141847621908
 20
-79.16366337590805
 30
0.0
 11
162.4141847621908
 21
-79.04908717400906
 31
0.0
  0
ARC
  5
254
330
2
100
AcDbEntity
  8
0
  6
Continuous
 62
     0
100
AcDbCircle
 10
162.2839728631404
 20
-79.04908717400906
 30
0.0
 40
0.1302118990505079
100
AcDbArc
 50
359.9999999999968
 51
89.99999999999694
  0
ARC
  5
255
330
2
100
AcDbEntity
  8
0
  6
Continuous
 62
     0
100
AcDbCircle
 10
162.2839728631404
 20
-79.16366337590805
 30
0.0
 40
0.1302118990505079
100
AcDbArc
 50
270.0
 51
0.0
  0
LINE
  5
256
330
2
100
AcDbEntity
  8
0
  6
Continuous
 62
     0
100
AcDbLine
 10
162.1511572590437
 20
-79.00970016224055
 30
0.0
 11
162.1498104578983
 21
-79.00970016872356
 31
0.0
  0
LINE
  5
257
330
2
100
AcDbEntity
  8
0
  6
Continuous
 62
     0
100
AcDbLine
 10
162.1511570665378
 20
-79.20048390820555
 30
0.0
 11
162.1467961949006
 21
-79.20048392919721
 31
0.0
  0
LINE
  5
258
330
2
100
AcDbEntity
  8
0
  6
Continuous
 62
     0
100
AcDbLine
 10
162.2839728631404
 20
-78.91887527495855
 30
0.0
 11
162.2839728631404
 21
-79.29387527495855
 31
0.0
  0
LINE
  5
259
330
2
100
AcDbEntity
  8
0
  6
Continuous
 62
     0
100
AcDbLine
 10
161.8579650273191
 20
-79.16582803192821
 30
0.0
 11
161.8135210816062
 21
-79.16606120270095
 31
0.0
  0
LINE
  5
25A
330
2
100
AcDbEntity
  8
0
  6
Continuous
 62
     0
100
AcDbLine
 10
161.858010227514
 20
-79.17444667841561
 30
0.0
 11
161.8578185748833
 21
-79.13795868082303
 31
0.0
  0
LINE
  5
25B
330
2
100
AcDbEntity
  8
0
  6
Continuous
 62
     0
100
AcDbLine
 10
161.8629405827662
 20
-79.16580183395142
 30
0.0
 11
161.8578185748833
 21
-79.13795868082303
 31
0.0
  0
LINE
  5
25C
330
2
100
AcDbEntity
  8
0
  6
Continuous
 62
     0
100
AcDbLine
 10
161.8544795848078
 20
-79.04669105262181
 30
0.0
 11
161.8747566416645
 21
-79.01114208961899
 31
0.0
  0
LINE
  5
25D
330
2
100
AcDbEntity
  8
0
  6
Continuous
 62
     0
100
AcDbLine
 10
161.8891438468268
 20
-79.16625665400946
 30
0.0
 11
161.8544795848078
 21
-79.04669105262181
 31
0.0
  0
LINE
  5
25E
330
2
100
AcDbEntity
  8
2
  6
CENTER
 62
     4
100
AcDbLine
 10
161.7044336428895
 20
-79.04381505342161
 30
0.0
 11
161.7044349037416
 21
-79.17217649580783
 31
0.0
  0
LINE
  5
25F
330
2
100
AcDbEntity
  8
0
  6
Continuous
 62
     0
100
AcDbLine
 10
161.6834346822127
 20
-79.14999544957125
 30
0.0
 11
161.6834348923894
 21
-79.22203132586701
 31
0.0
  0
ARC
  5
260
330
2
100
AcDbEntity
  8
0
  6
Continuous
 62
     0
100
AcDbCircle
 10
161.7464340307198
 20
-79.06599495035466
 30
0.0
 40
0.021
100
AcDbArc
 50
180.000449100001
 51
270.0004490700002
  0
LINE
  5
261
330
2
100
AcDbEntity
  8
2
  6
CENTER
 62
     4
100
AcDbLine
 10
161.6402531426686
 20
-79.10799582630068
 30
0.0
 11
161.7686154039625
 21
-79.10799572292869
 31
0.0
  0
ARC
  5
262
330
2
100
AcDbEntity
  8
0
  6
Continuous
 62
     0
100
AcDbCircle
 10
161.6624346779234
 20
-79.14999561985067
 30
0.0
 40
0.021
100
AcDbArc
 50
0.0004491000002257
 51
90.00044909999902
  0
ARC
  5
263
330
2
100
AcDbEntity
  8
0
  6
Continuous
 62
     0
100
AcDbCircle
 10
161.7044348705796
 20
-79.12440641674222
 30
0.0
 40
0.131782
100
AcDbArc
 50
80.83101309999872
 51
99.16988509999978
  0
LINE
  5
264
330
2
100
AcDbEntity
  8
0
  6
Continuous
 62
     0
100
AcDbLine
 10
161.6834330930708
 20
-78.99430924387283
 30
0.0
 11
161.6834340241786
 21
-79.0659954422199
 31
0.0
  0
LINE
  5
265
330
2
100
AcDbEntity
  8
0
  6
Continuous
 62
     0
100
AcDbLine
 10
161.7254330953227
 20
-78.99430892228707
 30
0.0
 11
161.7254340295938
 21
-79.06599511114757
 31
0.0
  0
ARC
  5
266
330
2
100
AcDbEntity
  8
0
  6
Continuous
 62
     0
100
AcDbCircle
 10
161.6624340230527
 20
-79.06599560301277
 30
0.0
 40
0.021
100
AcDbArc
 50
270.0004490700002
 51
0.0004491000002257
  0
ARC
  5
267
330
2
100
AcDbEntity
  8
0
  6
Continuous
 62
     0
100
AcDbCircle
 10
161.7464346887538
 20
-79.14999495770605
 30
0.0
 40
0.021
100
AcDbArc
 50
90.00044909999902
 51
180.000449100001
  0
LINE
  5
268
330
2
100
AcDbEntity
  8
0
  6
Continuous
 62
     0
100
AcDbLine
 10
161.7254346876278
 20
-79.14999511849896
 30
0.0
 11
161.7254348978045
 21
-79.22203099479467
 31
0.0
  0
ARC
  5
269
330
2
100
AcDbEntity
  8
0
  6
Continuous
 62
     0
100
AcDbCircle
 10
161.704434105011
 20
-79.09193399215985
 30
0.0
 40
0.131782
100
AcDbArc
 50
260.8310130709985
 51
279.1698850699999
  0
LINE
  5
26A
330
2
100
AcDbEntity
  8
0
  6
Continuous
 62
     0
100
AcDbLine
 10
161.8130744543639
 20
-79.04479658095938
 30
0.0
 11
161.7791069282374
 21
-79.10636791738828
 31
0.0
  0
LINE
  5
26B
330
2
100
AcDbEntity
  8
0
  6
Continuous
 62
     0
100
AcDbLine
 10
161.7464341946746
 20
-79.08699495464325
 30
0.0
 11
161.7897947662074
 21
-79.08699517709552
 31
0.0
  0
LINE
  5
26C
330
2
100
AcDbEntity
  8
0
  6
Continuous
 62
     0
100
AcDbLine
 10
161.7464345257476
 20
-79.1289949537338
 30
0.0
 11
161.7921524124258
 21
-79.12899523383136
 31
0.0
  0
LINE
  5
26D
330
2
100
AcDbEntity
  8
0
  6
Continuous
 62
     0
100
AcDbLine
 10
161.8541399882333
 20
-79.04458209345645
 30
0.0
 11
161.8130744543639
 21
-79.04479658095938
 31
0.0
  0
LINE
  5
26E
330
2
100
AcDbEntity
  8
0
  6
Continuous
 62
     0
100
AcDbLine
 10
161.7791069282374
 20
-79.10636791738828
 30
0.0
 11
161.8135210816062
 21
-79.16606120270095
 31
0.0
  0
LINE
  5
26F
330
2
100
AcDbEntity
  8
0
  6
Continuous
 62
     0
100
AcDbLine
 10
162.1511570355198
 20
-79.59422685649379
 30
0.0
 11
162.1511570665378
 21
-79.20048390820558
 31
0.0
  0
LINE
  5
270
330
2
100
AcDbEntity
  8
0
  6
Continuous
 62
     0
100
AcDbLine
 10
162.026156902219
 20
-79.16553801313813
 30
0.0
 11
162.0261567471069
 21
-79.59422685648608
 31
0.0
  0
LINE
  5
271
330
2
100
AcDbEntity
  8
0
  6
Continuous
 62
     0
100
AcDbLine
 10
161.9439341753713
 20
-79.01077917168805
 30
0.0
 11
161.9645827519652
 21
-79.04611354766363
 31
0.0
  0
LINE
  5
272
330
2
100
AcDbEntity
  8
0
  6
Continuous
 62
     0
100
AcDbLine
 10
161.9236581054445
 20
-79.04632829512255
 30
0.0
 11
161.9439341753713
 21
-79.01077917168805
 31
0.0
  0
LINE
  5
273
330
2
100
AcDbEntity
  8
0
  6
Continuous
 62
     0
100
AcDbLine
 10
161.9789699571275
 20
-79.20122811205406
 30
0.0
 11
161.9439341753713
 21
-79.01077917168805
 31
0.0
  0
LINE
  5
274
330
2
100
AcDbEntity
  8
0
  6
Continuous
 62
     0
100
AcDbLine
 10
161.9583223684122
 20
-79.16589389682652
 30
0.0
 11
161.9236581054445
 21
-79.04632829512255
 31
0.0
  0
LINE
  5
275
330
2
100
AcDbEntity
  8
0
  6
Continuous
 62
     0
100
AcDbLine
 10
161.8747566416645
 20
-79.01114208961899
 30
0.0
 11
161.8954042272166
 21
-79.04647631433302
 31
0.0
  0
LINE
  5
276
330
2
100
AcDbEntity
  8
0
  6
Continuous
 62
     0
100
AcDbLine
 10
161.9300684933475
 20
-79.16604190655054
 30
0.0
 11
161.8954042272166
 21
-79.04647631433302
 31
0.0
  0
LINE
  5
277
330
2
100
AcDbEntity
  8
0
  6
Continuous
 62
     0
100
AcDbLine
 10
161.8948521763934
 20
-79.0464792352111
 30
0.0
 11
161.9231050635796
 21
-79.04633106473911
 31
0.0
  0
LINE
  5
278
330
2
100
AcDbEntity
  8
0
  6
Continuous
 62
     0
100
AcDbLine
 10
161.9097924202574
 20
-79.20159103947153
 30
0.0
 11
161.8747566416645
 21
-79.01114208961899
 31
0.0
  0
LINE
  5
279
330
2
100
AcDbEntity
  8
0
  6
Continuous
 62
     0
100
AcDbLine
 10
162.1498104578983
 20
-79.00970016872356
 30
0.0
 11
162.1498103053248
 21
-79.11519074249934
 31
0.0
  0
LINE
  5
27A
330
2
100
AcDbEntity
  8
0
  6
Continuous
 62
     0
100
AcDbLine
 10
162.1295334000929
 20
-79.04524913141003
 30
0.0
 11
162.1498104578983
 21
-79.00970016872356
 31
0.0
  0
LINE
  5
27B
330
2
100
AcDbEntity
  8
0
  6
Continuous
 62
     0
100
AcDbLine
 10
162.0678713438139
 20
-79.16531997976086
 30
0.0
 11
162.0332072469703
 21
-79.04575338986266
 31
0.0
  0
LINE
  5
27C
330
2
100
AcDbEntity
  8
0
  6
Continuous
 62
     0
100
AcDbLine
 10
162.0811851411386
 20
-79.01005917758223
 30
0.0
 11
162.10183256373
 21
-79.04539438100393
 31
0.0
  0
LINE
  5
27D
330
2
100
AcDbEntity
  8
0
  6
Continuous
 62
     0
100
AcDbLine
 10
162.1162207558221
 20
-79.20050910582616
 30
0.0
 11
162.0811851411386
 21
-79.01005917758223
 31
0.0
  0
LINE
  5
27E
330
2
100
AcDbEntity
  8
0
  6
Continuous
 62
     0
100
AcDbLine
 10
162.0955721801769
 20
-79.16517473016693
 30
0.0
 11
162.0609079172093
 21
-79.04560912846294
 31
0.0
  0
LINE
  5
27F
330
2
100
AcDbEntity
  8
0
  6
Continuous
 62
     0
100
AcDbLine
 10
162.0609079172093
 20
-79.04560912846294
 30
0.0
 11
162.0811851411386
 21
-79.01005917758223
 31
0.0
  0
LINE
  5
280
330
2
100
AcDbEntity
  8
0
  6
Continuous
 62
     0
100
AcDbLine
 10
162.0326550268599
 20
-79.04575730842146
 30
0.0
 11
162.0609079172093
 21
-79.04560912846294
 31
0.0
  0
LINE
  5
281
330
2
100
AcDbEntity
  8
0
  6
Continuous
 62
     0
100
AcDbLine
 10
162.012559658255
 20
-79.01041917463513
 30
0.0
 11
162.0332072469703
 21
-79.04575338986266
 31
0.0
  0
LINE
  5
282
330
2
100
AcDbEntity
  8
0
  6
Continuous
 62
     0
100
AcDbLine
 10
162.0961253872172
 20
-79.16517097203983
 30
0.0
 11
162.0678713438139
 21
-79.16531997976086
 31
0.0
  0
LINE
  5
283
330
2
100
AcDbEntity
  8
0
  6
Continuous
 62
     0
100
AcDbLine
 10
162.1467961949006
 20
-79.20048392919721
 30
0.0
 11
162.10183256373
 21
-79.04539438100393
 31
0.0
  0
LINE
  5
284
330
2
100
AcDbEntity
  8
0
  6
Continuous
 62
     0
100
AcDbLine
 10
161.9922826004496
 20
-79.04596813732161
 30
0.0
 11
162.012559658255
 21
-79.01041917463513
 31
0.0
  0
LINE
  5
285
330
2
100
AcDbEntity
  8
0
  6
Continuous
 62
     0
100
AcDbLine
 10
162.1162207558221
 20
-79.20050910582616
 30
0.0
 11
162.0955721801769
 21
-79.16517473016693
 31
0.0
  0
LINE
  5
286
330
2
100
AcDbEntity
  8
0
  6
Continuous
 62
     0
100
AcDbLine
 10
162.1364968257489
 20
-79.16495998239163
 30
0.0
 11
162.1162207558221
 21
-79.20050910582616
 31
0.0
  0
LINE
  5
287
330
2
100
AcDbEntity
  8
0
  6
Continuous
 62
     0
100
AcDbLine
 10
161.9640297101002
 20
-79.04611631728015
 30
0.0
 11
161.9922826004496
 21
-79.04596813732161
 31
0.0
  0
LINE
  5
288
330
2
100
AcDbEntity
  8
0
  6
Continuous
 62
     0
100
AcDbLine
 10
162.1295334000929
 20
-79.04524913141003
 30
0.0
 11
162.1498103053248
 21
-79.11519074249934
 31
0.0
  0
LINE
  5
289
330
2
100
AcDbEntity
  8
0
  6
Continuous
 62
     0
100
AcDbLine
 10
162.1012805097436
 20
-79.04539731136857
 30
0.0
 11
162.1295334000929
 21
-79.04524913141003
 31
0.0
  0
LINE
  5
28A
330
2
100
AcDbEntity
  8
0
  6
Continuous
 62
     0
100
AcDbLine
 10
162.0475952738872
 20
-79.2008691031954
 30
0.0
 11
162.0269468634173
 21
-79.16553373902559
 31
0.0
  0
LINE
  5
28B
330
2
100
AcDbEntity
  8
0
  6
Continuous
 62
     0
100
AcDbLine
 10
161.9992470139842
 20
-79.16567914905126
 30
0.0
 11
161.9789699571275
 21
-79.20122811205406
 31
0.0
  0
LINE
  5
28C
330
2
100
AcDbEntity
  8
0
  6
Continuous
 62
     0
100
AcDbLine
 10
162.0274999052822
 20
-79.16553096940908
 30
0.0
 11
161.9992470139842
 21
-79.16567914905126
 31
0.0
  0
LINE
  5
28D
330
2
100
AcDbEntity
  8
0
  6
Continuous
 62
     0
100
AcDbLine
 10
161.9583223684122
 20
-79.16589389682652
 30
0.0
 11
161.9300684933475
 21
-79.16604190655054
 31
0.0
  0
LINE
  5
28E
330
2
100
AcDbEntity
  8
0
  6
Continuous
 62
     0
100
AcDbLine
 10
161.9789699571275
 20
-79.20122811205406
 30
0.0
 11
161.9583223684122
 21
-79.16589389682652
 31
0.0
  0
LINE
  5
28F
330
2
100
AcDbEntity
  8
0
  6
Continuous
 62
     0
100
AcDbLine
 10
162.0475952738872
 20
-79.2008691031954
 30
0.0
 11
162.012559658255
 21
-79.01041917463513
 31
0.0
  0
LINE
  5
290
330
2
100
AcDbEntity
  8
0
  6
Continuous
 62
     0
100
AcDbLine
 10
162.0678713438139
 20
-79.16531997976086
 30
0.0
 11
162.0475952738872
 21
-79.2008691031954
 31
0.0
  0
LINE
  5
291
330
2
100
AcDbEntity
  8
0
  6
Continuous
 62
     0
100
AcDbLine
 10
161.9992470139842
 20
-79.16567914905126
 30
0.0
 11
161.9645827519652
 21
-79.04611354766363
 31
0.0
  0
LINE
  5
292
330
2
100
AcDbEntity
  8
0
  6
Continuous
 62
     0
100
AcDbLine
 10
162.0269468634173
 20
-79.16553373902559
 30
0.0
 11
161.9922826004496
 21
-79.04596813732161
 31
0.0
  0
LINE
  5
293
330
2
100
AcDbEntity
  8
0
  6
Continuous
 62
     0
100
AcDbLine
 10
161.9097924202574
 20
-79.20159103947153
 30
0.0
 11
161.8891438468268
 21
-79.16625665400946
 31
0.0
  0
LINE
  5
294
330
2
100
AcDbEntity
  8
0
  6
Continuous
 62
     0
100
AcDbLine
 10
161.9300684933475
 20
-79.16604190655054
 30
0.0
 11
161.9097924202574
 21
-79.20159103947153
 31
0.0
  0
LINE
  5
295
330
2
100
AcDbEntity
  8
0
  6
Continuous
 62
     0
100
AcDbLine
 10
162.1511572590368
 20
-79.00971426762644
 30
0.0
 11
162.151157420251
 21
-78.68243315742398
 31
0.0
  0
LINE
  5
296
330
2
100
AcDbEntity
  8
0
  6
Continuous
 62
     0
100
AcDbLine
 10
162.026157116665
 20
-78.68243312777308
 30
0.0
 11
162.026156921618
 21
-79.03368816922813
 31
0.0
  0
LINE
  5
297
330
2
100
AcDbEntity
  8
0
  6
Continuous
 62
     0
100
AcDbLine
 10
161.8629405827662
 20
-79.16580183395142
 30
0.0
 11
161.858010227514
 21
-79.17444667841561
 31
0.0
  0
LINE
  5
298
330
2
100
AcDbEntity
  8
0
  6
Continuous
 62
     0
100
AcDbLine
 10
161.8893110959701
 20
-79.16566312163988
 30
0.0
 11
161.8629405827662
 21
-79.16580183395142
 31
0.0
  0
LINE
  5
299
330
2
100
AcDbEntity
  8
0
  6
Continuous
 62
     0
100
AcDbLine
 10
162.4141847621908
 20
-79.16366337590805
 30
0.0
 11
162.4141847621908
 21
-79.04908717400906
 31
0.0
  0
ARC
  5
29A
330
2
100
AcDbEntity
  8
0
  6
Continuous
 62
     0
100
AcDbCircle
 10
162.2839728631404
 20
-79.04908717400906
 30
0.0
 40
0.1302118990505079
100
AcDbArc
 50
359.9999999999968
 51
89.99999999999694
  0
ARC
  5
29B
330
2
100
AcDbEntity
  8
0
  6
Continuous
 62
     0
100
AcDbCircle
 10
162.2839728631404
 20
-79.16366337590805
 30
0.0
 40
0.1302118990505079
100
AcDbArc
 50
270.0
 51
0.0
  0
ARC
  5
29C
330
2
100
AcDbEntity
  8
0
  6
Continuous
 62
     0
100
AcDbCircle
 10
161.7208260871995
 20
-79.10799557855263
 30
0.0
 40
0.131782
100
AcDbArc
 50
170.8310130999991
 51
189.1698850999989
  0
ARC
  5
29D
330
2
100
AcDbEntity
  8
0
  6
Continuous
 62
     0
100
AcDbCircle
 10
161.7208260871995
 20
-79.10799557855263
 30
0.0
 40
0.131782
100
AcDbArc
 50
170.8310130999991
 51
189.1698850999989
  0
LINE
  5
29E
330
2
100
AcDbEntity
  8
0
  6
Continuous
 62
     0
100
AcDbLine
 10
160.4167886672387
 20
-78.68243316648683
 30
0.0
 11
162.151157420251
 21
-78.68243315742398
 31
0.0
  0
LINE
  5
29F
330
2
100
AcDbEntity
  8
0
  6
Continuous
 62
     0
100
AcDbLine
 10
161.5907281004816
 20
-79.12899620237659
 30
0.0
 11
161.6624345139686
 21
-79.12899561556216
 31
0.0
  0
LINE
  5
2A0
330
2
100
AcDbEntity
  8
0
  6
Continuous
 62
     0
100
AcDbLine
 10
161.5907277725719
 20
-79.08699619379945
 30
0.0
 11
161.6624341870076
 21
-79.08699560730138
 31
0.0
  0
LINE
  5
2A1
330
2
100
AcDbEntity
  8
0
  6
Continuous
 62
     0
100
AcDbLine
 10
162.1511570355198
 20
-79.59422685649379
 30
0.0
 11
160.4167882964169
 21
-79.59422685638682
 31
0.0
  0
ARC
  5
2A2
330
2
100
AcDbEntity
  8
Glazing
  6
Continuous
 62
     5
100
AcDbCircle
 10
161.7044343563776
 20
-79.1079952805176
 30
0.0
 40
0.156336
100
AcDbArc
 50
23.91620309999928
 51
338.2719830700004
  0
LINE
  5
2A3
330
2
100
AcDbEntity
  8
0
  6
Continuous
 62
     0
100
AcDbLine
 10
161.5907281004816
 20
-79.12899620237659
 30
0.0
 11
161.6624345139686
 21
-79.12899561556216
 31
0.0
  0
LINE
  5
2A4
330
2
100
AcDbEntity
  8
0
  6
Continuous
 62
     0
100
AcDbLine
 10
161.5907277725719
 20
-79.08699619379945
 30
0.0
 11
161.6624341870076
 21
-79.08699560730138
 31
0.0
  0
LINE
  5
2A5
330
2
100
AcDbEntity
  8
0
  6
Continuous
 62
     0
100
AcDbLine
 10
162.1511570355198
 20
-79.59422685649379
 30
0.0
 11
160.4167882964169
 21
-79.59422685638682
 31
0.0
  0
LEADER
  5
2A6
330
2
100
AcDbEntity
  8
0
  6
Continuous
100
AcDbLeader
  3
STANDARD
 73
     0
 40
0.1940228512960437
 41
1.94419338335607
 76
     2
 10
160.9558830040221
 20
-77.07706878752677
 30
0.0
 10
157.9362244508075
 20
-77.07706878752677
 30
0.0
340
32
213
0.0
223
-0.09375
233
0.0
1001
ACAD
1000
DSTYLE
1002
{
1070
   147
1040
0.09
1070
    77
1070
     0
1002
}
  0
LEADER
  5
2A7
330
2
100
AcDbEntity
  8
0
  6
Continuous
100
AcDbLeader
  3
STANDARD
 73
     0
 40
0.1940228512960437
 41
1.698883015006821
 76
     2
 10
160.9558830040221
 20
-77.40364244754008
 30
0.0
 10
157.9362244508075
 20
-77.40364244754008
 30
0.0
340
33
213
0.0
223
-0.09375
233
0.0
1001
ACAD
1000
DSTYLE
1002
{
1070
   147
1040
0.09
1070
    77
1070
     0
1002
}
  0
LINE
  5
2A8
330
2
100
AcDbEntity
  8
Glazing
  6
Continuous
100
AcDbLine
 10
160.7840889958673
 20
-77.25238016745294
 30
0.0
 11
158.7840889958673
 21
-77.25238016745294
 31
0.0
  0
LINE
  5
2A9
330
2
100
AcDbEntity
  8
Glazing
  6
Continuous
100
AcDbLine
 10
160.7840889958673
 20
-77.00238016745294
 30
0.0
 11
158.7840889958673
 21
-77.00238016745294
 31
0.0
  0
LINE
  5
2AA
330
2
100
AcDbEntity
  8
0
  6
Continuous
 62
     0
100
AcDbLine
 10
158.7840889958673
 20
-76.90738016745294
 30
0.0
 11
158.7840889958673
 21
-77.48962793895612
 31
0.0
  0
LINE
  5
2AB
330
2
100
AcDbEntity
  8
0
  6
Continuous
100
AcDbLine
 10
158.7840889958673
 20
-77.48962793895612
 30
0.0
 11
159.0340889958673
 21
-77.48962793895612
 31
0.0
  0
ARC
  5
2C5
330
2
100
AcDbEntity
  8
Glazing
  6
Continuous
100
AcDbCircle
 10
161.2839730437447
 20
-71.56440135273206
 30
0.0
 40
5.680906303048537
100
AcDbArc
 50
264.9518025714924
 51
265.1315118313835
  0
ARC
  5
2C6
330
2
100
AcDbEntity
  8
Glazing
  6
Continuous
100
AcDbCircle
 10
161.2839730437447
 20
-71.56440135273206
 30
0.0
 40
5.660906303048538
100
AcDbArc
 50
264.9339207317773
 51
265.2024033002497
  0
ARC
  5
2C7
330
2
100
AcDbEntity
  8
Glazing
  6
Continuous
100
AcDbCircle
 10
161.2839730437447
 20
-71.56440135273206
 30
0.0
 40
5.640906303048538
100
AcDbArc
 50
264.9159115908379
 51
265.2948734589843
  0
ARC
  5
2C8
330
2
100
AcDbEntity
  8
Glazing
  6
Continuous
100
AcDbCircle
 10
161.2839730437447
 20
-71.56440135273206
 30
0.0
 40
5.620906303048538
100
AcDbArc
 50
264.8977737826078
 51
265.4125749899759
  0
ARC
  5
2C9
330
2
100
AcDbEntity
  8
Glazing
  6
Continuous
100
AcDbCircle
 10
161.2839730437447
 20
-71.56440135273206
 30
0.0
 40
5.600906303048539
100
AcDbArc
 50
264.8795059213788
 51
265.5612970615635
  0
ARC
  5
2CA
330
2
100
AcDbEntity
  8
Glazing
  6
Continuous
100
AcDbCircle
 10
161.2839730437447
 20
-71.56440135273206
 30
0.0
 40
5.580906303048539
100
AcDbArc
 50
264.8611066014455
 51
265.7510229281232
  0
ARC
  5
2CB
330
2
100
AcDbEntity
  8
Glazing
  6
Continuous
100
AcDbCircle
 10
161.2839730437447
 20
-71.56440135273206
 30
0.0
 40
5.56090630304854
100
AcDbArc
 50
264.842574396743
 51
266.0017751245401
  0
ARC
  5
2CC
330
2
100
AcDbEntity
  8
Glazing
  6
Continuous
100
AcDbCircle
 10
161.2839730437447
 20
-71.56440135273206
 30
0.0
 40
5.54090630304854
100
AcDbArc
 50
264.8239078604764
 51
266.3686690211798
  0
ARC
  5
2CD
330
2
100
AcDbEntity
  8
Glazing
  6
Continuous
100
AcDbCircle
 10
161.2839730437447
 20
-71.56440135273206
 30
0.0
 40
5.520906303048541
100
AcDbArc
 50
264.8051055247423
 51
275.194894475261
  0
ARC
  5
2CE
330
2
100
AcDbEntity
  8
Glazing
  6
Continuous
100
AcDbCircle
 10
161.2839730437447
 20
-71.56440135273206
 30
0.0
 40
5.500906303048541
100
AcDbArc
 50
264.786165900142
 51
275.2138340998612
  0
ARC
  5
2CF
330
2
100
AcDbEntity
  8
Glazing
  6
Continuous
100
AcDbCircle
 10
161.2839730437447
 20
-71.56440135273206
 30
0.0
 40
5.480906303048541
100
AcDbArc
 50
264.7670874753857
 51
275.2329125246176
  0
ARC
  5
2D0
330
2
100
AcDbEntity
  8
Glazing
  6
Continuous
100
AcDbCircle
 10
161.2839730437447
 20
-71.56440135273206
 30
0.0
 40
5.460906303048542
100
AcDbArc
 50
264.7478687168886
 51
275.2521312831138
  0
ELLIPSE
  5
2D2
102
{ACAD_REACTORS
330
2DF
102
}
330
2
100
AcDbEntity
  8
0
  6
Continuous
100
AcDbEllipse
 10
161.0027852030631
 20
-77.31801605089367
 30
0.0
 11
0.000000000000044
 21
0.2361675948061759
 31
0.0
210
0.0
220
0.0
230
1.0
 40
0.9260212324014677
 41
-1.570796326794896
 42
4.712388980384689
  0
LINE
  5
2D3
330
2
100
AcDbEntity
  8
Glazing
  6
Continuous
100
AcDbLine
 10
160.7840889958673
 20
-77.00238016745294
 30
0.0
 11
161.7838570916223
 21
-77.00238016745292
 31
0.0
  0
LINE
  5
2D4
330
2
100
AcDbEntity
  8
0
  6
Continuous
100
AcDbLine
 10
163.7838570916223
 20
-77.48962793895612
 30
0.0
 11
163.5338570916223
 21
-77.48962793895612
 31
0.0
  0
LINE
  5
2D5
330
2
100
AcDbEntity
  8
0
  6
Continuous
 62
     0
100
AcDbLine
 10
163.7838570916223
 20
-76.90738016745294
 30
0.0
 11
163.7838570916223
 21
-77.48962793895612
 31
0.0
  0
LINE
  5
2D6
330
2
100
AcDbEntity
  8
Glazing
  6
Continuous
100
AcDbLine
 10
161.7838570916223
 20
-77.25238016745294
 30
0.0
 11
163.7838570916223
 21
-77.25238016745294
 31
0.0
  0
LINE
  5
2D7
330
2
100
AcDbEntity
  8
Glazing
  6
Continuous
100
AcDbLine
 10
161.7838570916223
 20
-77.00238016745294
 30
0.0
 11
163.7838570916223
 21
-77.00238016745294
 31
0.0
  0
LINE
  5
2D8
330
2
100
AcDbEntity
  8
5
  6
Continuous
100
AcDbLine
 10
160.815285203063
 20
-77.55743316195538
 30
0.0
 11
161.190285203063
 21
-77.55743316195538
 31
0.0
  0
LINE
  5
2D9
330
2
100
AcDbEntity
  8
5
  6
Continuous
100
AcDbLine
 10
161.7526608844266
 20
-77.55743316195538
 30
0.0
 11
161.3776608844266
 21
-77.55743316195538
 31
0.0
  0
HATCH
  5
2DF
330
2
100
AcDbEntity
  8
0
  6
Continuous
100
AcDbHatch
 10
0.0
 20
0.0
 30
0.0
210
0.0
220
0.0
230
1.0
  2
HONEY
 70
     0
 71
     1
 91
        1
 92
        1
 93
        1
 72
     3
 10
161.0027852030631
 20
-77.31801605089367
 11
0.000000000000044
 21
0.2361675948061759
 40
0.9260212324014677
 50
0.0
 51
360.0
 73
     1
 97
        1
330
2D2
 75
     0
 76
     1
 52
0.0
 41
0.25
 77
     0
 78
     3
 53
0.0
 43
0.0
 44
0.0
 45
0.046875
 46
0.02706329375
 79
     2
 49
0.03125
 49
-0.0625
 53
120.0
 43
0.0
 44
0.0
 45
-0.0468749998975806
 46
0.0270632939273956
 79
     2
 49
0.03125
 49
-0.0625
 53
60.0
 43
0.0
 44
0.0
 45
0.0000000001024194
 46
0.0541265876773956
 79
     2
 49
-0.0625
 49
0.03125
 98
        1
 10
0.0
 20
0.0
  0
HATCH
  5
2E0
330
2
100
AcDbEntity
  8
0
  6
Continuous
100
AcDbHatch
 10
0.0
 20
0.0
 30
0.0
210
0.0
220
0.0
230
1.0
  2
HONEY
 70
     0
 71
     1
 91
        1
 92
        1
 93
        1
 72
     3
 10
161.5600179685631
 20
-77.31801605089367
 11
0.000000000000044
 21
0.2361675948061759
 40
0.9260212324014677
 50
0.0
 51
360.0
 73
     1
 97
        1
330
2E1
 75
     0
 76
     1
 52
0.0
 41
0.25
 77
     0
 78
     3
 53
0.0
 43
0.5572327655000607
 44
0.0
 45
0.046875
 46
0.02706329375
 79
     2
 49
0.03125
 49
-0.0625
 53
120.0
 43
0.5572327655000607
 44
0.0
 45
-0.0468749998975806
 46
0.0270632939273956
 79
     2
 49
0.03125
 49
-0.0625
 53
60.0
 43
0.5572327655000607
 44
0.0
 45
0.0000000001024194
 46
0.0541265876773956
 79
     2
 49
-0.0625
 49
0.03125
 98
        1
 10
0.5572327655000607
 20
0.0
  0
ELLIPSE
  5
2E1
102
{ACAD_REACTORS
330
2E0
102
}
330
2
100
AcDbEntity
  8
0
  6
Continuous
100
AcDbEllipse
 10
161.5600179685631
 20
-77.31801605089367
 30
0.0
 11
0.000000000000044
 21
0.2361675948061759
 31
0.0
210
0.0
220
0.0
230
1.0
 40
0.9260212324014677
 41
-1.570796326794896
 42
4.712388980384689
  0
ARC
  5
2E2
330
2
100
AcDbEntity
  8
Glazing
  6
Continuous
100
AcDbCircle
 10
161.2839730437447
 20
-71.56440135273206
 30
0.0
 40
5.680906303048537
100
AcDbArc
 50
269.2611438774958
 51
270.6867869041594
  0
ARC
  5
2E3
330
2
100
AcDbEntity
  8
Glazing
  6
Continuous
100
AcDbCircle
 10
161.2839730437447
 20
-71.56440135273206
 30
0.0
 40
5.660906303048538
100
AcDbArc
 50
269.1875118085564
 51
270.7601443732454
  0
ARC
  5
2E4
330
2
100
AcDbEntity
  8
Glazing
  6
Continuous
100
AcDbCircle
 10
161.2839730437447
 20
-71.56440135273206
 30
0.0
 40
5.640906303048538
100
AcDbArc
 50
269.0923067252277
 51
270.8550390001028
  0
ARC
  5
2E5
330
2
100
AcDbEntity
  8
Glazing
  6
Continuous
100
AcDbCircle
 10
161.2839730437447
 20
-71.56440135273206
 30
0.0
 40
5.620906303048538
100
AcDbArc
 50
268.9718759776516
 51
270.9751038827047
  0
ARC
  5
2E6
330
2
100
AcDbEntity
  8
Glazing
  6
Continuous
100
AcDbCircle
 10
161.2839730437447
 20
-71.56440135273206
 30
0.0
 40
5.600906303048539
100
AcDbArc
 50
268.8204304303625
 51
271.1260926741013
  0
ARC
  5
2E7
330
2
100
AcDbEntity
  8
Glazing
  6
Continuous
100
AcDbCircle
 10
161.2839730437447
 20
-71.56440135273206
 30
0.0
 40
5.580906303048539
100
AcDbArc
 50
268.6279868607193
 51
271.3179137628435
  0
ARC
  5
2E8
330
2
100
AcDbEntity
  8
Glazing
  6
Continuous
100
AcDbCircle
 10
161.2839730437447
 20
-71.56440135273206
 30
0.0
 40
5.56090630304854
100
AcDbArc
 50
268.374522769298
 51
271.570388951982
  0
ARC
  5
2E9
330
2
100
AcDbEntity
  8
Glazing
  6
Continuous
100
AcDbCircle
 10
161.2839730437447
 20
-71.56440135273206
 30
0.0
 40
5.56090630304854
100
AcDbArc
 50
273.9505842057049
 51
275.1574256032603
  0
ARC
  5
2EA
330
2
100
AcDbEntity
  8
Glazing
  6
Continuous
100
AcDbCircle
 10
161.2839730437447
 20
-71.56440135273206
 30
0.0
 40
5.580906303048539
100
AcDbArc
 50
274.2003967128704
 51
275.1388933985577
  0
ARC
  5
2EB
330
2
100
AcDbEntity
  8
Glazing
  6
Continuous
100
AcDbCircle
 10
161.2839730437447
 20
-71.56440135273206
 30
0.0
 40
5.600906303048539
100
AcDbArc
 50
274.3895494195939
 51
275.1204940786244
  0
ARC
  5
2EC
330
2
100
AcDbEntity
  8
Glazing
  6
Continuous
100
AcDbCircle
 10
161.2839730437447
 20
-71.56440135273206
 30
0.0
 40
5.620906303048538
100
AcDbArc
 50
274.5378641610766
 51
275.1022262173954
  0
ARC
  5
2ED
330
2
100
AcDbEntity
  8
Glazing
  6
Continuous
100
AcDbCircle
 10
161.2839730437447
 20
-71.56440135273206
 30
0.0
 40
5.640906303048538
100
AcDbArc
 50
274.6552493577772
 51
275.0840884091654
  0
ARC
  5
2EE
330
2
100
AcDbEntity
  8
Glazing
  6
Continuous
100
AcDbCircle
 10
161.2839730437447
 20
-71.56440135273206
 30
0.0
 40
5.660906303048538
100
AcDbArc
 50
274.7474586954791
 51
275.0660792682258
  0
ARC
  5
2EF
330
2
100
AcDbEntity
  8
Glazing
  6
Continuous
100
AcDbCircle
 10
161.2839730437447
 20
-71.56440135273206
 30
0.0
 40
5.680906303048537
100
AcDbArc
 50
274.8181253036455
 51
275.0481974285108
  0
ARC
  5
2F0
330
2
100
AcDbEntity
  8
Glazing
  6
Continuous
100
AcDbCircle
 10
161.2839730437447
 20
-71.56440135273206
 30
0.0
 40
5.54090630304854
100
AcDbArc
 50
268.004922816029
 51
271.9377457392147
  0
ARC
  5
2F1
330
2
100
AcDbEntity
  8
Glazing
  6
Continuous
100
AcDbCircle
 10
161.2839730437447
 20
-71.56440135273206
 30
0.0
 40
5.54090630304854
100
AcDbArc
 50
273.5858843683878
 51
275.1760921395269
  0
ENDSEC
  0
SECTION
  2
OBJECTS
  0
DICTIONARY
  5
9
330
0
100
AcDbDictionary
281
     1
  3
ACAD_COLOR
350
30
  3
ACAD_GROUP
350
2C
  3
ACAD_LAYOUT
350
D
  3
ACAD_MATERIAL
350
2F
  3
ACAD_MLINESTYLE
350
2D
  3
ACAD_PLOTSETTINGS
350
2E
  3
ACAD_PLOTSTYLENAME
350
8
  3
ACDBHEADERROUNDTRIPXREC
350
308
  3
AcDbVariableDictionary
350
303
  0
DICTIONARY
  5
15
330
14
100
AcDbDictionary
280
     1
281
     1
  3
ACAD_LAYERFILTERS
360
16
  3
ACAD_LAYERSTATES
360
1A
  0
DICTIONARY
  5
3
330
2
100
AcDbDictionary
280
     1
281
     1
  3
ACAD_LAYOUTSELFREF
360
4
  0
DICTIONARY
  5
F
330
E
100
AcDbDictionary
280
     1
281
     1
  3
ACAD_LAYOUTSELFREF
360
10
  0
DICTIONARY
  5
30
102
{ACAD_REACTORS
330
9
102
}
330
9
100
AcDbDictionary
281
     1
  0
DICTIONARY
  5
2C
102
{ACAD_REACTORS
330
9
102
}
330
9
100
AcDbDictionary
281
     1
  0
DICTIONARY
  5
D
102
{ACAD_REACTORS
330
9
102
}
330
9
100
AcDbDictionary
281
     1
  3
Layout1
350
13
  3
Model
350
C
  0
DICTIONARY
  5
2F
102
{ACAD_REACTORS
330
9
102
}
330
9
100
AcDbDictionary
281
     1
  0
DICTIONARY
  5
2D
102
{ACAD_REACTORS
330
9
102
}
330
9
100
AcDbDictionary
281
     1
  3
STANDARD
350
31
  0
DICTIONARY
  5
2E
102
{ACAD_REACTORS
330
9
102
}
330
9
100
AcDbDictionary
281
     1
  0
ACDBDICTIONARYWDFLT
  5
8
102
{ACAD_REACTORS
330
9
102
}
330
9
100
AcDbDictionary
281
     1
  3
Normal
350
7
100
AcDbDictionaryWithDefault
340
7
  0
DICTIONARY
  5
308
102
{ACAD_REACTORS
330
9
102
}
330
9
100
AcDbDictionary
281
     1
  3
COLORDICT
350
30A
  3
MATERIALDICT
350
309
  0
DICTIONARY
  5
303
102
{ACAD_REACTORS
330
9
102
}
330
9
100
AcDbDictionary
281
     1
  3
DIMASSOC
350
305
  3
HIDETEXT
350
304
  3
PROJECTNAME
350
306
  0
DICTIONARY
  5
16
102
{ACAD_REACTORS
330
15
102
}
330
15
100
AcDbDictionary
280
     1
281
     1
  3
clg
360
17
  3
Roof
360
18
  3
sk
360
19
  0
DICTIONARY
  5
1A
102
{ACAD_REACTORS
330
15
102
}
330
15
100
AcDbDictionary
281
     1
  0
XRECORD
  5
4
102
{ACAD_REACTORS
330
3
102
}
330
3
100
AcDbXrecord
280
     1
340
2
  0
XRECORD
  5
10
102
{ACAD_REACTORS
330
F
102
}
330
F
100
AcDbXrecord
280
     1
340
E
  0
LAYOUT
  5
13
102
{ACAD_XDICTIONARY
360
30D
102
}
102
{ACAD_REACTORS
330
D
102
}
330
D
100
AcDbPlotSettings
  1

  2
HP DesignJet 430 Plotter
  4

  6

 40
0.0
 41
0.0
 42
0.0
 43
0.0
 44
0.0
 45
0.0
 46
0.0
 47
0.0
 48
0.0
 49
0.0
140
0.0
141
0.0
142
1.0
143
1.0
 70
   688
 72
     0
 73
     0
 74
     5
  7
acad.ctb
 75
    16
147
1.0
148
0.0
149
0.0
100
AcDbLayout
  1
Layout1
 70
     1
 71
     1
 10
0.0
 20
0.0
 11
11.0
 21
8.5
 12
0.0
 22
0.0
 32
0.0
 14
0.0
 24
0.0
 34
0.0
 15
11.0
 25
8.5
 35
0.0
146
0.0
 13
0.0
 23
0.0
 33
0.0
 16
1.0
 26
0.0
 36
0.0
 17
0.0
 27
1.0
 37
0.0
 76
     0
330
E
  0
LAYOUT
  5
C
102
{ACAD_XDICTIONARY
360
30B
102
}
102
{ACAD_REACTORS
330
D
102
}
330
D
100
AcDbPlotSettings
  1

  2
Brother MFC9700
  4
Letter
  6

 40
7.143749713897705
 41
5.027085304260253
 42
7.14373779296875
 43
5.027069091796875
 44
215.8999938964844
 45
279.3999938964844
 46
17.272
 47
0.0
 48
0.0
 49
0.0
140
0.0
141
0.0
142
1.0
143
0.1454883688845959
 70
 11956
 72
     0
 73
     1
 74
     0
  7
acad.ctb
 75
     0
147
6.873401686104671
148
-475.9428163058331
149
1456.585280992969
100
AcDbLayout
  1
Model
 70
     1
 71
     0
 10
0.0
 20
0.0
 11
12.0
 21
9.0
 12
0.0
 22
0.0
 32
0.0
 14
0.0
 24
0.0
 34
0.0
 15
0.0
 25
0.0
 35
0.0
146
0.0
 13
0.0
 23
0.0
 33
0.0
 16
1.0
 26
0.0
 36
0.0
 17
0.0
 27
1.0
 37
0.0
 76
     0
330
2
  0
MLINESTYLE
  5
31
102
{ACAD_REACTORS
330
2D
102
}
330
2D
100
AcDbMlineStyle
  2
STANDARD
 70
     0
  3

 62
   256
 51
90.0
 52
90.0
 71
     2
 49
0.5
 62
   256
  6
BYLAYER
 49
-0.5
 62
   256
  6
BYLAYER
  0
ACDBPLACEHOLDER
  5
7
102
{ACAD_REACTORS
330
8
102
}
330
8
  0
XRECORD
  5
30A
102
{ACAD_REACTORS
330
308
102
}
330
308
100
AcDbXrecord
280
     1
340
30
  0
XRECORD
  5
309
102
{ACAD_REACTORS
330
308
102
}
330
308
100
AcDbXrecord
280
     1
340
2F
  0
DICTIONARYVAR
  5
305
102
{ACAD_REACTORS
330
303
102
}
330
303
100
DictionaryVariables
280
     0
  1
1
  0
DICTIONARYVAR
  5
304
102
{ACAD_REACTORS
330
303
102
}
330
303
100
DictionaryVariables
280
     0
  1
1
  0
DICTIONARYVAR
  5
306
102
{ACAD_REACTORS
330
303
102
}
330
303
100
DictionaryVariables
280
     0
  1

  0
XRECORD
  5
17
102
{ACAD_REACTORS
330
16
102
}
330
16
100
AcDbXrecord
280
     1
  1
clg
  1
a-c*
  1
*
  1
*
 70
     0
  1
*
  1
*
  0
XRECORD
  5
18
102
{ACAD_REACTORS
330
16
102
}
330
16
100
AcDbXrecord
280
     1
  1
Roof
  1
a-roo*.*
  1
*
  1
*
 70
     0
  1
*
  1
*
  0
XRECORD
  5
19
102
{ACAD_REACTORS
330
16
102
}
330
16
100
AcDbXrecord
280
     1
  1
sk
  1
*sketch
  1
*
  1
*
 70
     0
  1
*
  1
*
  0
DICTIONARY
  5
30D
330
13
100
AcDbDictionary
280
     1
281
     1
  3
ACAD_XREC_ROUNDTRIP
360
30E
  0
DICTIONARY
  5
30B
330
C
100
AcDbDictionary
280
     1
281
     1
  3
ACAD_XREC_ROUNDTRIP
360
30C
  0
XRECORD
  5
30E
102
{ACAD_REACTORS
330
30D
102
}
330
30D
100
AcDbXrecord
280
     1
102
SHADEPLOT
 70
     0
102
SHADEPLOTRESLEVEL
 70
     2
102
SHADEPLOTCUSTOMDPI
 70
   300
  0
XRECORD
  5
30C
102
{ACAD_REACTORS
330
30B
102
}
330
30B
100
AcDbXrecord
280
     1
102
SHADEPLOT
 70
     0
102
SHADEPLOTRESLEVEL
 70
     2
102
SHADEPLOTCUSTOMDPI
 70
   300
  0
ENDSEC
  0
EOF
