  0
SECTION
  2
HEADER
  9
$ACADVER
  1
AC1015
  9
$ACADMAINTVER
 70
    20
  9
$DWGCODEPAGE
  3
ANSI_1252
  9
$INSBASE
 10
0.0
 20
0.0
 30
0.0
  9
$EXTMIN
 10
129.7598887963219
 20
-62.50744574715781
 30
-0.0015258207003583
  9
$EXTMAX
 10
139.9387213410095
 20
-52.35607885517651
 30
0.0000000349246037
  9
$LIMMIN
 10
0.0
 20
0.0
  9
$LIMMAX
 10
408.0
 20
264.0
  9
$ORTHOMODE
 70
     1
  9
$REGENMODE
 70
     1
  9
$FILLMODE
 70
     1
  9
$QTEXTMODE
 70
     0
  9
$MIRRTEXT
 70
     1
  9
$LTSCALE
 40
0.25
  9
$ATTMODE
 70
     1
  9
$TEXTSIZE
 40
0.1875
  9
$TRACEWID
 40
0.05
  9
$TEXTSTYLE
  7
STANDARD
  9
$CLAYER
  8
0
  9
$CELTYPE
  6
CONTINUOUS
  9
$CECOLOR
 62
   256
  9
$CELTSCALE
 40
1.0
  9
$DISPSILH
 70
     0
  9
$DIMSCALE
 40
1.0
  9
$DIMASZ
 40
0.125
  9
$DIMEXO
 40
0.0625
  9
$DIMDLI
 40
0.38
  9
$DIMRND
 40
0.0
  9
$DIMDLE
 40
0.0
  9
$DIMEXE
 40
0.09375
  9
$DIMTP
 40
0.0
  9
$DIMTM
 40
0.0
  9
$DIMTXT
 40
0.18
  9
$DIMCEN
 40
0.09
  9
$DIMTSZ
 40
0.0
  9
$DIMTOL
 70
     0
  9
$DIMLIM
 70
     0
  9
$DIMTIH
 70
     1
  9
$DIMTOH
 70
     1
  9
$DIMSE1
 70
     0
  9
$DIMSE2
 70
     0
  9
$DIMTAD
 70
     0
  9
$DIMZIN
 70
     0
  9
$DIMBLK
  1

  9
$DIMASO
 70
     1
  9
$DIMSHO
 70
     1
  9
$DIMPOST
  1

  9
$DIMAPOST
  1

  9
$DIMALT
 70
     1
  9
$DIMALTD
 70
     4
  9
$DIMALTF
 40
1.0
  9
$DIMLFAC
 40
1.0
  9
$DIMTOFL
 70
     0
  9
$DIMTVP
 40
0.0
  9
$DIMTIX
 70
     0
  9
$DIMSOXD
 70
     0
  9
$DIMSAH
 70
     0
  9
$DIMBLK1
  1

  9
$DIMBLK2
  1

  9
$DIMSTYLE
  2
STANDARD
  9
$DIMCLRD
 70
     0
  9
$DIMCLRE
 70
     0
  9
$DIMCLRT
 70
     0
  9
$DIMTFAC
 40
1.0
  9
$DIMGAP
 40
0.09
  9
$DIMJUST
 70
     0
  9
$DIMSD1
 70
     0
  9
$DIMSD2
 70
     0
  9
$DIMTOLJ
 70
     1
  9
$DIMTZIN
 70
     0
  9
$DIMALTZ
 70
     0
  9
$DIMALTTZ
 70
     0
  9
$DIMUPT
 70
     0
  9
$DIMDEC
 70
     4
  9
$DIMTDEC
 70
     4
  9
$DIMALTU
 70
     5
  9
$DIMALTTD
 70
     4
  9
$DIMTXSTY
  7
STANDARD
  9
$DIMAUNIT
 70
     0
  9
$DIMADEC
 70
     8
  9
$DIMALTRND
 40
0.0
  9
$DIMAZIN
 70
     0
  9
$DIMDSEP
 70
    46
  9
$DIMATFIT
 70
     3
  9
$DIMFRAC
 70
     0
  9
$DIMLDRBLK
  1

  9
$DIMLUNIT
 70
     2
  9
$DIMLWD
 70
    -2
  9
$DIMLWE
 70
    -2
  9
$DIMTMOVE
 70
     0
  9
$LUNITS
 70
     4
  9
$LUPREC
 70
     5
  9
$SKETCHINC
 40
0.1
  9
$FILLETRAD
 40
0.01
  9
$AUNITS
 70
     0
  9
$AUPREC
 70
     1
  9
$MENU
  1
acad
  9
$ELEVATION
 40
0.0
  9
$PELEVATION
 40
0.0
  9
$THICKNESS
 40
0.0
  9
$LIMCHECK
 70
     0
  9
$CHAMFERA
 40
0.0
  9
$CHAMFERB
 40
0.0
  9
$CHAMFERC
 40
1.0
  9
$CHAMFERD
 40
0.0
  9
$SKPOLY
 70
     0
  9
$TDCREATE
 40
2453453.437640602
  9
$TDUCREATE
 40
2453453.770973935
  9
$TDUPDATE
 40
2453808.520079387
  9
$TDUUPDATE
 40
2453808.853412720
  9
$TDINDWG
 40
4.9510380787
  9
$TDUSRTIMER
 40
4.9510380787
  9
$USRTIMER
 70
     1
  9
$ANGBASE
 50
0.0
  9
$ANGDIR
 70
     0
  9
$PDMODE
 70
     0
  9
$PDSIZE
 40
0.0
  9
$PLINEWID
 40
0.0
  9
$SPLFRAME
 70
     0
  9
$SPLINETYPE
 70
     6
  9
$SPLINESEGS
 70
     8
  9
$HANDSEED
  5
2EB
  9
$SURFTAB1
 70
     6
  9
$SURFTAB2
 70
     6
  9
$SURFTYPE
 70
     6
  9
$SURFU
 70
     6
  9
$SURFV
 70
     6
  9
$UCSBASE
  2

  9
$UCSNAME
  2

  9
$UCSORG
 10
0.0
 20
0.0
 30
0.0
  9
$UCSXDIR
 10
1.0
 20
0.0
 30
0.0
  9
$UCSYDIR
 10
0.0
 20
1.0
 30
0.0
  9
$UCSORTHOREF
  2

  9
$UCSORTHOVIEW
 70
     1
  9
$UCSORGTOP
 10
0.0
 20
0.0
 30
0.0
  9
$UCSORGBOTTOM
 10
0.0
 20
0.0
 30
0.0
  9
$UCSORGLEFT
 10
0.0
 20
0.0
 30
0.0
  9
$UCSORGRIGHT
 10
0.0
 20
0.0
 30
0.0
  9
$UCSORGFRONT
 10
0.0
 20
0.0
 30
0.0
  9
$UCSORGBACK
 10
0.0
 20
0.0
 30
0.0
  9
$PUCSBASE
  2

  9
$PUCSNAME
  2

  9
$PUCSORG
 10
0.0
 20
0.0
 30
0.0
  9
$PUCSXDIR
 10
1.0
 20
0.0
 30
0.0
  9
$PUCSYDIR
 10
0.0
 20
1.0
 30
0.0
  9
$PUCSORTHOREF
  2

  9
$PUCSORTHOVIEW
 70
     0
  9
$PUCSORGTOP
 10
0.0
 20
0.0
 30
0.0
  9
$PUCSORGBOTTOM
 10
0.0
 20
0.0
 30
0.0
  9
$PUCSORGLEFT
 10
0.0
 20
0.0
 30
0.0
  9
$PUCSORGRIGHT
 10
0.0
 20
0.0
 30
0.0
  9
$PUCSORGFRONT
 10
0.0
 20
0.0
 30
0.0
  9
$PUCSORGBACK
 10
0.0
 20
0.0
 30
0.0
  9
$USERI1
 70
     0
  9
$USERI2
 70
     0
  9
$USERI3
 70
     0
  9
$USERI4
 70
     0
  9
$USERI5
 70
     0
  9
$USERR1
 40
0.0
  9
$USERR2
 40
0.0
  9
$USERR3
 40
0.0
  9
$USERR4
 40
0.0
  9
$USERR5
 40
0.0
  9
$WORLDVIEW
 70
     1
  9
$SHADEDGE
 70
     3
  9
$SHADEDIF
 70
    70
  9
$TILEMODE
 70
     1
  9
$MAXACTVP
 70
    48
  9
$PINSBASE
 10
0.0
 20
0.0
 30
0.0
  9
$PLIMCHECK
 70
     0
  9
$PEXTMIN
 10
0.0
 20
0.0
 30
0.0
  9
$PEXTMAX
 10
11.0
 20
8.5
 30
0.0
  9
$PLIMMIN
 10
0.0
 20
0.0
  9
$PLIMMAX
 10
11.0
 20
8.5
  9
$UNITMODE
 70
     0
  9
$VISRETAIN
 70
     1
  9
$PLINEGEN
 70
     0
  9
$PSLTSCALE
 70
     1
  9
$TREEDEPTH
 70
  3020
  9
$CMLSTYLE
  2
STANDARD
  9
$CMLJUST
 70
     0
  9
$CMLSCALE
 40
1.0
  9
$PROXYGRAPHICS
 70
     1
  9
$MEASUREMENT
 70
     0
  9
$CELWEIGHT
370
    -1
  9
$ENDCAPS
280
     0
  9
$JOINSTYLE
280
     0
  9
$LWDISPLAY
290
     0
  9
$INSUNITS
 70
     0
  9
$HYPERLINKBASE
  1

  9
$STYLESHEET
  1

  9
$XEDIT
290
     1
  9
$CEPSNTYPE
380
     0
  9
$PSTYLEMODE
290
     1
  9
$FINGERPRINTGUID
  2
{429355A8-7BC6-4FCE-9B99-57A0ED0E2088}
  9
$VERSIONGUID
  2
{59937EE6-D562-484A-8D07-065C3F415D6E}
  9
$EXTNAMES
290
     1
  9
$PSVPSCALE
 40
0.0
  9
$OLESTARTUP
290
     0
  0
ENDSEC
  0
SECTION
  2
CLASSES
  0
CLASS
  1
DICTIONARYVAR
  2
AcDbDictionaryVar
  3
ObjectDBX Classes
 90
        0
280
     0
281
     0
  0
CLASS
  1
ACDBDICTIONARYWDFLT
  2
AcDbDictionaryWithDefault
  3
ObjectDBX Classes
 90
        0
280
     0
281
     0
  0
CLASS
  1
ACDBPLACEHOLDER
  2
AcDbPlaceHolder
  3
ObjectDBX Classes
 90
        0
280
     0
281
     0
  0
CLASS
  1
LAYOUT
  2
AcDbLayout
  3
ObjectDBX Classes
 90
        0
280
     0
281
     0
  0
ENDSEC
  0
SECTION
  2
TABLES
  0
TABLE
  2
VPORT
  5
24
330
0
100
AcDbSymbolTable
 70
     3
  0
VPORT
  5
2E3
330
24
100
AcDbSymbolTableRecord
100
AcDbViewportTableRecord
  2
*Active
 70
     0
 10
0.0
 20
0.0
 11
1.0
 21
1.0
 12
134.8493050686657
 22
-57.43176230116716
 13
0.0
 23
0.0
 14
0.5
 24
0.5
 15
0.5
 25
0.5
 16
0.0
 26
0.0
 36
1.0
 17
0.0
 27
0.0
 37
0.0
 40
10.22379043698949
 41
1.45595238095238
 42
50.0
 43
0.0
 44
0.0
 50
0.0
 51
0.0
 71
     0
 72
   100
 73
     1
 74
     1
 75
     0
 76
     0
 77
     0
 78
     1
281
     0
 65
     1
110
0.0
120
0.0
130
0.0
111
1.0
121
0.0
131
0.0
112
0.0
122
1.0
132
0.0
 79
     0
146
0.0
  0
ENDTAB
  0
TABLE
  2
LTYPE
  5
1F
330
0
100
AcDbSymbolTable
 70
     5
  0
LTYPE
  5
20
330
1F
100
AcDbSymbolTableRecord
100
AcDbLinetypeTableRecord
  2
BYBLOCK
 70
     0
  3

 72
    65
 73
     0
 40
0.0
  0
LTYPE
  5
21
330
1F
100
AcDbSymbolTableRecord
100
AcDbLinetypeTableRecord
  2
BYLAYER
 70
     0
  3

 72
    65
 73
     0
 40
0.0
  0
LTYPE
  5
A
330
1F
100
AcDbSymbolTableRecord
100
AcDbLinetypeTableRecord
  2
CONTINUOUS
 70
     0
  3
Solid line
 72
    65
 73
     0
 40
0.0
  0
LTYPE
  5
14A
330
1F
100
AcDbSymbolTableRecord
100
AcDbLinetypeTableRecord
  2
ACAD_ISO02W100
 70
     0
  3
ISO dash __ __ __ __ __ __ __ __ __ __ __ __ __
 72
    65
 73
     2
 40
15.0
 49
12.0
 74
     0
 49
-3.0
 74
     0
  0
LTYPE
  5
7C
330
1F
100
AcDbSymbolTableRecord
100
AcDbLinetypeTableRecord
  2
CENTER
 70
     0
  3
Center ____ _ ____ _ ____ _ ____ _ ____ _ ____
 72
    65
 73
     4
 40
2.0
 49
1.25
 74
     0
 49
-0.25
 74
     0
 49
0.25
 74
     0
 49
-0.25
 74
     0
  0
LTYPE
  5
14B
330
1F
100
AcDbSymbolTableRecord
100
AcDbLinetypeTableRecord
  2
DASHED2
 70
     0
  3
Dashed (.5x) _ _ _ _ _ _ _ _ _ _ _ _ _ _ _ _ _
 72
    65
 73
     2
 40
0.375
 49
0.25
 74
     0
 49
-0.125
 74
     0
  0
LTYPE
  5
131
330
1F
100
AcDbSymbolTableRecord
100
AcDbLinetypeTableRecord
  2
HIDDEN
 70
     0
  3
Hidden __ __ __ __ __ __ __ __ __ __ __ __ __ _
 72
    65
 73
     2
 40
0.375
 49
0.25
 74
     0
 49
-0.125
 74
     0
  0
ENDTAB
  0
TABLE
  2
LAYER
  5
14
102
{ACAD_XDICTIONARY
360
15
102
}
330
0
100
AcDbSymbolTable
 70
     9
  0
LAYER
  5
6
330
14
100
AcDbSymbolTableRecord
100
AcDbLayerTableRecord
  2
0
 70
     0
 62
     7
  6
CONTINUOUS
370
    -3
390
7
  0
LAYER
  5
146
330
14
100
AcDbSymbolTableRecord
100
AcDbLayerTableRecord
  2
.050 Flashing
 70
     0
 62
   120
  6
CONTINUOUS
370
     5
390
7
  0
LAYER
  5
149
330
14
100
AcDbSymbolTableRecord
100
AcDbLayerTableRecord
  2
Curb
 70
     0
 62
    12
  6
ACAD_ISO02W100
370
     9
390
7
  0
LAYER
  5
40
330
14
100
AcDbSymbolTableRecord
100
AcDbLayerTableRecord
  2
5
 70
     0
 62
     5
  6
CONTINUOUS
370
    -3
390
7
  0
LAYER
  5
130
330
14
100
AcDbSymbolTableRecord
100
AcDbLayerTableRecord
  2
1
 70
     0
 62
     1
  6
HIDDEN
370
    -3
390
7
  0
LAYER
  5
7B
330
14
100
AcDbSymbolTableRecord
100
AcDbLayerTableRecord
  2
2
 70
     0
 62
     4
  6
CENTER
370
    -3
390
7
  0
LAYER
  5
156
330
14
100
AcDbSymbolTableRecord
100
AcDbLayerTableRecord
  2
3
 70
     0
 62
     3
  6
CONTINUOUS
370
    -3
390
7
  0
LAYER
  5
17D
330
14
100
AcDbSymbolTableRecord
100
AcDbLayerTableRecord
  2
Glazing
 70
     0
 62
     5
  6
CONTINUOUS
370
    -3
390
7
  0
LAYER
  5
2B4
330
14
100
AcDbSymbolTableRecord
100
AcDbLayerTableRecord
  2
Text
 70
     0
 62
     7
  6
CONTINUOUS
370
    -3
390
7
  0
ENDTAB
  0
TABLE
  2
STYLE
  5
1B
330
0
100
AcDbSymbolTable
 70
     2
  0
STYLE
  5
1C
330
1B
100
AcDbSymbolTableRecord
100
AcDbTextStyleTableRecord
  2
STANDARD
 70
     0
 40
0.1875
 41
1.0
 50
0.0
 71
     0
 42
0.1875
  3
ARIAL.TTF
  4

1001
ACAD
1000
Arial
1071
       34
  0
STYLE
  5
2A
330
1B
100
AcDbSymbolTableRecord
100
AcDbTextStyleTableRecord
  2
ARCHITXT
 70
     0
 40
3.0
 41
1.0
 50
0.0
 71
     0
 42
3.0
  3
architxt.shx
  4

  0
ENDTAB
  0
TABLE
  2
VIEW
  5
22
330
0
100
AcDbSymbolTable
 70
     0
  0
ENDTAB
  0
TABLE
  2
UCS
  5
23
330
0
100
AcDbSymbolTable
 70
     0
  0
ENDTAB
  0
TABLE
  2
APPID
  5
26
330
0
100
AcDbSymbolTable
 70
     1
  0
APPID
  5
1D
330
26
100
AcDbSymbolTableRecord
100
AcDbRegAppTableRecord
  2
ACAD
 70
     0
  0
ENDTAB
  0
TABLE
  2
DIMSTYLE
  5
27
330
0
100
AcDbSymbolTable
 70
     2
100
AcDbDimStyleTable
 71
     2
340
28
340
29
  0
DIMSTYLE
105
28
330
27
100
AcDbSymbolTableRecord
100
AcDbDimStyleTableRecord
  2
STANDARD
 70
     0
 41
0.125
 44
0.09375
143
1.0
170
     1
171
     4
179
     8
273
     5
274
     4
340
1C
  0
DIMSTYLE
105
29
330
27
100
AcDbSymbolTableRecord
100
AcDbDimStyleTableRecord
  2
ARCHITXT_WS
 70
     0
 40
24.0
 41
0.1875
 43
0.375
 44
0.1875
140
0.125
141
0.0625
147
0.0625
174
     1
271
     5
272
     5
276
     2
277
     4
340
2A
  0
ENDTAB
  0
TABLE
  2
BLOCK_RECORD
  5
1
330
0
100
AcDbSymbolTable
 70
     7
  0
BLOCK_RECORD
  5
2
102
{ACAD_XDICTIONARY
360
3
102
}
330
1
100
AcDbSymbolTableRecord
100
AcDbBlockTableRecord
  2
*MODEL_SPACE
340
C
  0
BLOCK_RECORD
  5
E
102
{ACAD_XDICTIONARY
360
F
102
}
330
1
100
AcDbSymbolTableRecord
100
AcDbBlockTableRecord
  2
*PAPER_SPACE
340
13
  0
BLOCK_RECORD
  5
1BD
330
1
100
AcDbSymbolTableRecord
100
AcDbBlockTableRecord
  2
epdm
340
0
310
2800000020000000200000000100080000000000000400000000000000000000000000000000000000000000000080000080000000808000800000008000800080800000C0C0C000C0DCC000F0CAA6000020400000206000002080000020A0000020C0000020E00000400000004020000040400000406000004080000040A0
310
000040C0000040E00000600000006020000060400000606000006080000060A0000060C0000060E00000800000008020000080400000806000008080000080A0000080C0000080E00000A0000000A0200000A0400000A0600000A0800000A0A00000A0C00000A0E00000C0000000C0200000C0400000C0600000C0800000C0
310
A00000C0C00000C0E00000E0000000E0200000E0400000E0600000E0800000E0A00000E0C00000E0E00040000000400020004000400040006000400080004000A0004000C0004000E00040200000402020004020400040206000402080004020A0004020C0004020E000404000004040200040404000404060004040800040
310
40A0004040C0004040E00040600000406020004060400040606000406080004060A0004060C0004060E00040800000408020004080400040806000408080004080A0004080C0004080E00040A0000040A0200040A0400040A0600040A0800040A0A00040A0C00040A0E00040C0000040C0200040C0400040C0600040C08000
310
40C0A00040C0C00040C0E00040E0000040E0200040E0400040E0600040E0800040E0A00040E0C00040E0E00080000000800020008000400080006000800080008000A0008000C0008000E00080200000802020008020400080206000802080008020A0008020C0008020E00080400000804020008040400080406000804080
310
008040A0008040C0008040E00080600000806020008060400080606000806080008060A0008060C0008060E00080800000808020008080400080806000808080008080A0008080C0008080E00080A0000080A0200080A0400080A0600080A0800080A0A00080A0C00080A0E00080C0000080C0200080C0400080C0600080C0
310
800080C0A00080C0C00080C0E00080E0000080E0200080E0400080E0600080E0800080E0A00080E0C00080E0E000C0000000C0002000C0004000C0006000C0008000C000A000C000C000C000E000C0200000C0202000C0204000C0206000C0208000C020A000C020C000C020E000C0400000C0402000C0404000C0406000C0
310
408000C040A000C040C000C040E000C0600000C0602000C0604000C0606000C0608000C060A000C060C000C060E000C0800000C0802000C0804000C0806000C0808000C080A000C080C000C080E000C0A00000C0A02000C0A04000C0A06000C0A08000C0A0A000C0A0C000C0A0E000C0C00000C0C02000C0C04000C0C06000
310
C0C08000C0C0A000F0FBFF00A4A0A000808080000000FF0000FF000000FFFF00FF000000FF00FF00FFFF0000FFFFFF0000000000000000000000000000000000000000000000000000000000000000000000000000000000000000000000000000000000000000000000000000000000000000000000000000000000000000
310
00000000000000000000000000000000000000000000000000000000000000000000000000000000000000000000000000000000000000000000000000000000000000000000000000000000000000000000000000000000000000000000000000000000000000000000000000000000000000000000000000000000000000
310
00000000000000000000000000000000000000000000000000000000000000000000000000000000000000000000000000000000000000000000000000000000000000000000000000000000000000000000000000000000000000000000FFFCFCFCFCFCFFFF0000000000000000000000000000000000000000000000FFFF
310
FFFFFFFFFF00FFFF00000000000000000000000000000000000000000000FFFFFCFCFFFFFFFFFFFF00000000000000000000000000000000000000000000FCFC00FC00FFFF00FCFF000000000000000000000000000000000000000000000000FC00FFFF00FF00000000000000000000000000000000000000000000000000
310
00FCFFFF00FFFF00000000000000000000000000000000000000000000000000FCFFFF00FFFFFFFC00000000000000000000000000FFFFFFFFFFFFFFFCFCFCFCFCFF00FFFFFF00FCFCFCFCFCFCFCFCFCFCFCFC0000FFFFFFFFFFFFFFFFFFFFFFFF00FFFFFF00FFFFFFFFFFFFFFFFFFFFFFFFFF0000FFFFFFFFFFFFFFFFFFFF
310
FF00FFFFFF00FFFFFFFFFFFFFFFFFFFFFFFFFFFF0000FFFFFFFFFFFFFFFFFFFF00FFFFFFFFFFFFFFFFFFFFFFFFFFFFFFFFFFFFFF0000FFFF00FFFFFFFF00FF00FFFFFFFF00FF00FFFFFFFF00FF00FFFFFFFFFFFF0000FC00FFFCFFFC00FC00FFFCFFFC00FCFCFFFCFFFC00FFFCFFFCFFFCFFFFFC000000FCFCFFFC00FC00FC
310
FCFFFC00FC00FFFCFFFC00FCFCFFFCFFFC00FCFC0000000000000000000000000000000000000000000000000000000000000000000000000000000000000000000000000000000000000000000000000000000000000000000000000000000000000000000000000000000000000000000000000000000000000000000000
310
00000000000000000000000000000000000000000000000000000000000000000000000000000000000000000000000000000000000000000000000000000000000000000000000000000000000000000000000000000000000000000000000000000000000000000000000000000000000000000000000000000000000000
310
0000000000000000000000000000000000000000000000000000000000000000000000000000000000000000000000000000000000000000
102
{BLKREFS
331
1BC
102
}
  0
BLOCK_RECORD
  5
41
330
1
100
AcDbSymbolTableRecord
100
AcDbBlockTableRecord
  2
10-2
340
0
  0
BLOCK_RECORD
  5
15C
330
1
100
AcDbSymbolTableRecord
100
AcDbBlockTableRecord
  2
S4
340
0
310
2800000020000000200000000100080000000000000400000000000000000000000000000000000000000000000080000080000000808000800000008000800080800000C0C0C000C0DCC000F0CAA6000020400000206000002080000020A0000020C0000020E00000400000004020000040400000406000004080000040A0
310
000040C0000040E00000600000006020000060400000606000006080000060A0000060C0000060E00000800000008020000080400000806000008080000080A0000080C0000080E00000A0000000A0200000A0400000A0600000A0800000A0A00000A0C00000A0E00000C0000000C0200000C0400000C0600000C0800000C0
310
A00000C0C00000C0E00000E0000000E0200000E0400000E0600000E0800000E0A00000E0C00000E0E00040000000400020004000400040006000400080004000A0004000C0004000E00040200000402020004020400040206000402080004020A0004020C0004020E000404000004040200040404000404060004040800040
310
40A0004040C0004040E00040600000406020004060400040606000406080004060A0004060C0004060E00040800000408020004080400040806000408080004080A0004080C0004080E00040A0000040A0200040A0400040A0600040A0800040A0A00040A0C00040A0E00040C0000040C0200040C0400040C0600040C08000
310
40C0A00040C0C00040C0E00040E0000040E0200040E0400040E0600040E0800040E0A00040E0C00040E0E00080000000800020008000400080006000800080008000A0008000C0008000E00080200000802020008020400080206000802080008020A0008020C0008020E00080400000804020008040400080406000804080
310
008040A0008040C0008040E00080600000806020008060400080606000806080008060A0008060C0008060E00080800000808020008080400080806000808080008080A0008080C0008080E00080A0000080A0200080A0400080A0600080A0800080A0A00080A0C00080A0E00080C0000080C0200080C0400080C0600080C0
310
800080C0A00080C0C00080C0E00080E0000080E0200080E0400080E0600080E0800080E0A00080E0C00080E0E000C0000000C0002000C0004000C0006000C0008000C000A000C000C000C000E000C0200000C0202000C0204000C0206000C0208000C020A000C020C000C020E000C0400000C0402000C0404000C0406000C0
310
408000C040A000C040C000C040E000C0600000C0602000C0604000C0606000C0608000C060A000C060C000C060E000C0800000C0802000C0804000C0806000C0808000C080A000C080C000C080E000C0A00000C0A02000C0A04000C0A06000C0A08000C0A0A000C0A0C000C0A0E000C0C00000C0C02000C0C04000C0C06000
310
C0C08000C0C0A000F0FBFF00A4A0A000808080000000FF0000FF000000FFFF00FF000000FF00FF00FFFF0000FFFFFF00000000000000000000000000000000000000000000000000000000000000000000000000000000000000FFFFFFFFFFFFFFFFFFFFFFFFFFFFFFFF00000000000000000000000000000000FFFFFFFFFF
310
FFFFFFFFFFFFFFFFFFFFFF00000000000000000000000000000000FFFF000000000000000000000000000000000000000000000000000000000000FFFF000000000000000000000000000000000000000000000000000000000000FFFF000000000000000000000000000000000000000000000000000000000000FFFF0000
310
00000000000000000000000000000000000000000000000000000000FFFF000000000000000000000000000000000000000000000000000000000000FFFF000000000000000000000000000000000000000000000000000000000000FFFF000000000000000000000000000000000000000000000000000000000000FFFF00
310
0000000000000000000000000000000000000000000000000000000000FFFF000000000000000000000000000000000000000000000000000000000000FFFF000000000000000000000000000000000000000000000000000000000000FFFF000000000000000000000000000000000000000000000000000000000000FFFF
310
000000000000000000000000000000000000000000000000000000000000FFFF000000000000000000000000000000000000000000000000000000000000FFFF000000000000000000000000000000000000000000000000000000000000FFFF000000000000000000000000000000000000000000000000000000000000FF
310
FF000000000000000000000000000000000000000000000000000000000000FFFF000000000000000000000000000000000000000000000000000000000000FFFF000000000000000000000000000000000000000000000000000000000000FFFF000000000000000000000000000000000000000000000000000000000000
310
FFFF0000000000000000000000000000000000000000000000000000FFFFFFFFFFFF0000000000000000000000000000000000000000000000000000FFFFFFFFFFFF0000000000000000000000000000000000000000000000000000FFFF000000000000000000000000000000000000000000000000000000000000FFFF00
310
0000000000000000000000000000000000000000000000000000000000FFFF000000000000000000000000000000000000000000000000000000000000FFFF000000000000000000000000000000000000000000000000000000000000FFFF000000000000000000000000000000000000000000000000000000000000FFFF
310
0000000000000000000000000000000000000000000000000000000000000000000000000000000000000000000000000000000000000000
102
{BLKREFS
331
15B
102
}
  0
BLOCK_RECORD
  5
191
330
1
100
AcDbSymbolTableRecord
100
AcDbBlockTableRecord
  2
*X3
340
0
102
{BLKREFS
331
190
102
}
  0
BLOCK_RECORD
  5
18D
330
1
100
AcDbSymbolTableRecord
100
AcDbBlockTableRecord
  2
work point
340
0
310
2800000020000000200000000100080000000000000400000000000000000000000000000000000000000000000080000080000000808000800000008000800080800000C0C0C000C0DCC000F0CAA6000020400000206000002080000020A0000020C0000020E00000400000004020000040400000406000004080000040A0
310
000040C0000040E00000600000006020000060400000606000006080000060A0000060C0000060E00000800000008020000080400000806000008080000080A0000080C0000080E00000A0000000A0200000A0400000A0600000A0800000A0A00000A0C00000A0E00000C0000000C0200000C0400000C0600000C0800000C0
310
A00000C0C00000C0E00000E0000000E0200000E0400000E0600000E0800000E0A00000E0C00000E0E00040000000400020004000400040006000400080004000A0004000C0004000E00040200000402020004020400040206000402080004020A0004020C0004020E000404000004040200040404000404060004040800040
310
40A0004040C0004040E00040600000406020004060400040606000406080004060A0004060C0004060E00040800000408020004080400040806000408080004080A0004080C0004080E00040A0000040A0200040A0400040A0600040A0800040A0A00040A0C00040A0E00040C0000040C0200040C0400040C0600040C08000
310
40C0A00040C0C00040C0E00040E0000040E0200040E0400040E0600040E0800040E0A00040E0C00040E0E00080000000800020008000400080006000800080008000A0008000C0008000E00080200000802020008020400080206000802080008020A0008020C0008020E00080400000804020008040400080406000804080
310
008040A0008040C0008040E00080600000806020008060400080606000806080008060A0008060C0008060E00080800000808020008080400080806000808080008080A0008080C0008080E00080A0000080A0200080A0400080A0600080A0800080A0A00080A0C00080A0E00080C0000080C0200080C0400080C0600080C0
310
800080C0A00080C0C00080C0E00080E0000080E0200080E0400080E0600080E0800080E0A00080E0C00080E0E000C0000000C0002000C0004000C0006000C0008000C000A000C000C000C000E000C0200000C0202000C0204000C0206000C0208000C020A000C020C000C020E000C0400000C0402000C0404000C0406000C0
310
408000C040A000C040C000C040E000C0600000C0602000C0604000C0606000C0608000C060A000C060C000C060E000C0800000C0802000C0804000C0806000C0808000C080A000C080C000C080E000C0A00000C0A02000C0A04000C0A06000C0A08000C0A0A000C0A0C000C0A0E000C0C00000C0C02000C0C04000C0C06000
310
C0C08000C0C0A000F0FBFF00A4A0A000808080000000FF0000FF000000FFFF00FF000000FF00FF00FFFF0000FFFFFF000000000000000000000000000000000000000000000000000000000000000000000000000000000000000000000000FF00000000000000000000000000000000000000000000000000000000000000
310
FF00000000000000000000000000000000000000000000000000000000000000FF00000000000000000000000000000000000000000000000000000000000000FF00000000000000000000000000000000000000000000000000000000000000FF000000000000000000000000000000000000000000000000000000000000
310
00FF00000000000000000000000000000000000000000000000000000000000000FF00000000000000000000000000000000000000000000000000000000000000FF00000000000000000000000000000000000000000000000000000000000000FF0000000000000000000000000000000000000000000000000000000000
310
00FFFFFFFFFF00000000000000000000000000000000000000000000000000FFFF00FFFFFFFFFF0000000000000000000000000000000000000000000000FF000000FFFFFFFFFFFF000000000000000000000000000000000000000000FF00000000FFFFFFFFFFFFFF0000000000000000000000000000000000000000FF00
310
000000FFFFFFFFFFFFFF0000000000000000000000000000000000000000FF00000000FFFFFFFFFFFFFF0000000000000000000000FFFFFFFFFFFFFFFFFFFFFFFFFFFFFFFFFFFFFFFFFFFFFFFFFFFFFFFFFFFF0000000000000000000000FFFFFFFFFFFFFF00000000FF0000000000000000000000000000000000000000FF
310
FFFFFFFFFFFF00000000FF000000000000000000000000000000000000000000FFFFFFFFFFFF000000FF0000000000000000000000000000000000000000000000FFFFFFFFFF0000FF00000000000000000000000000000000000000000000000000FFFFFFFFFFFF0000000000000000000000000000000000000000000000
310
0000000000FF00000000000000000000000000000000000000000000000000000000000000FF00000000000000000000000000000000000000000000000000000000000000FF00000000000000000000000000000000000000000000000000000000000000FF00000000000000000000000000000000000000000000000000
310
000000000000FF00000000000000000000000000000000000000000000000000000000000000FF00000000000000000000000000000000000000000000000000000000000000FF00000000000000000000000000000000000000000000000000000000000000FF000000000000000000000000000000000000000000000000
310
00000000000000FF000000000000000000000000000000000000000000000000000000000000000000000000000000000000000000000000
102
{BLKREFS
331
18C
102
}
  0
BLOCK_RECORD
  5
265
330
1
100
AcDbSymbolTableRecord
100
AcDbBlockTableRecord
  2
ANCHOR
340
0
310
2800000020000000200000000100080000000000000400000000000000000000000000000000000000000000000080000080000000808000800000008000800080800000C0C0C000C0DCC000F0CAA6000020400000206000002080000020A0000020C0000020E00000400000004020000040400000406000004080000040A0
310
000040C0000040E00000600000006020000060400000606000006080000060A0000060C0000060E00000800000008020000080400000806000008080000080A0000080C0000080E00000A0000000A0200000A0400000A0600000A0800000A0A00000A0C00000A0E00000C0000000C0200000C0400000C0600000C0800000C0
310
A00000C0C00000C0E00000E0000000E0200000E0400000E0600000E0800000E0A00000E0C00000E0E00040000000400020004000400040006000400080004000A0004000C0004000E00040200000402020004020400040206000402080004020A0004020C0004020E000404000004040200040404000404060004040800040
310
40A0004040C0004040E00040600000406020004060400040606000406080004060A0004060C0004060E00040800000408020004080400040806000408080004080A0004080C0004080E00040A0000040A0200040A0400040A0600040A0800040A0A00040A0C00040A0E00040C0000040C0200040C0400040C0600040C08000
310
40C0A00040C0C00040C0E00040E0000040E0200040E0400040E0600040E0800040E0A00040E0C00040E0E00080000000800020008000400080006000800080008000A0008000C0008000E00080200000802020008020400080206000802080008020A0008020C0008020E00080400000804020008040400080406000804080
310
008040A0008040C0008040E00080600000806020008060400080606000806080008060A0008060C0008060E00080800000808020008080400080806000808080008080A0008080C0008080E00080A0000080A0200080A0400080A0600080A0800080A0A00080A0C00080A0E00080C0000080C0200080C0400080C0600080C0
310
800080C0A00080C0C00080C0E00080E0000080E0200080E0400080E0600080E0800080E0A00080E0C00080E0E000C0000000C0002000C0004000C0006000C0008000C000A000C000C000C000E000C0200000C0202000C0204000C0206000C0208000C020A000C020C000C020E000C0400000C0402000C0404000C0406000C0
310
408000C040A000C040C000C040E000C0600000C0602000C0604000C0606000C0608000C060A000C060C000C060E000C0800000C0802000C0804000C0806000C0808000C080A000C080C000C080E000C0A00000C0A02000C0A04000C0A06000C0A08000C0A0A000C0A0C000C0A0E000C0C00000C0C02000C0C04000C0C06000
310
C0C08000C0C0A000F0FBFF00A4A0A000808080000000FF0000FF000000FFFF00FF000000FF00FF00FFFF0000FFFFFF000000000000000000000000000000000000000000000000000000000000000000000000000000000000000000000000FF000000000000000000000000000000000000000000000000000000000000FF
310
FFFF000000000000000000000000000000000000000000000000000000000000FFFFFF00000000000000000000000000000000000000000000000000000000FFFFFFFF00000000000000000000000000000000000000000000000000000000FFFFFFFF00000000000000000000000000000000000000000000000000000000
310
FFFF00FF00000000000000000000000000000000000000000000000000000000FFFFFFFF00000000000000000000000000000000000000000000000000000000FFFFFFFF00000000000000000000000000000000000000000000000000000000FFFFFFFF000000000000000000000000000000000000000000000000000000
310
00FFFFFFFF00000000000000000000000000000000000000000000000000000000FFFFFFFF00000000000000000000000000000000000000000000000000000000FFFFFFFF00000000000000000000000000000000000000000000000000000000FFFFFFFF0000000000000000000000000000000000000000000000000000
310
0000FFFFFFFF00000000000000000000000000000000000000000000000000000000FFFFFFFF00000000000000000000000000000000000000000000000000000000FFFFFFFF00000000000000000000000000000000000000000000000000000000FFFFFFFF00000000000000000000000000000000000000000000000000
310
000000FFFFFFFF00000000000000000000000000000000000000000000000000000000FF0000FF00000000000000000000000000000000000000000000000000000000FF0000FF00000000000000000000000000000000000000000000000000000000FF0000FF000000000000000000000000000000000000000000000000
310
00000000FF0000FF00000000000000000000000000000000000000000000000000000000FF0000FF00000000000000000000000000000000000000000000000000000000FF0000FF00000000000000000000000000000000000000000000000000000000FF0000FF0000000000000000000000000000000000000000000000
310
0000000000FF0000FF0000000000000000000000000000000000000000000000000000FFFFFFFFFFFFFFFF000000000000000000000000000000000000000000000000FF0000FF000000FF000000000000000000000000000000000000000000000000FF0000FF000000FF0000000000000000000000000000000000000000
310
00000000FFFFFFFFFFFFFFFF0000000000000000000000000000000000000000000000000000000000000000000000000000000000000000
102
{BLKREFS
331
2B6
331
2BB
102
}
  0
ENDTAB
  0
ENDSEC
  0
SECTION
  2
BLOCKS
  0
BLOCK
  5
5
330
2
100
AcDbEntity
  8
0
100
AcDbBlockBegin
  2
*MODEL_SPACE
 70
     0
 10
0.0
 20
0.0
 30
0.0
  3
*MODEL_SPACE
  1

  0
ENDBLK
  5
B
330
2
100
AcDbEntity
  8
0
100
AcDbBlockEnd
  0
BLOCK
  5
11
330
E
100
AcDbEntity
 67
     1
  8
0
100
AcDbBlockBegin
  2
*PAPER_SPACE
 70
     0
 10
0.0
 20
0.0
 30
0.0
  3
*PAPER_SPACE
  1

  0
ENDBLK
  5
12
330
E
100
AcDbEntity
 67
     1
  8
0
100
AcDbBlockEnd
  0
BLOCK
  5
1BE
330
1BD
100
AcDbEntity
  8
0
100
AcDbBlockBegin
  2
epdm
 70
     0
 10
0.0
 20
0.0
 30
0.0
  3
epdm
  1

  0
LINE
  5
1BF
330
1BD
100
AcDbEntity
  8
5
100
AcDbLine
 10
-3.7342876288553
 20
5.081818992145358
 30
0.0
 11
-3.79070225244123
 21
5.062661067774548
 31
0.0
  0
LINE
  5
1C0
330
1BD
100
AcDbEntity
  8
5
100
AcDbLine
 10
-3.904010361953952
 20
5.081818992145358
 30
0.0
 11
-3.847595738368022
 21
5.06266106777455
 31
0.0
  0
LINE
  5
1C1
330
1BD
100
AcDbEntity
  8
0
 62
     0
100
AcDbLine
 10
-3.831085386472681
 20
5.062661067774548
 30
0.0
 11
-3.879509494485192
 21
5.111085175787058
 31
0.0
  0
LINE
  5
1C2
330
1BD
100
AcDbEntity
  8
0
 62
     0
100
AcDbLine
 10
-3.84936330732429
 20
5.063261319096492
 30
0.0
 11
-3.904010361953945
 21
5.11790837372615
 31
0.0
  0
LINE
  5
1C3
330
1BD
100
AcDbEntity
  8
0
 62
     0
100
AcDbLine
 10
-3.781259168532224
 20
5.065867858423082
 30
0.0
 11
-3.859784160816312
 21
5.14439285070717
 31
0.0
  0
LINE
  5
1C4
330
1BD
100
AcDbEntity
  8
0
 62
     0
100
AcDbLine
 10
-3.795730047413352
 20
5.062661067774548
 30
0.0
 11
-3.84983420580229
 21
5.116765226163481
 31
0.0
  0
LINE
  5
1C5
330
1BD
100
AcDbEntity
  8
0
 62
     0
100
AcDbLine
 10
-3.81340771694302
 20
5.062661067774548
 30
0.0
 11
-3.851618669269948
 21
5.100872020101476
 31
0.0
  0
LINE
  5
1C6
330
1BD
100
AcDbEntity
  8
5
100
AcDbLine
 10
-3.79070225244123
 20
5.062661067774548
 30
0.0
 11
-3.847595738368022
 21
5.06266106777455
 31
0.0
  0
LINE
  5
1C7
330
1BD
100
AcDbEntity
  8
5
100
AcDbLine
 10
-3.79532826093464
 20
5.097704922538818
 30
0.0
 11
-3.7342876288553
 21
5.120056985403987
 31
0.0
  0
LINE
  5
1C8
330
1BD
100
AcDbEntity
  8
5
100
AcDbLine
 10
-3.764063546942781
 20
5.188416018424497
 30
0.0
 11
-3.79532826093464
 21
5.097704922538818
 31
0.0
  0
LINE
  5
1C9
330
1BD
100
AcDbEntity
  8
0
 62
     0
100
AcDbLine
 10
-3.768062854535196
 20
5.070349213955719
 30
0.0
 11
-3.869734115830341
 21
5.172020475250858
 31
0.0
  0
LINE
  5
1CA
330
1BD
100
AcDbEntity
  8
5
100
AcDbLine
 10
-3.778175527431054
 20
5.288786934748507
 30
0.0
 11
-3.799020256880035
 21
5.308469012926966
 31
0.0
  0
LINE
  5
1CB
330
1BD
100
AcDbEntity
  8
0
 62
     0
100
AcDbLine
 10
-3.691675294177679
 20
5.188416018424497
 30
0.0
 11
-3.805556559643813
 21
5.302297283890631
 31
0.0
  0
LINE
  5
1CC
330
1BD
100
AcDbEntity
  8
0
 62
     0
100
AcDbLine
 10
-3.768164674788282
 20
5.176517051386785
 30
0.0
 11
-3.891522287447552
 21
5.299874664046056
 31
0.0
  0
LINE
  5
1CD
330
1BD
100
AcDbEntity
  8
0
 62
     0
100
AcDbLine
 10
-3.76238597229633
 20
5.188416018424497
 30
0.0
 11
-3.882429880218696
 21
5.308459926346861
 31
0.0
  0
LINE
  5
1CE
330
1BD
100
AcDbEntity
  8
0
 62
     0
100
AcDbLine
 10
-3.744708302766669
 20
5.188416018424497
 30
0.0
 11
-3.853085627160114
 21
5.296793342817942
 31
0.0
  0
LINE
  5
1CF
330
1BD
100
AcDbEntity
  8
0
 62
     0
100
AcDbLine
 10
-3.727030633237001
 20
5.188416018424497
 30
0.0
 11
-3.843993219931251
 21
5.305378605118747
 31
0.0
  0
LINE
  5
1D0
330
1BD
100
AcDbEntity
  8
0
 62
     0
100
AcDbLine
 10
-3.70935296370734
 20
5.188416018424497
 30
0.0
 11
-3.814648966872669
 21
5.293712021589826
 31
0.0
  0
LINE
  5
1D1
330
1BD
100
AcDbEntity
  8
0
 62
     0
100
AcDbLine
 10
-3.77722691889131
 20
5.150223956430487
 30
0.0
 11
-3.929958947734997
 21
5.30295598527417
 31
0.0
  0
LINE
  5
1D2
330
1BD
100
AcDbEntity
  8
0
 62
     0
100
AcDbLine
 10
-3.7726957968398
 20
5.163370503908636
 30
0.0
 11
-3.900614694676415
 21
5.291289401745251
 31
0.0
  0
LINE
  5
1D3
330
1BD
100
AcDbEntity
  8
0
 62
     0
100
AcDbLine
 10
-3.781758040942827
 20
5.13707740895234
 30
0.0
 11
-3.939051354963853
 21
5.294370722973365
 31
0.0
  0
LINE
  5
1D4
330
1BD
100
AcDbEntity
  8
5
100
AcDbLine
 10
-4.069949034206496
 20
5.188416018424497
 30
0.0
 11
-4.069949034206496
 21
5.288896419438431
 31
0.0
  0
LINE
  5
1D5
330
1BD
100
AcDbEntity
  8
0
 62
     0
100
AcDbLine
 10
-3.886129659003978
 20
5.188416018424495
 30
0.0
 11
-3.986580422480153
 21
5.288866781900674
 31
0.0
  0
LINE
  5
1D6
330
1BD
100
AcDbEntity
  8
0
 62
     0
100
AcDbLine
 10
-3.903807328533639
 20
5.188416018424495
 30
0.0
 11
-4.015924675538736
 21
5.300533365429593
 31
0.0
  0
LINE
  5
1D7
330
1BD
100
AcDbEntity
  8
0
 62
     0
100
AcDbLine
 10
-3.9214849980633
 20
5.188416018424495
 30
0.0
 11
-4.025017082767599
 21
5.291948103128788
 31
0.0
  0
LINE
  5
1D8
330
1BD
100
AcDbEntity
  8
0
 62
     0
100
AcDbLine
 10
-3.939162667592968
 20
5.188416018424495
 30
0.0
 11
-4.054361335826181
 21
5.303614686657709
 31
0.0
  0
LINE
  5
1D9
330
1BD
100
AcDbEntity
  8
0
 62
     0
100
AcDbLine
 10
-3.956840337122629
 20
5.188416018424495
 30
0.0
 11
-4.063453743055037
 21
5.295029424356904
 31
0.0
  0
LINE
  5
1DA
330
1BD
100
AcDbEntity
  8
0
 62
     0
100
AcDbLine
 10
-3.786289162994345
 20
5.123930861474189
 30
0.0
 11
-3.968395608022435
 21
5.306037306502284
 31
0.0
  0
LINE
  5
1DB
330
1BD
100
AcDbEntity
  8
0
 62
     0
100
AcDbLine
 10
-3.790820285045855
 20
5.110784313996042
 30
0.0
 11
-3.977488015251298
 21
5.297452044201479
 31
0.0
  0
LINE
  5
1DC
330
1BD
100
AcDbEntity
  8
5
100
AcDbLine
 10
-4.069949034206496
 20
5.188416018424497
 30
0.0
 11
-3.875638891202912
 21
5.188416018424497
 31
0.0
  0
LINE
  5
1DD
330
1BD
100
AcDbEntity
  8
0
 62
     0
100
AcDbLine
 10
-4.045228684770949
 20
5.188416018424497
 30
0.0
 11
-4.069949034206496
 21
5.213136367860041
 31
0.0
  0
LINE
  5
1DE
330
1BD
100
AcDbEntity
  8
0
 62
     0
100
AcDbLine
 10
-4.062906354300617
 20
5.188416018424497
 30
0.0
 11
-4.069949034206496
 21
5.195458698330378
 31
0.0
  0
LINE
  5
1DF
330
1BD
100
AcDbEntity
  8
0
 62
     0
100
AcDbLine
 10
-3.992195676181959
 20
5.188416018424495
 30
0.0
 11
-4.069949034206496
 21
5.266169376449033
 31
0.0
  0
LINE
  5
1E0
330
1BD
100
AcDbEntity
  8
0
 62
     0
100
AcDbLine
 10
-4.00987334571162
 20
5.188416018424495
 30
0.0
 11
-4.069949034206496
 21
5.24849170691937
 31
0.0
  0
LINE
  5
1E1
330
1BD
100
AcDbEntity
  8
0
 62
     0
100
AcDbLine
 10
-4.027551015241288
 20
5.188416018424495
 30
0.0
 11
-4.069949034206496
 21
5.230814037389706
 31
0.0
  0
LINE
  5
1E2
330
1BD
100
AcDbEntity
  8
0
 62
     0
100
AcDbLine
 10
-3.974518006652298
 20
5.188416018424495
 30
0.0
 11
-4.069949034206496
 21
5.283847045978697
 31
0.0
  0
LINE
  5
1E3
330
1BD
100
AcDbEntity
  8
5
100
AcDbLine
 10
-3.904010361953945
 20
5.120056985403987
 30
0.0
 11
-3.904010361953952
 21
5.081818992145358
 31
0.0
  0
LINE
  5
1E4
330
1BD
100
AcDbEntity
  8
0
 62
     0
100
AcDbLine
 10
-3.876131085828612
 20
5.072351428071149
 30
0.0
 11
-3.904010361953945
 21
5.100230704196487
 31
0.0
  0
LINE
  5
1E5
330
1BD
100
AcDbEntity
  8
0
 62
     0
100
AcDbLine
 10
-3.902898864332934
 20
5.081441537045806
 30
0.0
 11
-3.904010361953952
 21
5.082553034666823
 31
0.0
  0
LINE
  5
1E6
330
1BD
100
AcDbEntity
  8
5
100
AcDbLine
 10
-3.842969729874612
 20
5.097704922538818
 30
0.0
 11
-3.904010361953945
 21
5.120056985403987
 31
0.0
  0
LINE
  5
1E7
330
1BD
100
AcDbEntity
  8
5
100
AcDbLine
 10
-3.875638891202912
 20
5.188416018424497
 30
0.0
 11
-3.842969729874612
 21
5.097704922538818
 31
0.0
  0
LINE
  5
1E8
330
1BD
100
AcDbEntity
  8
5
100
AcDbLine
 10
-3.944975527431056
 20
5.288786934748507
 30
0.0
 11
-3.96582025688003
 21
5.308469012926966
 31
0.0
  0
LINE
  5
1E9
330
1BD
100
AcDbEntity
  8
5
100
AcDbLine
 10
-4.049220256880028
 20
5.308469012926966
 30
0.0
 11
-4.070064986329009
 21
5.288786934748507
 31
0.0
  0
LINE
  5
1EA
330
1BD
100
AcDbEntity
  8
5
100
AcDbLine
 10
-4.028375527431053
 20
5.288786934748507
 30
0.0
 11
-4.049220256880028
 21
5.308469012926966
 31
0.0
  0
LINE
  5
1EB
330
1BD
100
AcDbEntity
  8
5
100
AcDbLine
 10
-4.007520256880036
 20
5.308469012926966
 30
0.0
 11
-4.028364986329004
 21
5.288786934748507
 31
0.0
  0
LINE
  5
1EC
330
1BD
100
AcDbEntity
  8
5
100
AcDbLine
 10
-3.986675527431055
 20
5.288786934748507
 30
0.0
 11
-4.007520256880036
 21
5.308469012926966
 31
0.0
  0
LINE
  5
1ED
330
1BD
100
AcDbEntity
  8
5
100
AcDbLine
 10
-3.96582025688003
 20
5.308469012926966
 30
0.0
 11
-3.986664986329012
 21
5.288786934748507
 31
0.0
  0
LINE
  5
1EE
330
1BD
100
AcDbEntity
  8
5
100
AcDbLine
 10
-3.924120256880032
 20
5.308469012926966
 30
0.0
 11
-3.944964986329006
 21
5.288786934748507
 31
0.0
  0
LINE
  5
1EF
330
1BD
100
AcDbEntity
  8
5
100
AcDbLine
 10
-3.903275527431057
 20
5.288786934748507
 30
0.0
 11
-3.924120256880032
 21
5.308469012926966
 31
0.0
  0
LINE
  5
1F0
330
1BD
100
AcDbEntity
  8
5
100
AcDbLine
 10
-3.882420256880033
 20
5.308469012926966
 30
0.0
 11
-3.903264986329007
 21
5.288786934748507
 31
0.0
  0
LINE
  5
1F1
330
1BD
100
AcDbEntity
  8
5
100
AcDbLine
 10
-3.861575527431051
 20
5.288786934748507
 30
0.0
 11
-3.882420256880033
 21
5.308469012926966
 31
0.0
  0
LINE
  5
1F2
330
1BD
100
AcDbEntity
  8
5
100
AcDbLine
 10
-3.840720256880027
 20
5.308469012926966
 30
0.0
 11
-3.861564986329009
 21
5.288786934748507
 31
0.0
  0
LINE
  5
1F3
330
1BD
100
AcDbEntity
  8
5
100
AcDbLine
 10
-3.81987552743106
 20
5.288786934748507
 30
0.0
 11
-3.840720256880027
 21
5.308469012926966
 31
0.0
  0
LINE
  5
1F4
330
1BD
100
AcDbEntity
  8
5
100
AcDbLine
 10
-3.799020256880035
 20
5.308469012926966
 30
0.0
 11
-3.81986498632901
 21
5.288786934748507
 31
0.0
  0
LINE
  5
1F5
330
1BD
100
AcDbEntity
  8
5
100
AcDbLine
 10
-3.569675527431053
 20
5.188416018424497
 30
0.0
 11
-3.569675527431053
 21
5.288786934748507
 31
0.0
  0
LINE
  5
1F6
330
1BD
100
AcDbEntity
  8
0
 62
     0
100
AcDbLine
 10
-3.569675527431053
 20
5.225515277444847
 30
0.0
 11
-3.642717511265184
 21
5.298557261278979
 31
0.0
  0
LINE
  5
1F7
330
1BD
100
AcDbEntity
  8
0
 62
     0
100
AcDbLine
 10
-3.569675527431053
 20
5.243192946974511
 30
0.0
 11
-3.633625104036328
 21
5.307142523579784
 31
0.0
  0
LINE
  5
1F8
330
1BD
100
AcDbEntity
  8
0
 62
     0
100
AcDbLine
 10
-3.569675527431053
 20
5.260870616504174
 30
0.0
 11
-3.604280850977739
 21
5.295475940050863
 31
0.0
  0
LINE
  5
1F9
330
1BD
100
AcDbEntity
  8
0
 62
     0
100
AcDbLine
 10
-3.569675527431053
 20
5.278548286033839
 30
0.0
 11
-3.595188443748883
 21
5.304061202351668
 31
0.0
  0
LINE
  5
1FA
330
1BD
100
AcDbEntity
  8
0
 62
     0
100
AcDbLine
 10
-3.673997624648011
 20
5.188416018424497
 30
0.0
 11
-3.776212306585231
 21
5.290630700361711
 31
0.0
  0
LINE
  5
1FB
330
1BD
100
AcDbEntity
  8
0
 62
     0
100
AcDbLine
 10
-3.65631995511835
 20
5.188416018424497
 30
0.0
 11
-3.767119899356368
 21
5.299215962662518
 31
0.0
  0
LINE
  5
1FC
330
1BD
100
AcDbEntity
  8
0
 62
     0
100
AcDbLine
 10
-3.638642285588682
 20
5.188416018424497
 30
0.0
 11
-3.758027492127512
 21
5.307801224963323
 31
0.0
  0
LINE
  5
1FD
330
1BD
100
AcDbEntity
  8
0
 62
     0
100
AcDbLine
 10
-3.620964616059021
 20
5.188416018424497
 30
0.0
 11
-3.72868323906893
 21
5.296134641434402
 31
0.0
  0
LINE
  5
1FE
330
1BD
100
AcDbEntity
  8
0
 62
     0
100
AcDbLine
 10
-3.60328694652936
 20
5.188416018424497
 30
0.0
 11
-3.719590831840067
 21
5.304719903735207
 31
0.0
  0
LINE
  5
1FF
330
1BD
100
AcDbEntity
  8
0
 62
     0
100
AcDbLine
 10
-3.585609276999692
 20
5.188416018424497
 30
0.0
 11
-3.690246578781485
 21
5.293053320206288
 31
0.0
  0
LINE
  5
200
330
1BD
100
AcDbEntity
  8
0
 62
     0
100
AcDbLine
 10
-3.569675527431053
 20
5.190159938385519
 30
0.0
 11
-3.681154171552629
 21
5.301638582507093
 31
0.0
  0
LINE
  5
201
330
1BD
100
AcDbEntity
  8
0
 62
     0
100
AcDbLine
 10
-3.569675527431053
 20
5.207837607915184
 30
0.0
 11
-3.651809918494047
 21
5.289971998978174
 31
0.0
  0
LINE
  5
202
330
1BD
100
AcDbEntity
  8
5
100
AcDbLine
 10
-3.569675527431053
 20
5.188416018424497
 30
0.0
 11
-3.764063546942781
 21
5.188416018424497
 31
0.0
  0
LINE
  5
203
330
1BD
100
AcDbEntity
  8
5
100
AcDbLine
 10
-3.7342876288553
 20
5.120056985403987
 30
0.0
 11
-3.7342876288553
 21
5.081818992145358
 31
0.0
  0
LINE
  5
204
330
1BD
100
AcDbEntity
  8
0
 62
     0
100
AcDbLine
 10
-3.7342876288553
 20
5.107284666394475
 30
0.0
 11
-3.74363653436769
 21
5.116633571906861
 31
0.0
  0
LINE
  5
205
330
1BD
100
AcDbEntity
  8
0
 62
     0
100
AcDbLine
 10
-3.7342876288553
 20
5.089606996864812
 30
0.0
 11
-3.756575990545451
 21
5.111895358554965
 31
0.0
  0
LINE
  5
206
330
1BD
100
AcDbEntity
  8
0
 62
     0
100
AcDbLine
 10
-3.741670226541147
 20
5.079311925020995
 30
0.0
 11
-3.76951544672322
 21
5.107157145203068
 31
0.0
  0
LINE
  5
207
330
1BD
100
AcDbEntity
  8
0
 62
     0
100
AcDbLine
 10
-3.754866540538175
 20
5.074830569488357
 30
0.0
 11
-3.782454902900989
 21
5.102418931851172
 31
0.0
  0
LINE
  5
208
330
1BD
100
AcDbEntity
  8
5
100
AcDbLine
 10
-3.611375527431059
 20
5.288786934748507
 30
0.0
 11
-3.632220256880033
 21
5.308469012926966
 31
0.0
  0
LINE
  5
209
330
1BD
100
AcDbEntity
  8
5
100
AcDbLine
 10
-3.75732025688003
 20
5.308469012926966
 30
0.0
 11
-3.778164986329011
 21
5.288786934748507
 31
0.0
  0
LINE
  5
20A
330
1BD
100
AcDbEntity
  8
5
100
AcDbLine
 10
-3.736475527431055
 20
5.288786934748507
 30
0.0
 11
-3.75732025688003
 21
5.308469012926966
 31
0.0
  0
LINE
  5
20B
330
1BD
100
AcDbEntity
  8
5
100
AcDbLine
 10
-3.715620256880031
 20
5.308469012926966
 30
0.0
 11
-3.736464986329005
 21
5.288786934748507
 31
0.0
  0
LINE
  5
20C
330
1BD
100
AcDbEntity
  8
5
100
AcDbLine
 10
-3.694775527431056
 20
5.288786934748507
 30
0.0
 11
-3.715620256880031
 21
5.308469012926966
 31
0.0
  0
LINE
  5
20D
330
1BD
100
AcDbEntity
  8
5
100
AcDbLine
 10
-3.673920256880032
 20
5.308469012926966
 30
0.0
 11
-3.694764986329007
 21
5.288786934748507
 31
0.0
  0
LINE
  5
20E
330
1BD
100
AcDbEntity
  8
5
100
AcDbLine
 10
-3.653075527431051
 20
5.288786934748507
 30
0.0
 11
-3.673920256880032
 21
5.308469012926966
 31
0.0
  0
LINE
  5
20F
330
1BD
100
AcDbEntity
  8
5
100
AcDbLine
 10
-3.632220256880033
 20
5.308469012926966
 30
0.0
 11
-3.653064986329008
 21
5.288786934748507
 31
0.0
  0
LINE
  5
210
330
1BD
100
AcDbEntity
  8
5
100
AcDbLine
 10
-3.590520256880035
 20
5.308469012926966
 30
0.0
 11
-3.611364986329009
 21
5.288786934748507
 31
0.0
  0
LINE
  5
211
330
1BD
100
AcDbEntity
  8
5
100
AcDbLine
 10
-3.569675527431053
 20
5.288786934748507
 30
0.0
 11
-3.590520256880035
 21
5.308469012926966
 31
0.0
  0
LINE
  5
212
330
1BD
100
AcDbEntity
  8
5
100
AcDbLine
 10
-3.590520256880035
 20
5.308469012926966
 30
0.0
 11
-3.611364986329009
 21
5.288786934748507
 31
0.0
  0
LINE
  5
213
330
1BD
100
AcDbEntity
  8
5
100
AcDbLine
 10
-3.569675527431053
 20
5.288786934748507
 30
0.0
 11
-3.590520256880035
 21
5.308469012926966
 31
0.0
  0
LINE
  5
214
330
1BD
100
AcDbEntity
  8
5
100
AcDbLine
 10
-3.590520256880035
 20
5.308469012926966
 30
0.0
 11
-3.611364986329009
 21
5.288786934748507
 31
0.0
  0
LINE
  5
215
330
1BD
100
AcDbEntity
  8
5
100
AcDbLine
 10
-3.569675527431053
 20
5.288786934748507
 30
0.0
 11
-3.590520256880035
 21
5.308469012926966
 31
0.0
  0
LINE
  5
216
330
1BD
100
AcDbEntity
  8
5
100
AcDbLine
 10
-3.590520256880035
 20
5.308469012926966
 30
0.0
 11
-3.611364986329009
 21
5.288786934748507
 31
0.0
  0
LINE
  5
217
330
1BD
100
AcDbEntity
  8
5
100
AcDbLine
 10
-3.569675527431053
 20
5.288786934748507
 30
0.0
 11
-3.590520256880035
 21
5.308469012926966
 31
0.0
  0
LINE
  5
218
330
1BD
100
AcDbEntity
  8
5
100
AcDbLine
 10
-3.590520256880035
 20
5.308469012926966
 30
0.0
 11
-3.611364986329009
 21
5.288786934748507
 31
0.0
  0
LINE
  5
219
330
1BD
100
AcDbEntity
  8
5
100
AcDbLine
 10
-3.569675527431053
 20
5.288786934748507
 30
0.0
 11
-3.590520256880035
 21
5.308469012926966
 31
0.0
  0
LINE
  5
21A
330
1BD
100
AcDbEntity
  8
5
100
AcDbLine
 10
-3.590520256880035
 20
5.308469012926966
 30
0.0
 11
-3.611364986329009
 21
5.288786934748507
 31
0.0
  0
LINE
  5
21B
330
1BD
100
AcDbEntity
  8
5
100
AcDbLine
 10
-3.569675527431053
 20
5.288786934748507
 30
0.0
 11
-3.590520256880035
 21
5.308469012926966
 31
0.0
  0
LINE
  5
21C
330
1BD
100
AcDbEntity
  8
5
100
AcDbLine
 10
-3.590520256880035
 20
5.308469012926966
 30
0.0
 11
-3.611364986329009
 21
5.288786934748507
 31
0.0
  0
LINE
  5
21D
330
1BD
100
AcDbEntity
  8
5
100
AcDbLine
 10
-3.569675527431053
 20
5.288786934748507
 30
0.0
 11
-3.590520256880035
 21
5.308469012926966
 31
0.0
  0
LINE
  5
21E
330
1BD
100
AcDbEntity
  8
5
100
AcDbLine
 10
-3.590520256880035
 20
5.308469012926966
 30
0.0
 11
-3.611364986329009
 21
5.288786934748507
 31
0.0
  0
LINE
  5
21F
330
1BD
100
AcDbEntity
  8
5
100
AcDbLine
 10
-3.569675527431053
 20
5.288786934748507
 30
0.0
 11
-3.590520256880035
 21
5.308469012926966
 31
0.0
  0
LINE
  5
220
330
1BD
100
AcDbEntity
  8
5
100
AcDbLine
 10
-3.590520256880035
 20
5.308469012926966
 30
0.0
 11
-3.611364986329009
 21
5.288786934748507
 31
0.0
  0
LINE
  5
221
330
1BD
100
AcDbEntity
  8
5
100
AcDbLine
 10
-3.569675527431053
 20
5.288786934748507
 30
0.0
 11
-3.590520256880035
 21
5.308469012926966
 31
0.0
  0
LINE
  5
222
330
1BD
100
AcDbEntity
  8
5
100
AcDbLine
 10
-3.590520256880035
 20
5.308469012926966
 30
0.0
 11
-3.611364986329009
 21
5.288786934748507
 31
0.0
  0
LINE
  5
223
330
1BD
100
AcDbEntity
  8
5
100
AcDbLine
 10
-3.569675527431053
 20
5.288786934748507
 30
0.0
 11
-3.590520256880035
 21
5.308469012926966
 31
0.0
  0
LINE
  5
224
330
1BD
100
AcDbEntity
  8
5
100
AcDbLine
 10
-3.590520256880035
 20
5.308469012926966
 30
0.0
 11
-3.611364986329009
 21
5.288786934748507
 31
0.0
  0
LINE
  5
225
330
1BD
100
AcDbEntity
  8
5
100
AcDbLine
 10
-3.569675527431053
 20
5.288786934748507
 30
0.0
 11
-3.590520256880035
 21
5.308469012926966
 31
0.0
  0
LINE
  5
226
330
1BD
100
AcDbEntity
  8
5
100
AcDbLine
 10
-3.590520256880035
 20
5.308469012926966
 30
0.0
 11
-3.611364986329009
 21
5.288786934748507
 31
0.0
  0
LINE
  5
227
330
1BD
100
AcDbEntity
  8
5
100
AcDbLine
 10
-3.569675527431053
 20
5.288786934748507
 30
0.0
 11
-3.590520256880035
 21
5.308469012926966
 31
0.0
  0
ENDBLK
  5
228
330
1BD
100
AcDbEntity
  8
0
100
AcDbBlockEnd
  0
BLOCK
  5
42
330
41
100
AcDbEntity
  8
5
100
AcDbBlockBegin
  2
10-2
 70
     0
 10
0.0
 20
0.0
 30
0.0
  3
10-2
  1

  0
LINE
  5
43
330
41
100
AcDbEntity
  8
0
100
AcDbLine
 10
-0.0993865681774908
 20
-1.74544415217491
 30
0.0
 11
0.0990878887811429
 21
-1.709755047174977
 31
0.0
  0
LINE
  5
44
330
41
100
AcDbEntity
  8
0
100
AcDbLine
 10
-0.0624760390166728
 20
-1.265568508878473
 30
0.0
 11
-0.0994593600000009
 21
-1.244216178553221
 31
0.0
  0
LINE
  5
45
330
41
100
AcDbEntity
  8
0
100
AcDbLine
 10
-0.0624760390166745
 20
-1.295050523487873
 30
0.0
 11
-0.0624760390166728
 21
-1.265568508878471
 31
0.0
  0
LINE
  5
46
330
41
100
AcDbEntity
  8
0
100
AcDbLine
 10
0.062476039016671
 20
-1.230051846508419
 30
0.0
 11
-0.0624760390166728
 21
-1.265568508878473
 31
0.0
  0
LINE
  5
47
330
41
100
AcDbEntity
  8
0
100
AcDbLine
 10
0.062476039016671
 20
-1.229475171248521
 30
0.0
 11
0.062476039016671
 21
-1.258957185857923
 31
0.0
  0
LINE
  5
48
330
41
100
AcDbEntity
  8
0
100
AcDbLine
 10
0.062476039016671
 20
-1.258957185857922
 30
0.0
 11
-0.0624760390166745
 21
-1.294473848227973
 31
0.0
  0
LINE
  5
49
330
41
100
AcDbEntity
  8
0
100
AcDbLine
 10
0.062476039016671
 20
-1.258957185857922
 30
0.0
 11
0.0994593599999991
 21
-1.280309516183171
 31
0.0
  0
LINE
  5
4A
330
41
100
AcDbEntity
  8
0
100
AcDbLine
 10
0.0994593599999991
 20
-1.495139516183175
 30
0.0
 11
-0.0994593600000009
 21
-1.530656178553227
 31
0.0
  0
LINE
  5
4B
330
41
100
AcDbEntity
  8
0
100
AcDbLine
 10
-0.0994593600000009
 20
-1.530656178553227
 30
0.0
 11
-0.0624760390166728
 21
-1.509303848227977
 31
0.0
  0
LINE
  5
4C
330
41
100
AcDbEntity
  8
0
100
AcDbLine
 10
-0.0624760390166745
 20
-1.509880523487877
 30
0.0
 11
-0.0624760390166728
 21
-1.480398508878475
 31
0.0
  0
LINE
  5
4D
330
41
100
AcDbEntity
  8
0
100
AcDbLine
 10
0.062476039016671
 20
-1.444881846508424
 30
0.0
 11
-0.0624760390166728
 21
-1.480398508878477
 31
0.0
  0
LINE
  5
4E
330
41
100
AcDbEntity
  8
0
100
AcDbLine
 10
-0.0624760390166728
 20
-1.480398508878477
 30
0.0
 11
-0.0994593600000009
 21
-1.459046178553225
 31
0.0
  0
LINE
  5
4F
330
41
100
AcDbEntity
  8
0
100
AcDbLine
 10
0.062476039016671
 20
-1.473787185857925
 30
0.0
 11
-0.0624760390166745
 21
-1.509303848227977
 31
0.0
  0
LINE
  5
50
330
41
100
AcDbEntity
  8
0
100
AcDbLine
 10
0.062476039016671
 20
-1.444305171248525
 30
0.0
 11
0.062476039016671
 21
-1.473787185857927
 31
0.0
  0
LINE
  5
51
330
41
100
AcDbEntity
  8
0
100
AcDbLine
 10
0.062476039016671
 20
-1.473787185857925
 30
0.0
 11
0.0994593599999991
 21
-1.495139516183175
 31
0.0
  0
LINE
  5
52
330
41
100
AcDbEntity
  8
0
100
AcDbLine
 10
0.0994593599999991
 20
-1.495139516183175
 30
0.0
 11
0.062476039016671
 21
-1.516491846508425
 31
0.0
  0
LINE
  5
53
330
41
100
AcDbEntity
  8
0
100
AcDbLine
 10
0.0994593599999991
 20
-1.423529516183174
 30
0.0
 11
-0.0994593600000009
 21
-1.459046178553225
 31
0.0
  0
LINE
  5
54
330
41
100
AcDbEntity
  8
0
100
AcDbLine
 10
-0.0994593600000009
 20
-1.459046178553225
 30
0.0
 11
-0.0624760390166728
 21
-1.437693848227975
 31
0.0
  0
LINE
  5
55
330
41
100
AcDbEntity
  8
0
100
AcDbLine
 10
-0.0624760390166745
 20
-1.438270523487875
 30
0.0
 11
-0.0624760390166728
 21
-1.408788508878474
 31
0.0
  0
LINE
  5
56
330
41
100
AcDbEntity
  8
0
100
AcDbLine
 10
0.062476039016671
 20
-1.373271846508422
 30
0.0
 11
-0.0624760390166728
 21
-1.408788508878476
 31
0.0
  0
LINE
  5
57
330
41
100
AcDbEntity
  8
0
100
AcDbLine
 10
-0.0624760390166728
 20
-1.408788508878476
 30
0.0
 11
-0.0994593600000009
 21
-1.387436178553224
 31
0.0
  0
LINE
  5
58
330
41
100
AcDbEntity
  8
0
100
AcDbLine
 10
0.062476039016671
 20
-1.402177185857924
 30
0.0
 11
-0.0624760390166745
 21
-1.437693848227975
 31
0.0
  0
LINE
  5
59
330
41
100
AcDbEntity
  8
0
100
AcDbLine
 10
0.062476039016671
 20
-1.372695171248524
 30
0.0
 11
0.062476039016671
 21
-1.402177185857925
 31
0.0
  0
LINE
  5
5A
330
41
100
AcDbEntity
  8
0
100
AcDbLine
 10
0.062476039016671
 20
-1.402177185857924
 30
0.0
 11
0.0994593599999991
 21
-1.423529516183174
 31
0.0
  0
LINE
  5
5B
330
41
100
AcDbEntity
  8
0
100
AcDbLine
 10
0.0994593599999991
 20
-1.423529516183174
 30
0.0
 11
0.062476039016671
 21
-1.444881846508424
 31
0.0
  0
LINE
  5
5C
330
41
100
AcDbEntity
  8
0
100
AcDbLine
 10
0.0994593599999991
 20
-1.351919516183172
 30
0.0
 11
-0.0994593600000009
 21
-1.387436178553224
 31
0.0
  0
LINE
  5
5D
330
41
100
AcDbEntity
  8
0
100
AcDbLine
 10
-0.0994593600000009
 20
-1.387436178553224
 30
0.0
 11
-0.0624760390166728
 21
-1.366083848227974
 31
0.0
  0
LINE
  5
5E
330
41
100
AcDbEntity
  8
0
100
AcDbLine
 10
-0.0624760390166745
 20
-1.366660523487874
 30
0.0
 11
-0.0624760390166728
 21
-1.337178508878472
 31
0.0
  0
LINE
  5
5F
330
41
100
AcDbEntity
  8
0
100
AcDbLine
 10
0.062476039016671
 20
-1.301661846508421
 30
0.0
 11
-0.0624760390166728
 21
-1.337178508878474
 31
0.0
  0
LINE
  5
60
330
41
100
AcDbEntity
  8
0
100
AcDbLine
 10
-0.0624760390166728
 20
-1.337178508878474
 30
0.0
 11
-0.0994593600000009
 21
-1.315826178553222
 31
0.0
  0
LINE
  5
61
330
41
100
AcDbEntity
  8
0
100
AcDbLine
 10
0.062476039016671
 20
-1.330567185857922
 30
0.0
 11
-0.0624760390166745
 21
-1.366083848227974
 31
0.0
  0
LINE
  5
62
330
41
100
AcDbEntity
  8
0
100
AcDbLine
 10
0.062476039016671
 20
-1.301085171248522
 30
0.0
 11
0.062476039016671
 21
-1.330567185857925
 31
0.0
  0
LINE
  5
63
330
41
100
AcDbEntity
  8
0
100
AcDbLine
 10
0.062476039016671
 20
-1.330567185857922
 30
0.0
 11
0.0994593599999991
 21
-1.351919516183172
 31
0.0
  0
LINE
  5
64
330
41
100
AcDbEntity
  8
0
100
AcDbLine
 10
0.0994593599999991
 20
-1.351919516183172
 30
0.0
 11
0.062476039016671
 21
-1.373271846508422
 31
0.0
  0
LINE
  5
65
330
41
100
AcDbEntity
  8
0
100
AcDbLine
 10
0.0994593599999991
 20
-1.280309516183171
 30
0.0
 11
-0.0994593600000009
 21
-1.315826178553222
 31
0.0
  0
LINE
  5
66
330
41
100
AcDbEntity
  8
0
100
AcDbLine
 10
-0.0994593600000009
 20
-1.315826178553222
 30
0.0
 11
-0.0624760390166728
 21
-1.294473848227973
 31
0.0
  0
LINE
  5
67
330
41
100
AcDbEntity
  8
0
100
AcDbLine
 10
0.0994593599999991
 20
-1.280309516183171
 30
0.0
 11
0.062476039016671
 21
-1.301661846508421
 31
0.0
  0
ARC
  5
68
330
41
100
AcDbEntity
  8
0
100
AcDbCircle
 10
-0.000433840223244
 20
-1.886016649306523
 30
0.0
 40
0.03125
100
AcDbArc
 50
202.499999975583
 51
337.500000024416
  0
LINE
  5
69
330
41
100
AcDbEntity
  8
0
100
AcDbLine
 10
-0.3039403194853296
 20
0.046875
 30
0.0
 11
0.303509713563022
 21
0.046875
 31
0.0
  0
LINE
  5
6A
330
41
100
AcDbEntity
  8
0
100
AcDbLine
 10
-0.3039403194853296
 20
0.03125
 30
0.0
 11
0.303509713563022
 21
0.03125
 31
0.0
  0
LINE
  5
6B
330
41
100
AcDbEntity
  8
0
100
AcDbLine
 10
-0.3039403194853296
 20
0.015625
 30
0.0
 11
0.303509713563022
 21
0.015625
 31
0.0
  0
LINE
  5
6C
330
41
100
AcDbEntity
  8
0
100
AcDbLine
 10
-0.3039403194853296
 20
0.0
 30
0.0
 11
0.303509713563022
 21
0.0
 31
0.0
  0
LINE
  5
6D
330
41
100
AcDbEntity
  8
0
100
AcDbLine
 10
-0.3039403194853296
 20
0.0625
 30
0.0
 11
0.303509713563022
 21
0.0625
 31
0.0
  0
LINE
  5
6E
330
41
100
AcDbEntity
  8
0
100
AcDbLine
 10
0.0497083939686434
 20
-1.830307341021394
 30
0.0
 11
0.0657718628324613
 21
-1.846781384353356
 31
0.0
  0
LINE
  5
6F
330
41
100
AcDbEntity
  8
0
100
AcDbLine
 10
0.0422488686893967
 20
-1.86463165983539
 30
0.0
 11
0.0657718628324613
 21
-1.846781384353356
 31
0.0
  0
LINE
  5
70
330
41
100
AcDbEntity
  8
0
100
AcDbLine
 10
0.0422488686893967
 20
-1.86463165983539
 30
0.0
 11
0.0284373951728299
 21
-1.897975506555629
 31
0.0
  0
LINE
  5
71
330
41
100
AcDbEntity
  8
0
100
AcDbLine
 10
0.0621773596203248
 20
-1.802675351121907
 30
0.0
 11
0.0497083939686434
 21
-1.830307341021394
 31
0.0
  0
LINE
  5
72
330
41
100
AcDbEntity
  8
0
100
AcDbLine
 10
-0.0337537345876449
 20
-1.887235493726974
 30
0.0
 11
-0.0293050756193178
 21
-1.897975506555629
 31
0.0
  0
LINE
  5
73
330
41
100
AcDbEntity
  8
0
100
AcDbLine
 10
-0.0712623513852755
 20
-1.87236065280221
 30
0.0
 11
-0.0538482121973552
 21
-1.859742505888399
 31
0.0
  0
LINE
  5
74
330
41
100
AcDbEntity
  8
0
100
AcDbLine
 10
-0.0415053204264329
 20
-1.889540882636582
 30
0.0
 11
-0.0712623513852755
 21
-1.87236065280221
 31
0.0
  0
LINE
  5
75
330
41
100
AcDbEntity
  8
0
100
AcDbLine
 10
-0.0415053204264329
 20
-1.889540882636582
 30
0.0
 11
0.0422488686893967
 21
-1.86463165983539
 31
0.0
  0
LINE
  5
76
330
41
100
AcDbEntity
  8
0
100
AcDbLine
 10
-0.0712623513852755
 20
-1.87236065280221
 30
0.0
 11
0.0657718628324613
 21
-1.846781384353356
 31
0.0
  0
LINE
  5
77
330
41
100
AcDbEntity
  8
0
100
AcDbLine
 10
0.0497083939686434
 20
-1.830307341021394
 30
0.0
 11
-0.0538482121973552
 21
-1.859742505888399
 31
0.0
  0
LINE
  5
78
330
41
100
AcDbEntity
  8
0
100
AcDbLine
 10
-0.062774718413019
 20
-1.83819201349196
 30
0.0
 11
-0.0538482121973552
 21
-1.859742505888399
 31
0.0
  0
LINE
  5
79
330
41
100
AcDbEntity
  8
0
100
AcDbLine
 10
0.0994690188352117
 20
-0.0629377916114784
 30
0.0
 11
0.0994690188352117
 21
0.0000024174339757
 31
0.0
  0
LINE
  5
7A
330
41
100
AcDbEntity
  8
2
100
AcDbLine
 10
0.0
 20
-1.69306689390373
 30
0.0
 11
0.0
 21
0.3668767342373318
 31
0.0
  0
CIRCLE
  5
7D
330
41
100
AcDbEntity
  8
2
100
AcDbCircle
 10
0.0
 20
0.0000000000000053
 30
0.0
 40
0.053398346037536
  0
LINE
  5
7E
330
41
100
AcDbEntity
  8
0
100
AcDbLine
 10
-0.0994593600000009
 20
-0.0984561785532012
 30
0.0
 11
-0.0994593600000009
 21
0.0
 31
0.0
  0
LINE
  5
7F
330
41
100
AcDbEntity
  8
0
100
AcDbLine
 10
0.0994690188352117
 20
-0.062933939652039
 30
0.0
 11
0.062476039016671
 21
-0.084291846508398
 31
0.0
  0
LINE
  5
80
330
41
100
AcDbEntity
  8
0
100
AcDbLine
 10
0.0994690188352117
 20
-0.0629377916114784
 30
0.0
 11
-0.0994593600000009
 21
-0.0984561785532012
 31
0.0
  0
LINE
  5
81
330
41
100
AcDbEntity
  8
0
100
AcDbLine
 10
0.0994593599999991
 20
-0.1345495161831494
 30
0.0
 11
0.062476039016671
 21
-0.1559018465083994
 31
0.0
  0
LINE
  5
82
330
41
100
AcDbEntity
  8
0
100
AcDbLine
 10
0.062476039016671
 20
-0.1131971858579011
 30
0.0
 11
0.0994593599999991
 21
-0.1345495161831494
 31
0.0
  0
LINE
  5
83
330
41
100
AcDbEntity
  8
0
100
AcDbLine
 10
0.062476039016671
 20
-0.0837151712484996
 30
0.0
 11
0.062476039016671
 21
-0.1131971858579028
 31
0.0
  0
LINE
  5
84
330
41
100
AcDbEntity
  8
0
100
AcDbLine
 10
0.062476039016671
 20
-0.1131971858579011
 30
0.0
 11
-0.0624760390166745
 21
-0.1487138482279526
 31
0.0
  0
LINE
  5
85
330
41
100
AcDbEntity
  8
0
100
AcDbLine
 10
-0.0624760390166728
 20
-0.1198085088784513
 30
0.0
 11
-0.0994593600000009
 21
-0.0984561785532012
 31
0.0
  0
LINE
  5
86
330
41
100
AcDbEntity
  8
0
100
AcDbLine
 10
0.062476039016671
 20
-0.084291846508398
 30
0.0
 11
-0.0624760390166728
 21
-0.1198085088784513
 31
0.0
  0
LINE
  5
87
330
41
100
AcDbEntity
  8
0
100
AcDbLine
 10
-0.0624760390166745
 20
-0.149290523487851
 30
0.0
 11
-0.0624760390166728
 21
-0.1198085088784513
 31
0.0
  0
LINE
  5
88
330
41
100
AcDbEntity
  8
0
100
AcDbLine
 10
-0.0994593600000009
 20
-0.1700661785532009
 30
0.0
 11
-0.0624760390166728
 21
-0.1487138482279526
 31
0.0
  0
LINE
  5
89
330
41
100
AcDbEntity
  8
0
100
AcDbLine
 10
0.0994593599999991
 20
-0.1345495161831494
 30
0.0
 11
-0.0994593600000009
 21
-0.1700661785532009
 31
0.0
  0
LINE
  5
8A
330
41
100
AcDbEntity
  8
0
100
AcDbLine
 10
0.0994593599999991
 20
-0.2061595161831509
 30
0.0
 11
0.062476039016671
 21
-0.2275118465084009
 31
0.0
  0
LINE
  5
8B
330
41
100
AcDbEntity
  8
0
100
AcDbLine
 10
0.062476039016671
 20
-0.1848071858579008
 30
0.0
 11
0.0994593599999991
 21
-0.2061595161831509
 31
0.0
  0
LINE
  5
8C
330
41
100
AcDbEntity
  8
0
100
AcDbLine
 10
0.062476039016671
 20
-0.1553251712485011
 30
0.0
 11
0.062476039016671
 21
-0.1848071858579043
 31
0.0
  0
LINE
  5
8D
330
41
100
AcDbEntity
  8
0
100
AcDbLine
 10
0.062476039016671
 20
-0.1848071858579008
 30
0.0
 11
-0.0624760390166745
 21
-0.2203238482279524
 31
0.0
  0
LINE
  5
8E
330
41
100
AcDbEntity
  8
0
100
AcDbLine
 10
-0.0624760390166728
 20
-0.1914185088784528
 30
0.0
 11
-0.0994593600000009
 21
-0.1700661785532009
 31
0.0
  0
LINE
  5
8F
330
41
100
AcDbEntity
  8
0
100
AcDbLine
 10
0.062476039016671
 20
-0.1559018465083994
 30
0.0
 11
-0.0624760390166728
 21
-0.1914185088784528
 31
0.0
  0
LINE
  5
90
330
41
100
AcDbEntity
  8
0
100
AcDbLine
 10
-0.0624760390166745
 20
-0.2209005234878525
 30
0.0
 11
-0.0624760390166728
 21
-0.191418508878451
 31
0.0
  0
LINE
  5
91
330
41
100
AcDbEntity
  8
0
100
AcDbLine
 10
-0.0994593600000009
 20
-0.2416761785532024
 30
0.0
 11
-0.0624760390166728
 21
-0.2203238482279524
 31
0.0
  0
LINE
  5
92
330
41
100
AcDbEntity
  8
0
100
AcDbLine
 10
0.0994593599999991
 20
-0.2061595161831509
 30
0.0
 11
-0.0994593600000009
 21
-0.2416761785532024
 31
0.0
  0
LINE
  5
93
330
41
100
AcDbEntity
  8
0
100
AcDbLine
 10
0.0994593599999991
 20
-0.2777695161831524
 30
0.0
 11
0.062476039016671
 21
-0.2991218465084024
 31
0.0
  0
LINE
  5
94
330
41
100
AcDbEntity
  8
0
100
AcDbLine
 10
0.062476039016671
 20
-0.2564171858579023
 30
0.0
 11
0.0994593599999991
 21
-0.2777695161831524
 31
0.0
  0
LINE
  5
95
330
41
100
AcDbEntity
  8
0
100
AcDbLine
 10
0.062476039016671
 20
-0.2269351712485026
 30
0.0
 11
0.062476039016671
 21
-0.2564171858579041
 31
0.0
  0
LINE
  5
96
330
41
100
AcDbEntity
  8
0
100
AcDbLine
 10
0.062476039016671
 20
-0.2564171858579023
 30
0.0
 11
-0.0624760390166745
 21
-0.2919338482279539
 31
0.0
  0
LINE
  5
97
330
41
100
AcDbEntity
  8
0
100
AcDbLine
 10
-0.0624760390166728
 20
-0.2630285088784543
 30
0.0
 11
-0.0994593600000009
 21
-0.2416761785532024
 31
0.0
  0
LINE
  5
98
330
41
100
AcDbEntity
  8
0
100
AcDbLine
 10
0.062476039016671
 20
-0.2275118465084009
 30
0.0
 11
-0.0624760390166728
 21
-0.2630285088784543
 31
0.0
  0
LINE
  5
99
330
41
100
AcDbEntity
  8
0
100
AcDbLine
 10
-0.0624760390166745
 20
-0.292510523487854
 30
0.0
 11
-0.0624760390166728
 21
-0.2630285088784525
 31
0.0
  0
LINE
  5
9A
330
41
100
AcDbEntity
  8
0
100
AcDbLine
 10
-0.0994593600000009
 20
-0.3132861785532039
 30
0.0
 11
-0.0624760390166728
 21
-0.2919338482279539
 31
0.0
  0
LINE
  5
9B
330
41
100
AcDbEntity
  8
0
100
AcDbLine
 10
0.0994593599999991
 20
-0.2777695161831524
 30
0.0
 11
-0.0994593600000009
 21
-0.3132861785532039
 31
0.0
  0
LINE
  5
9C
330
41
100
AcDbEntity
  8
0
100
AcDbLine
 10
0.0994593599999991
 20
-0.3493795161831539
 30
0.0
 11
0.062476039016671
 21
-0.370731846508404
 31
0.0
  0
LINE
  5
9D
330
41
100
AcDbEntity
  8
0
100
AcDbLine
 10
0.062476039016671
 20
-0.3280271858579038
 30
0.0
 11
0.0994593599999991
 21
-0.3493795161831539
 31
0.0
  0
LINE
  5
9E
330
41
100
AcDbEntity
  8
0
100
AcDbLine
 10
0.062476039016671
 20
-0.2985451712485041
 30
0.0
 11
0.062476039016671
 21
-0.3280271858579056
 31
0.0
  0
LINE
  5
9F
330
41
100
AcDbEntity
  8
0
100
AcDbLine
 10
0.062476039016671
 20
-0.3280271858579038
 30
0.0
 11
-0.0624760390166745
 21
-0.3635438482279554
 31
0.0
  0
LINE
  5
A0
330
41
100
AcDbEntity
  8
0
100
AcDbLine
 10
-0.0624760390166728
 20
-0.3346385088784558
 30
0.0
 11
-0.0994593600000009
 21
-0.3132861785532039
 31
0.0
  0
LINE
  5
A1
330
41
100
AcDbEntity
  8
0
100
AcDbLine
 10
0.062476039016671
 20
-0.2991218465084024
 30
0.0
 11
-0.0624760390166728
 21
-0.3346385088784558
 31
0.0
  0
LINE
  5
A2
330
41
100
AcDbEntity
  8
0
100
AcDbLine
 10
-0.0624760390166745
 20
-0.3641205234878555
 30
0.0
 11
-0.0624760390166728
 21
-0.334638508878454
 31
0.0
  0
LINE
  5
A3
330
41
100
AcDbEntity
  8
0
100
AcDbLine
 10
-0.0994593600000009
 20
-0.3848961785532054
 30
0.0
 11
-0.0624760390166728
 21
-0.3635438482279554
 31
0.0
  0
LINE
  5
A4
330
41
100
AcDbEntity
  8
0
100
AcDbLine
 10
0.0994593599999991
 20
-0.3493795161831539
 30
0.0
 11
-0.0994593600000009
 21
-0.3848961785532054
 31
0.0
  0
LINE
  5
A5
330
41
100
AcDbEntity
  8
0
100
AcDbLine
 10
0.0994593599999991
 20
-0.4209895161831554
 30
0.0
 11
0.062476039016671
 21
-0.4423418465084055
 31
0.0
  0
LINE
  5
A6
330
41
100
AcDbEntity
  8
0
100
AcDbLine
 10
0.062476039016671
 20
-0.3996371858579053
 30
0.0
 11
0.0994593599999991
 21
-0.4209895161831554
 31
0.0
  0
LINE
  5
A7
330
41
100
AcDbEntity
  8
0
100
AcDbLine
 10
0.062476039016671
 20
-0.3701551712485056
 30
0.0
 11
0.062476039016671
 21
-0.3996371858579071
 31
0.0
  0
LINE
  5
A8
330
41
100
AcDbEntity
  8
0
100
AcDbLine
 10
0.062476039016671
 20
-0.3996371858579053
 30
0.0
 11
-0.0624760390166745
 21
-0.4351538482279569
 31
0.0
  0
LINE
  5
A9
330
41
100
AcDbEntity
  8
0
100
AcDbLine
 10
-0.0624760390166728
 20
-0.4062485088784574
 30
0.0
 11
-0.0994593600000009
 21
-0.3848961785532054
 31
0.0
  0
LINE
  5
AA
330
41
100
AcDbEntity
  8
0
100
AcDbLine
 10
0.062476039016671
 20
-0.370731846508404
 30
0.0
 11
-0.0624760390166728
 21
-0.4062485088784574
 31
0.0
  0
LINE
  5
AB
330
41
100
AcDbEntity
  8
0
100
AcDbLine
 10
-0.0624760390166745
 20
-0.4357305234878571
 30
0.0
 11
-0.0624760390166728
 21
-0.4062485088784556
 31
0.0
  0
LINE
  5
AC
330
41
100
AcDbEntity
  8
0
100
AcDbLine
 10
-0.0994593600000009
 20
-0.456506178553207
 30
0.0
 11
-0.0624760390166728
 21
-0.4351538482279569
 31
0.0
  0
LINE
  5
AD
330
41
100
AcDbEntity
  8
0
100
AcDbLine
 10
0.0994593599999991
 20
-0.4209895161831554
 30
0.0
 11
-0.0994593600000009
 21
-0.456506178553207
 31
0.0
  0
LINE
  5
AE
330
41
100
AcDbEntity
  8
0
100
AcDbLine
 10
0.0994593599999991
 20
-0.4925995161831569
 30
0.0
 11
0.062476039016671
 21
-0.513951846508407
 31
0.0
  0
LINE
  5
AF
330
41
100
AcDbEntity
  8
0
100
AcDbLine
 10
0.062476039016671
 20
-0.4712471858579069
 30
0.0
 11
0.0994593599999991
 21
-0.4925995161831569
 31
0.0
  0
LINE
  5
B0
330
41
100
AcDbEntity
  8
0
100
AcDbLine
 10
0.062476039016671
 20
-0.4417651712485072
 30
0.0
 11
0.062476039016671
 21
-0.4712471858579086
 31
0.0
  0
LINE
  5
B1
330
41
100
AcDbEntity
  8
0
100
AcDbLine
 10
0.062476039016671
 20
-0.4712471858579069
 30
0.0
 11
-0.0624760390166745
 21
-0.5067638482279584
 31
0.0
  0
LINE
  5
B2
330
41
100
AcDbEntity
  8
0
100
AcDbLine
 10
-0.0624760390166728
 20
-0.4778585088784589
 30
0.0
 11
-0.0994593600000009
 21
-0.456506178553207
 31
0.0
  0
LINE
  5
B3
330
41
100
AcDbEntity
  8
0
100
AcDbLine
 10
0.062476039016671
 20
-0.4423418465084055
 30
0.0
 11
-0.0624760390166728
 21
-0.4778585088784589
 31
0.0
  0
LINE
  5
B4
330
41
100
AcDbEntity
  8
0
100
AcDbLine
 10
-0.0624760390166745
 20
-0.5073405234878586
 30
0.0
 11
-0.0624760390166728
 21
-0.4778585088784571
 31
0.0
  0
LINE
  5
B5
330
41
100
AcDbEntity
  8
0
100
AcDbLine
 10
-0.0994593600000009
 20
-0.5281161785532085
 30
0.0
 11
-0.0624760390166728
 21
-0.5067638482279584
 31
0.0
  0
LINE
  5
B6
330
41
100
AcDbEntity
  8
0
100
AcDbLine
 10
0.0994593599999991
 20
-0.4925995161831569
 30
0.0
 11
-0.0994593600000009
 21
-0.5281161785532085
 31
0.0
  0
LINE
  5
B7
330
41
100
AcDbEntity
  8
0
100
AcDbLine
 10
0.0994593599999991
 20
-0.5642095161831576
 30
0.0
 11
0.062476039016671
 21
-0.5855618465084076
 31
0.0
  0
LINE
  5
B8
330
41
100
AcDbEntity
  8
0
100
AcDbLine
 10
0.062476039016671
 20
-0.5428571858579084
 30
0.0
 11
0.0994593599999991
 21
-0.5642095161831576
 31
0.0
  0
LINE
  5
B9
330
41
100
AcDbEntity
  8
0
100
AcDbLine
 10
0.062476039016671
 20
-0.5133751712485087
 30
0.0
 11
0.062476039016671
 21
-0.5428571858579101
 31
0.0
  0
LINE
  5
BA
330
41
100
AcDbEntity
  8
0
100
AcDbLine
 10
0.062476039016671
 20
-0.5428571858579084
 30
0.0
 11
-0.0624760390166745
 21
-0.5783738482279599
 31
0.0
  0
LINE
  5
BB
330
41
100
AcDbEntity
  8
0
100
AcDbLine
 10
-0.0624760390166728
 20
-0.5494685088784604
 30
0.0
 11
-0.0994593600000009
 21
-0.5281161785532085
 31
0.0
  0
LINE
  5
BC
330
41
100
AcDbEntity
  8
0
100
AcDbLine
 10
0.062476039016671
 20
-0.513951846508407
 30
0.0
 11
-0.0624760390166728
 21
-0.5494685088784604
 31
0.0
  0
LINE
  5
BD
330
41
100
AcDbEntity
  8
0
100
AcDbLine
 10
-0.0624760390166745
 20
-0.5789505234878601
 30
0.0
 11
-0.0624760390166728
 21
-0.5494685088784586
 31
0.0
  0
LINE
  5
BE
330
41
100
AcDbEntity
  8
0
100
AcDbLine
 10
-0.0994593600000009
 20
-0.59972617855321
 30
0.0
 11
-0.0624760390166728
 21
-0.5783738482279599
 31
0.0
  0
LINE
  5
BF
330
41
100
AcDbEntity
  8
0
100
AcDbLine
 10
0.0994593599999991
 20
-0.5642095161831576
 30
0.0
 11
-0.0994593600000009
 21
-0.59972617855321
 31
0.0
  0
LINE
  5
C0
330
41
100
AcDbEntity
  8
0
100
AcDbLine
 10
0.0994593599999991
 20
-0.6358195161831591
 30
0.0
 11
0.062476039016671
 21
-0.6571718465084082
 31
0.0
  0
LINE
  5
C1
330
41
100
AcDbEntity
  8
0
100
AcDbLine
 10
0.062476039016671
 20
-0.6144671858579099
 30
0.0
 11
0.0994593599999991
 21
-0.6358195161831591
 31
0.0
  0
LINE
  5
C2
330
41
100
AcDbEntity
  8
0
100
AcDbLine
 10
0.062476039016671
 20
-0.5849851712485102
 30
0.0
 11
0.062476039016671
 21
-0.6144671858579116
 31
0.0
  0
LINE
  5
C3
330
41
100
AcDbEntity
  8
0
100
AcDbLine
 10
0.062476039016671
 20
-0.6144671858579099
 30
0.0
 11
-0.0624760390166745
 21
-0.6499838482279614
 31
0.0
  0
LINE
  5
C4
330
41
100
AcDbEntity
  8
0
100
AcDbLine
 10
-0.0624760390166728
 20
-0.6210785088784619
 30
0.0
 11
-0.0994593600000009
 21
-0.59972617855321
 31
0.0
  0
LINE
  5
C5
330
41
100
AcDbEntity
  8
0
100
AcDbLine
 10
0.062476039016671
 20
-0.5855618465084076
 30
0.0
 11
-0.0624760390166728
 21
-0.6210785088784619
 31
0.0
  0
LINE
  5
C6
330
41
100
AcDbEntity
  8
0
100
AcDbLine
 10
-0.0624760390166745
 20
-0.6505605234878616
 30
0.0
 11
-0.0624760390166728
 21
-0.6210785088784592
 31
0.0
  0
LINE
  5
C7
330
41
100
AcDbEntity
  8
0
100
AcDbLine
 10
-0.0994593600000009
 20
-0.6713361785532106
 30
0.0
 11
-0.0624760390166728
 21
-0.6499838482279614
 31
0.0
  0
LINE
  5
C8
330
41
100
AcDbEntity
  8
0
100
AcDbLine
 10
0.0994593599999991
 20
-0.6358195161831591
 30
0.0
 11
-0.0994593600000009
 21
-0.6713361785532106
 31
0.0
  0
LINE
  5
C9
330
41
100
AcDbEntity
  8
0
100
AcDbLine
 10
0.0994593599999991
 20
-0.7074295161831606
 30
0.0
 11
0.062476039016671
 21
-0.7287818465084098
 31
0.0
  0
LINE
  5
CA
330
41
100
AcDbEntity
  8
0
100
AcDbLine
 10
0.062476039016671
 20
-0.6860771858579105
 30
0.0
 11
0.0994593599999991
 21
-0.7074295161831606
 31
0.0
  0
LINE
  5
CB
330
41
100
AcDbEntity
  8
0
100
AcDbLine
 10
0.062476039016671
 20
-0.6565951712485108
 30
0.0
 11
0.062476039016671
 21
-0.6860771858579131
 31
0.0
  0
LINE
  5
CC
330
41
100
AcDbEntity
  8
0
100
AcDbLine
 10
0.062476039016671
 20
-0.6860771858579105
 30
0.0
 11
-0.0624760390166745
 21
-0.7215938482279629
 31
0.0
  0
LINE
  5
CD
330
41
100
AcDbEntity
  8
0
100
AcDbLine
 10
-0.0624760390166728
 20
-0.6926885088784625
 30
0.0
 11
-0.0994593600000009
 21
-0.6713361785532106
 31
0.0
  0
LINE
  5
CE
330
41
100
AcDbEntity
  8
0
100
AcDbLine
 10
0.062476039016671
 20
-0.6571718465084082
 30
0.0
 11
-0.0624760390166728
 21
-0.6926885088784625
 31
0.0
  0
LINE
  5
CF
330
41
100
AcDbEntity
  8
0
100
AcDbLine
 10
-0.0624760390166745
 20
-0.7221705234878622
 30
0.0
 11
-0.0624760390166728
 21
-0.6926885088784607
 31
0.0
  0
LINE
  5
D0
330
41
100
AcDbEntity
  8
0
100
AcDbLine
 10
-0.0994593600000009
 20
-0.7429461785532121
 30
0.0
 11
-0.0624760390166728
 21
-0.7215938482279629
 31
0.0
  0
LINE
  5
D1
330
41
100
AcDbEntity
  8
0
100
AcDbLine
 10
0.0994593599999991
 20
-0.7074295161831606
 30
0.0
 11
-0.0994593600000009
 21
-0.7429461785532121
 31
0.0
  0
LINE
  5
D2
330
41
100
AcDbEntity
  8
0
100
AcDbLine
 10
0.0994593599999991
 20
-0.7790395161831621
 30
0.0
 11
0.062476039016671
 21
-0.8003918465084112
 31
0.0
  0
LINE
  5
D3
330
41
100
AcDbEntity
  8
0
100
AcDbLine
 10
0.062476039016671
 20
-0.757687185857912
 30
0.0
 11
0.0994593599999991
 21
-0.7790395161831621
 31
0.0
  0
LINE
  5
D4
330
41
100
AcDbEntity
  8
0
100
AcDbLine
 10
0.062476039016671
 20
-0.7282051712485123
 30
0.0
 11
0.062476039016671
 21
-0.7576871858579147
 31
0.0
  0
LINE
  5
D5
330
41
100
AcDbEntity
  8
0
100
AcDbLine
 10
0.062476039016671
 20
-0.757687185857912
 30
0.0
 11
-0.0624760390166745
 21
-0.7932038482279636
 31
0.0
  0
LINE
  5
D6
330
41
100
AcDbEntity
  8
0
100
AcDbLine
 10
-0.0624760390166728
 20
-0.764298508878464
 30
0.0
 11
-0.0994593600000009
 21
-0.7429461785532121
 31
0.0
  0
LINE
  5
D7
330
41
100
AcDbEntity
  8
0
100
AcDbLine
 10
0.062476039016671
 20
-0.7287818465084098
 30
0.0
 11
-0.0624760390166728
 21
-0.764298508878464
 31
0.0
  0
LINE
  5
D8
330
41
100
AcDbEntity
  8
0
100
AcDbLine
 10
-0.0624760390166745
 20
-0.7937805234878637
 30
0.0
 11
-0.0624760390166728
 21
-0.7642985088784613
 31
0.0
  0
LINE
  5
D9
330
41
100
AcDbEntity
  8
0
100
AcDbLine
 10
-0.0994593600000009
 20
-0.8145561785532136
 30
0.0
 11
-0.0624760390166728
 21
-0.7932038482279636
 31
0.0
  0
LINE
  5
DA
330
41
100
AcDbEntity
  8
0
100
AcDbLine
 10
0.0994593599999991
 20
-0.7790395161831621
 30
0.0
 11
-0.0994593600000009
 21
-0.8145561785532136
 31
0.0
  0
LINE
  5
DB
330
41
100
AcDbEntity
  8
0
100
AcDbLine
 10
0.0994593599999991
 20
-0.8506495161831626
 30
0.0
 11
0.062476039016671
 21
-0.8720018465084127
 31
0.0
  0
LINE
  5
DC
330
41
100
AcDbEntity
  8
0
100
AcDbLine
 10
0.062476039016671
 20
-0.8292971858579134
 30
0.0
 11
0.0994593599999991
 21
-0.8506495161831626
 31
0.0
  0
LINE
  5
DD
330
41
100
AcDbEntity
  8
0
100
AcDbLine
 10
0.062476039016671
 20
-0.7998151712485138
 30
0.0
 11
0.062476039016671
 21
-0.8292971858579152
 31
0.0
  0
LINE
  5
DE
330
41
100
AcDbEntity
  8
0
100
AcDbLine
 10
0.062476039016671
 20
-0.8292971858579134
 30
0.0
 11
-0.0624760390166745
 21
-0.864813848227965
 31
0.0
  0
LINE
  5
DF
330
41
100
AcDbEntity
  8
0
100
AcDbLine
 10
-0.0624760390166728
 20
-0.8359085088784654
 30
0.0
 11
-0.0994593600000009
 21
-0.8145561785532136
 31
0.0
  0
LINE
  5
E0
330
41
100
AcDbEntity
  8
0
100
AcDbLine
 10
0.062476039016671
 20
-0.8003918465084112
 30
0.0
 11
-0.0624760390166728
 21
-0.8359085088784654
 31
0.0
  0
LINE
  5
E1
330
41
100
AcDbEntity
  8
0
100
AcDbLine
 10
-0.0624760390166745
 20
-0.8653905234878651
 30
0.0
 11
-0.0624760390166728
 21
-0.8359085088784627
 31
0.0
  0
LINE
  5
E2
330
41
100
AcDbEntity
  8
0
100
AcDbLine
 10
-0.0994593600000009
 20
-0.8861661785532151
 30
0.0
 11
-0.0624760390166728
 21
-0.864813848227965
 31
0.0
  0
LINE
  5
E3
330
41
100
AcDbEntity
  8
0
100
AcDbLine
 10
0.0994593599999991
 20
-0.8506495161831626
 30
0.0
 11
-0.0994593600000009
 21
-0.8861661785532151
 31
0.0
  0
LINE
  5
E4
330
41
100
AcDbEntity
  8
0
100
AcDbLine
 10
0.0994593599999991
 20
-0.922259516183165
 30
0.0
 11
0.062476039016671
 21
-0.9436118465084142
 31
0.0
  0
LINE
  5
E5
330
41
100
AcDbEntity
  8
0
100
AcDbLine
 10
0.062476039016671
 20
-0.9009071858579149
 30
0.0
 11
0.0994593599999991
 21
-0.922259516183165
 31
0.0
  0
LINE
  5
E6
330
41
100
AcDbEntity
  8
0
100
AcDbLine
 10
0.062476039016671
 20
-0.8714251712485143
 30
0.0
 11
0.062476039016671
 21
-0.9009071858579176
 31
0.0
  0
LINE
  5
E7
330
41
100
AcDbEntity
  8
0
100
AcDbLine
 10
0.062476039016671
 20
-0.9009071858579149
 30
0.0
 11
-0.0624760390166745
 21
-0.9364238482279665
 31
0.0
  0
LINE
  5
E8
330
41
100
AcDbEntity
  8
0
100
AcDbLine
 10
-0.0624760390166728
 20
-0.907518508878466
 30
0.0
 11
-0.0994593600000009
 21
-0.8861661785532151
 31
0.0
  0
LINE
  5
E9
330
41
100
AcDbEntity
  8
0
100
AcDbLine
 10
0.062476039016671
 20
-0.8720018465084127
 30
0.0
 11
-0.0624760390166728
 21
-0.907518508878466
 31
0.0
  0
LINE
  5
EA
330
41
100
AcDbEntity
  8
0
100
AcDbLine
 10
-0.0624760390166745
 20
-0.9370005234878666
 30
0.0
 11
-0.0624760390166728
 21
-0.9075185088784643
 31
0.0
  0
LINE
  5
EB
330
41
100
AcDbEntity
  8
0
100
AcDbLine
 10
-0.0994593600000009
 20
-0.9577761785532166
 30
0.0
 11
-0.0624760390166728
 21
-0.9364238482279665
 31
0.0
  0
LINE
  5
EC
330
41
100
AcDbEntity
  8
0
100
AcDbLine
 10
0.0994593599999991
 20
-0.922259516183165
 30
0.0
 11
-0.0994593600000009
 21
-0.9577761785532166
 31
0.0
  0
LINE
  5
ED
330
41
100
AcDbEntity
  8
0
100
AcDbLine
 10
0.0994593599999991
 20
-0.9938695161831656
 30
0.0
 11
0.062476039016671
 21
-1.015221846508415
 31
0.0
  0
LINE
  5
EE
330
41
100
AcDbEntity
  8
0
100
AcDbLine
 10
0.062476039016671
 20
-0.9725171858579164
 30
0.0
 11
0.0994593599999991
 21
-0.9938695161831656
 31
0.0
  0
LINE
  5
EF
330
41
100
AcDbEntity
  8
0
100
AcDbLine
 10
0.062476039016671
 20
-0.9430351712485158
 30
0.0
 11
0.062476039016671
 21
-0.9725171858579182
 31
0.0
  0
LINE
  5
F0
330
41
100
AcDbEntity
  8
0
100
AcDbLine
 10
0.062476039016671
 20
-0.9725171858579164
 30
0.0
 11
-0.0624760390166745
 21
-1.008033848227968
 31
0.0
  0
LINE
  5
F1
330
41
100
AcDbEntity
  8
0
100
AcDbLine
 10
-0.0624760390166728
 20
-0.9791285088784675
 30
0.0
 11
-0.0994593600000009
 21
-0.9577761785532166
 31
0.0
  0
LINE
  5
F2
330
41
100
AcDbEntity
  8
0
100
AcDbLine
 10
0.062476039016671
 20
-0.9436118465084142
 30
0.0
 11
-0.0624760390166728
 21
-0.9791285088784675
 31
0.0
  0
LINE
  5
F3
330
41
100
AcDbEntity
  8
0
100
AcDbLine
 10
-0.0624760390166745
 20
-1.008610523487868
 30
0.0
 11
-0.0624760390166728
 21
-0.9791285088784658
 31
0.0
  0
LINE
  5
F4
330
41
100
AcDbEntity
  8
0
100
AcDbLine
 10
-0.0994593600000009
 20
-1.029386178553217
 30
0.0
 11
-0.0624760390166728
 21
-1.008033848227968
 31
0.0
  0
LINE
  5
F5
330
41
100
AcDbEntity
  8
0
100
AcDbLine
 10
0.0994593599999991
 20
-0.9938695161831656
 30
0.0
 11
-0.0994593600000009
 21
-1.029386178553217
 31
0.0
  0
LINE
  5
F6
330
41
100
AcDbEntity
  8
0
100
AcDbLine
 10
0.0994593599999991
 20
-1.065479516183167
 30
0.0
 11
0.062476039016671
 21
-1.086831846508417
 31
0.0
  0
LINE
  5
F7
330
41
100
AcDbEntity
  8
0
100
AcDbLine
 10
0.062476039016671
 20
-1.044127185857917
 30
0.0
 11
0.0994593599999991
 21
-1.065479516183167
 31
0.0
  0
LINE
  5
F8
330
41
100
AcDbEntity
  8
0
100
AcDbLine
 10
0.062476039016671
 20
-1.014645171248517
 30
0.0
 11
0.062476039016671
 21
-1.044127185857919
 31
0.0
  0
LINE
  5
F9
330
41
100
AcDbEntity
  8
0
100
AcDbLine
 10
0.062476039016671
 20
-1.044127185857917
 30
0.0
 11
-0.0624760390166745
 21
-1.079643848227968
 31
0.0
  0
LINE
  5
FA
330
41
100
AcDbEntity
  8
0
100
AcDbLine
 10
-0.0624760390166728
 20
-1.050738508878469
 30
0.0
 11
-0.0994593600000009
 21
-1.029386178553217
 31
0.0
  0
LINE
  5
FB
330
41
100
AcDbEntity
  8
0
100
AcDbLine
 10
0.062476039016671
 20
-1.015221846508415
 30
0.0
 11
-0.0624760390166728
 21
-1.050738508878469
 31
0.0
  0
LINE
  5
FC
330
41
100
AcDbEntity
  8
0
100
AcDbLine
 10
-0.0624760390166745
 20
-1.080220523487868
 30
0.0
 11
-0.0624760390166728
 21
-1.050738508878467
 31
0.0
  0
LINE
  5
FD
330
41
100
AcDbEntity
  8
0
100
AcDbLine
 10
-0.0994593600000009
 20
-1.100996178553218
 30
0.0
 11
-0.0624760390166728
 21
-1.079643848227968
 31
0.0
  0
LINE
  5
FE
330
41
100
AcDbEntity
  8
0
100
AcDbLine
 10
0.0994593599999991
 20
-1.065479516183167
 30
0.0
 11
-0.0994593600000009
 21
-1.100996178553218
 31
0.0
  0
LINE
  5
FF
330
41
100
AcDbEntity
  8
0
100
AcDbLine
 10
0.0994593599999991
 20
-1.137089516183168
 30
0.0
 11
0.062476039016671
 21
-1.158441846508418
 31
0.0
  0
LINE
  5
100
330
41
100
AcDbEntity
  8
0
100
AcDbLine
 10
0.062476039016671
 20
-1.115737185857918
 30
0.0
 11
0.0994593599999991
 21
-1.137089516183168
 31
0.0
  0
LINE
  5
101
330
41
100
AcDbEntity
  8
0
100
AcDbLine
 10
0.062476039016671
 20
-1.086255171248518
 30
0.0
 11
0.062476039016671
 21
-1.11573718585792
 31
0.0
  0
LINE
  5
102
330
41
100
AcDbEntity
  8
0
100
AcDbLine
 10
0.062476039016671
 20
-1.115737185857918
 30
0.0
 11
-0.0624760390166745
 21
-1.15125384822797
 31
0.0
  0
LINE
  5
103
330
41
100
AcDbEntity
  8
0
100
AcDbLine
 10
-0.0624760390166728
 20
-1.12234850887847
 30
0.0
 11
-0.0994593600000009
 21
-1.100996178553218
 31
0.0
  0
LINE
  5
104
330
41
100
AcDbEntity
  8
0
100
AcDbLine
 10
0.062476039016671
 20
-1.086831846508417
 30
0.0
 11
-0.0624760390166728
 21
-1.12234850887847
 31
0.0
  0
LINE
  5
105
330
41
100
AcDbEntity
  8
0
100
AcDbLine
 10
-0.0624760390166745
 20
-1.15183052348787
 30
0.0
 11
-0.0624760390166728
 21
-1.122348508878468
 31
0.0
  0
LINE
  5
106
330
41
100
AcDbEntity
  8
0
100
AcDbLine
 10
-0.0994593600000009
 20
-1.17260617855322
 30
0.0
 11
-0.0624760390166728
 21
-1.15125384822797
 31
0.0
  0
LINE
  5
107
330
41
100
AcDbEntity
  8
0
100
AcDbLine
 10
0.0994593599999991
 20
-1.137089516183168
 30
0.0
 11
-0.0994593600000009
 21
-1.17260617855322
 31
0.0
  0
LINE
  5
108
330
41
100
AcDbEntity
  8
0
100
AcDbLine
 10
0.0994593599999991
 20
-1.20869951618317
 30
0.0
 11
0.062476039016671
 21
-1.230051846508419
 31
0.0
  0
LINE
  5
109
330
41
100
AcDbEntity
  8
0
100
AcDbLine
 10
0.062476039016671
 20
-1.18734718585792
 30
0.0
 11
0.0994593599999991
 21
-1.20869951618317
 31
0.0
  0
LINE
  5
10A
330
41
100
AcDbEntity
  8
0
100
AcDbLine
 10
0.062476039016671
 20
-1.15786517124852
 30
0.0
 11
0.062476039016671
 21
-1.187347185857921
 31
0.0
  0
LINE
  5
10B
330
41
100
AcDbEntity
  8
0
100
AcDbLine
 10
0.062476039016671
 20
-1.18734718585792
 30
0.0
 11
-0.0624760390166745
 21
-1.222863848227971
 31
0.0
  0
LINE
  5
10C
330
41
100
AcDbEntity
  8
0
100
AcDbLine
 10
-0.0624760390166728
 20
-1.193958508878472
 30
0.0
 11
-0.0994593600000009
 21
-1.17260617855322
 31
0.0
  0
LINE
  5
10D
330
41
100
AcDbEntity
  8
0
100
AcDbLine
 10
0.062476039016671
 20
-1.158441846508418
 30
0.0
 11
-0.0624760390166728
 21
-1.193958508878472
 31
0.0
  0
LINE
  5
10E
330
41
100
AcDbEntity
  8
0
100
AcDbLine
 10
-0.0624760390166745
 20
-1.223440523487872
 30
0.0
 11
-0.0624760390166728
 21
-1.19395850887847
 31
0.0
  0
LINE
  5
10F
330
41
100
AcDbEntity
  8
0
100
AcDbLine
 10
-0.0994593600000009
 20
-1.244216178553221
 30
0.0
 11
-0.0624760390166728
 21
-1.222863848227971
 31
0.0
  0
LINE
  5
110
330
41
100
AcDbEntity
  8
0
100
AcDbLine
 10
0.0994593599999991
 20
-1.20869951618317
 30
0.0
 11
-0.0994593600000009
 21
-1.244216178553221
 31
0.0
  0
LINE
  5
111
330
41
100
AcDbEntity
  8
0
100
AcDbLine
 10
0.0994593599999991
 20
-1.566749516183176
 30
0.0
 11
0.062476039016671
 21
-1.588101846508426
 31
0.0
  0
LINE
  5
112
330
41
100
AcDbEntity
  8
0
100
AcDbLine
 10
0.062476039016671
 20
-1.545397185857927
 30
0.0
 11
0.0994593599999991
 21
-1.566749516183176
 31
0.0
  0
LINE
  5
113
330
41
100
AcDbEntity
  8
0
100
AcDbLine
 10
0.062476039016671
 20
-1.515915171248527
 30
0.0
 11
0.062476039016671
 21
-1.545397185857928
 31
0.0
  0
LINE
  5
114
330
41
100
AcDbEntity
  8
0
100
AcDbLine
 10
0.062476039016671
 20
-1.545397185857927
 30
0.0
 11
-0.0624760390166745
 21
-1.580913848227979
 31
0.0
  0
LINE
  5
115
330
41
100
AcDbEntity
  8
0
100
AcDbLine
 10
-0.0624760390166728
 20
-1.552008508878479
 30
0.0
 11
-0.0994593600000009
 21
-1.530656178553227
 31
0.0
  0
LINE
  5
116
330
41
100
AcDbEntity
  8
0
100
AcDbLine
 10
0.062476039016671
 20
-1.516491846508425
 30
0.0
 11
-0.0624760390166728
 21
-1.552008508878479
 31
0.0
  0
LINE
  5
117
330
41
100
AcDbEntity
  8
0
100
AcDbLine
 10
-0.0624760390166745
 20
-1.581490523487878
 30
0.0
 11
-0.0624760390166728
 21
-1.552008508878476
 31
0.0
  0
LINE
  5
118
330
41
100
AcDbEntity
  8
0
100
AcDbLine
 10
-0.0994593600000009
 20
-1.602266178553228
 30
0.0
 11
-0.0624760390166728
 21
-1.580913848227979
 31
0.0
  0
LINE
  5
119
330
41
100
AcDbEntity
  8
0
100
AcDbLine
 10
0.0994593599999991
 20
-1.566749516183176
 30
0.0
 11
-0.0994593600000009
 21
-1.602266178553228
 31
0.0
  0
LINE
  5
11A
330
41
100
AcDbEntity
  8
0
100
AcDbLine
 10
0.0994593599999991
 20
-1.638359516183178
 30
0.0
 11
0.062476039016671
 21
-1.659711846508428
 31
0.0
  0
LINE
  5
11B
330
41
100
AcDbEntity
  8
0
100
AcDbLine
 10
0.062476039016671
 20
-1.617007185857928
 30
0.0
 11
0.0994593599999991
 21
-1.638359516183178
 31
0.0
  0
LINE
  5
11C
330
41
100
AcDbEntity
  8
0
100
AcDbLine
 10
0.062476039016671
 20
-1.587525171248528
 30
0.0
 11
0.062476039016671
 21
-1.61700718585793
 31
0.0
  0
LINE
  5
11D
330
41
100
AcDbEntity
  8
0
100
AcDbLine
 10
0.062476039016671
 20
-1.617007185857928
 30
0.0
 11
-0.0624760390166745
 21
-1.652523848227979
 31
0.0
  0
LINE
  5
11E
330
41
100
AcDbEntity
  8
0
100
AcDbLine
 10
-0.0624760390166728
 20
-1.62361850887848
 30
0.0
 11
-0.0994593600000009
 21
-1.602266178553228
 31
0.0
  0
LINE
  5
11F
330
41
100
AcDbEntity
  8
0
100
AcDbLine
 10
0.062476039016671
 20
-1.588101846508426
 30
0.0
 11
-0.0624760390166728
 21
-1.62361850887848
 31
0.0
  0
LINE
  5
120
330
41
100
AcDbEntity
  8
0
100
AcDbLine
 10
-0.0624760390166745
 20
-1.65310052348788
 30
0.0
 11
-0.0624760390166728
 21
-1.623618508878478
 31
0.0
  0
LINE
  5
121
330
41
100
AcDbEntity
  8
0
100
AcDbLine
 10
-0.0994593600000009
 20
-1.673876178553229
 30
0.0
 11
-0.0624760390166728
 21
-1.652523848227979
 31
0.0
  0
LINE
  5
122
330
41
100
AcDbEntity
  8
0
100
AcDbLine
 10
0.0994593599999991
 20
-1.638359516183178
 30
0.0
 11
-0.0994593600000009
 21
-1.673876178553229
 31
0.0
  0
LINE
  5
123
330
41
100
AcDbEntity
  8
0
100
AcDbLine
 10
0.0991606806036529
 20
-1.781323020796657
 30
0.0
 11
0.0621773596203248
 21
-1.802675351121906
 31
0.0
  0
LINE
  5
124
330
41
100
AcDbEntity
  8
0
100
AcDbLine
 10
0.062476039016671
 20
-1.68861718585793
 30
0.0
 11
0.0994593599999991
 21
-1.709969516183179
 31
0.0
  0
LINE
  5
125
330
41
100
AcDbEntity
  8
0
100
AcDbLine
 10
0.062476039016671
 20
-1.65913517124853
 30
0.0
 11
0.062476039016671
 21
-1.688617185857931
 31
0.0
  0
LINE
  5
126
330
41
100
AcDbEntity
  8
0
100
AcDbLine
 10
0.062476039016671
 20
-1.68861718585793
 30
0.0
 11
-0.0624760390166745
 21
-1.724133848227981
 31
0.0
  0
LINE
  5
127
330
41
100
AcDbEntity
  8
0
100
AcDbLine
 10
-0.0624760390166728
 20
-1.695228508878481
 30
0.0
 11
-0.0994593600000009
 21
-1.673876178553229
 31
0.0
  0
LINE
  5
128
330
41
100
AcDbEntity
  8
0
100
AcDbLine
 10
0.062476039016671
 20
-1.659711846508428
 30
0.0
 11
-0.0624760390166728
 21
-1.695228508878481
 31
0.0
  0
LINE
  5
129
330
41
100
AcDbEntity
  8
0
100
AcDbLine
 10
-0.0624760390166745
 20
-1.724710523487881
 30
0.0
 11
-0.0624760390166728
 21
-1.695228508878479
 31
0.0
  0
LINE
  5
12A
330
41
100
AcDbEntity
  8
0
100
AcDbLine
 10
-0.0994593600000009
 20
-1.745486178553231
 30
0.0
 11
-0.0624760390166728
 21
-1.724133848227981
 31
0.0
  0
LINE
  5
12B
330
41
100
AcDbEntity
  8
0
100
AcDbLine
 10
0.0991606806036529
 20
-1.781323020796657
 30
0.0
 11
-0.0997580393963471
 21
-1.816839683166708
 31
0.0
  0
LINE
  5
12C
330
41
100
AcDbEntity
  8
0
100
AcDbLine
 10
-0.062774718413019
 20
-1.83819201349196
 30
0.0
 11
-0.0997580393963471
 21
-1.816839683166708
 31
0.0
  0
LINE
  5
12D
330
41
100
AcDbEntity
  8
0
100
AcDbLine
 10
0.0621773596203248
 20
-1.802675351121906
 30
0.0
 11
-0.062774718413019
 21
-1.83819201349196
 31
0.0
  0
LINE
  5
12E
330
41
100
AcDbEntity
  8
0
100
AcDbLine
 10
-0.1434376223577907
 20
0.2324251306114302
 30
0.0
 11
0.1438992351422099
 21
0.2324251306114267
 31
0.0
  0
LINE
  5
12F
330
41
100
AcDbEntity
  8
1
100
AcDbLine
 10
-0.0656249807727516
 20
0.0
 30
0.0
 11
-0.0656249807727516
 21
0.0
 31
0.0
  0
LINE
  5
132
330
41
100
AcDbEntity
  8
0
100
AcDbLine
 10
0.2159062663922082
 20
0.125
 30
0.0
 11
0.2159062663922082
 21
0.1604180993614257
 31
0.0
  0
LINE
  5
133
330
41
100
AcDbEntity
  8
0
100
AcDbLine
 10
-0.2154446536077899
 20
0.125
 30
0.0
 11
-0.2154446536077899
 21
0.1604180993614275
 31
0.0
  0
LINE
  5
134
330
41
100
AcDbEntity
  8
0
100
AcDbLine
 10
-0.0000000000000018
 20
0.0
 30
0.0
 11
-0.0994593600000009
 21
0.0
 31
0.0
  0
LINE
  5
135
330
41
100
AcDbEntity
  8
0
100
AcDbLine
 10
-0.3039403194853296
 20
0.125
 30
0.0
 11
0.303509713563022
 21
0.125
 31
0.0
  0
ARC
  5
136
330
41
100
AcDbEntity
  8
0
100
AcDbCircle
 10
-0.1434376223577907
 20
0.1604180993614275
 30
0.0
 40
0.07200703125
100
AcDbArc
 50
89.99999999999973
 51
180.0
  0
ARC
  5
137
330
41
100
AcDbEntity
  8
0
100
AcDbCircle
 10
0.1438992351422099
 20
0.1604180993614275
 30
0.0
 40
0.07200703125
100
AcDbArc
 50
359.9999999999992
 51
89.99999999999968
  0
LINE
  5
138
330
41
100
AcDbEntity
  8
0
100
AcDbLine
 10
0.303509713563022
 20
0.0
 30
0.0
 11
0.303509713563022
 21
0.125
 31
0.0
  0
LINE
  5
139
330
41
100
AcDbEntity
  8
0
100
AcDbLine
 10
-0.3039403194853296
 20
0.0
 30
0.0
 11
-0.3039403194853296
 21
0.125
 31
0.0
  0
LINE
  5
13A
330
41
100
AcDbEntity
  8
0
100
AcDbLine
 10
-0.0997580393963471
 20
-1.816839683166708
 30
0.0
 11
-0.062774718413019
 21
-1.795487352841458
 31
0.0
  0
LINE
  5
13B
330
41
100
AcDbEntity
  8
0
100
AcDbLine
 10
0.0621773596203248
 20
-1.759970690471407
 30
0.0
 11
-0.0627747184130207
 21
-1.795487352841458
 31
0.0
  0
LINE
  5
13C
330
41
100
AcDbEntity
  8
0
100
AcDbLine
 10
0.0621773596203248
 20
-1.759970690471407
 30
0.0
 11
0.0991606806036529
 21
-1.781323020796657
 31
0.0
  0
LINE
  5
13D
330
41
100
AcDbEntity
  8
0
100
AcDbLine
 10
-0.0627747184130207
 20
-1.796064028101359
 30
0.0
 11
-0.062774718413019
 21
-1.766582013491957
 31
0.0
  0
LINE
  5
13E
330
41
100
AcDbEntity
  8
0
100
AcDbLine
 10
-0.062774718413019
 20
-1.766582013491959
 30
0.0
 11
-0.0997580393963471
 21
-1.745229683166707
 31
0.0
  0
LINE
  5
13F
330
41
100
AcDbEntity
  8
0
100
AcDbLine
 10
0.0621773596203248
 20
-1.731065351121905
 30
0.0
 11
-0.062774718413019
 21
-1.766582013491959
 31
0.0
  0
LINE
  5
140
330
41
100
AcDbEntity
  8
0
100
AcDbLine
 10
0.0991606806036529
 20
-1.709713020796656
 30
0.0
 11
0.0621773596203248
 21
-1.731065351121905
 31
0.0
  0
LINE
  5
141
330
41
100
AcDbEntity
  8
0
100
AcDbLine
 10
0.0621773596203248
 20
-1.730488675862007
 30
0.0
 11
0.0621773596203248
 21
-1.759970690471408
 31
0.0
  0
ENDBLK
  5
142
330
41
100
AcDbEntity
  8
5
100
AcDbBlockEnd
  0
BLOCK
  5
15D
330
15C
100
AcDbEntity
  8
0
 62
     0
100
AcDbBlockBegin
  2
S4
 70
     0
 10
0.0
 20
0.0
 30
0.0
  3
S4
  1

  0
LINE
  5
15E
330
15C
100
AcDbEntity
  8
0
  6
Continuous
 62
     0
100
AcDbLine
 10
7.76527203557555
 20
-44.80019743779241
 30
0.0
 11
7.765272035575549
 21
-43.48719743779241
 31
0.0
  0
LINE
  5
15F
330
15C
100
AcDbEntity
  8
0
  6
Continuous
 62
     0
100
AcDbLine
 10
7.640272035575549
 20
-44.92519743779242
 30
0.0
 11
7.64027203557555
 21
-43.48719743779241
 31
0.0
  0
LINE
  5
160
330
15C
100
AcDbEntity
  8
0
  6
Continuous
 62
     0
100
AcDbLine
 10
8.35977203557555
 20
-44.61219743779241
 30
0.0
 11
8.515272035575549
 21
-44.61219743779241
 31
0.0
  0
LINE
  5
161
330
15C
100
AcDbEntity
  8
0
  6
Continuous
 62
     0
100
AcDbLine
 10
8.32777203557555
 20
-44.64419743779241
 30
0.0
 11
8.327772035575549
 21
-44.66219743779243
 31
0.0
  0
ARC
  5
162
330
15C
100
AcDbEntity
  8
0
  6
Continuous
 62
     0
100
AcDbCircle
 10
8.35977203557555
 20
-44.64419743779241
 30
0.0
 40
0.032
100
AcDbArc
 50
90.0
 51
180.0
  0
LINE
  5
163
330
15C
100
AcDbEntity
  8
0
  6
Continuous
 62
     0
100
AcDbLine
 10
8.20277203557555
 20
-44.64419743779241
 30
0.0
 11
8.202772035575549
 21
-44.66219743779241
 31
0.0
  0
LINE
  5
164
330
15C
100
AcDbEntity
  8
0
  6
Continuous
 62
     0
100
AcDbLine
 10
8.01527203557555
 20
-44.61219743779241
 30
0.0
 11
8.170772035575552
 21
-44.61219743779241
 31
0.0
  0
ARC
  5
165
330
15C
100
AcDbEntity
  8
0
  6
Continuous
 62
     0
100
AcDbCircle
 10
8.17077203557555
 20
-44.64419743779241
 30
0.0
 40
0.032
100
AcDbArc
 50
0.0
 51
89.99999999999785
  0
LINE
  5
166
330
15C
100
AcDbEntity
  8
0
  6
Continuous
 62
     0
100
AcDbLine
 10
8.165272035575549
 20
-44.66219743779241
 30
0.0
 11
8.165272035575549
 21
-44.73859431495515
 31
0.0
  0
LINE
  5
167
330
15C
100
AcDbEntity
  8
0
  6
Continuous
 62
     0
100
AcDbLine
 10
8.365272035575546
 20
-44.66219743779244
 30
0.0
 11
8.365272035575546
 21
-44.73859431495515
 31
0.0
  0
ARC
  5
168
330
15C
100
AcDbEntity
  8
0
  6
Continuous
 62
     0
100
AcDbCircle
 10
8.265272035575549
 20
-44.57939632501809
 30
0.0
 40
0.188
100
AcDbArc
 50
237.8650719958525
 51
302.1349280041471
  0
LINE
  5
169
330
15C
100
AcDbEntity
  8
0
  6
Continuous
 62
     0
100
AcDbLine
 10
8.165272035575549
 20
-44.66219743779241
 30
0.0
 11
8.202772035575549
 21
-44.66219743779241
 31
0.0
  0
LINE
  5
16A
330
15C
100
AcDbEntity
  8
0
  6
Continuous
 62
     0
100
AcDbLine
 10
8.327772035575549
 20
-44.66219743779243
 30
0.0
 11
8.365272035575546
 21
-44.66219743779244
 31
0.0
  0
LINE
  5
16B
330
15C
100
AcDbEntity
  8
0
  6
Continuous
 62
     0
100
AcDbLine
 10
8.015272035575549
 20
-44.8001974377924
 30
0.0
 11
8.01527203557555
 21
-44.61219743779241
 31
0.0
  0
LINE
  5
16C
330
15C
100
AcDbEntity
  8
0
  6
Continuous
 62
     0
100
AcDbLine
 10
8.515272035575549
 20
-48.61219743779242
 30
0.0
 11
8.515272035575549
 21
-44.61219743779241
 31
0.0
  0
LINE
  5
16D
330
15C
100
AcDbEntity
  8
0
  6
Continuous
 62
     0
100
AcDbLine
 10
7.76527203557555
 20
-44.80019743779241
 30
0.0
 11
8.015272035575547
 21
-44.80019743779241
 31
0.0
  0
LINE
  5
16E
330
15C
100
AcDbEntity
  8
0
  6
Continuous
 62
     0
100
AcDbLine
 10
7.640272035575549
 20
-44.92519743779242
 30
0.0
 11
8.390272035575549
 21
-44.92519743779241
 31
0.0
  0
LINE
  5
16F
330
15C
100
AcDbEntity
  8
0
  6
Continuous
 62
     0
100
AcDbLine
 10
8.390272035575549
 20
-49.23719743779241
 30
0.0
 11
8.390272035575549
 21
-44.92519743779241
 31
0.0
  0
LINE
  5
170
330
15C
100
AcDbEntity
  8
0
  6
Continuous
 62
     0
100
AcDbLine
 10
8.515272035575549
 20
-49.11219743779241
 30
0.0
 11
10.63027203557556
 21
-49.11219743779242
 31
0.0
  0
LINE
  5
171
330
15C
100
AcDbEntity
  8
0
  6
Continuous
 62
     0
100
AcDbLine
 10
10.65027203557553
 20
-49.11219743779242
 30
0.0
 11
11.39027203557555
 21
-49.11219743779241
 31
0.0
  0
LINE
  5
172
330
15C
100
AcDbEntity
  8
0
  6
Continuous
 62
     0
100
AcDbLine
 10
10.64027203557555
 20
-49.12219743779242
 30
0.0
 11
10.63027203557555
 21
-49.11219743779241
 31
0.0
  0
LINE
  5
173
330
15C
100
AcDbEntity
  8
0
  6
Continuous
 62
     0
100
AcDbLine
 10
10.64027203557555
 20
-49.12219743779242
 30
0.0
 11
10.65027203557555
 21
-49.11219743779241
 31
0.0
  0
LINE
  5
174
330
15C
100
AcDbEntity
  8
0
  6
Continuous
 62
     0
100
AcDbLine
 10
8.515272035575549
 20
-48.61219743779241
 30
0.0
 11
8.64027203557555
 21
-48.61219743779241
 31
0.0
  0
LINE
  5
175
330
15C
100
AcDbEntity
  8
0
  6
Continuous
 62
     0
100
AcDbLine
 10
8.515272035575549
 20
-48.67419743779241
 30
0.0
 11
8.64027203557555
 21
-48.67419743779241
 31
0.0
  0
LINE
  5
176
330
15C
100
AcDbEntity
  8
0
  6
Continuous
 62
     0
100
AcDbLine
 10
8.515272035575549
 20
-49.11219743779241
 30
0.0
 11
8.515272035575549
 21
-48.6741974377924
 31
0.0
  0
LINE
  5
177
330
15C
100
AcDbEntity
  8
0
  6
Continuous
 62
     0
100
AcDbLine
 10
8.64027203557555
 20
-48.67419743779241
 30
0.0
 11
8.64027203557555
 21
-48.61219743779241
 31
0.0
  0
LINE
  5
178
330
15C
100
AcDbEntity
  8
0
  6
Continuous
 62
     0
100
AcDbLine
 10
11.39027203557555
 20
-49.23719743779241
 30
0.0
 11
11.39027203557555
 21
-49.11219743779241
 31
0.0
  0
LINE
  5
179
330
15C
100
AcDbEntity
  8
0
  6
Continuous
 62
     0
100
AcDbLine
 10
8.390272035575549
 20
-49.23719743779241
 30
0.0
 11
11.39027203557555
 21
-49.23719743779241
 31
0.0
  0
LINE
  5
17A
330
15C
100
AcDbEntity
  8
0
  6
Continuous
 62
     0
100
AcDbLine
 10
7.64027203557555
 20
-43.48719743779241
 30
0.0
 11
7.765272035575549
 21
-43.48719743779241
 31
0.0
  0
ENDBLK
  5
17B
330
15C
100
AcDbEntity
  8
0
 62
     0
100
AcDbBlockEnd
  0
BLOCK
  5
192
330
191
100
AcDbEntity
  8
0
100
AcDbBlockBegin
  2
*X3
 70
     1
 10
0.0
 20
0.0
 30
0.0
  3
*X3
  1

  0
LINE
  5
193
330
191
100
AcDbEntity
  8
0
 62
     0
100
AcDbLine
 10
6.455653718588217
 20
3.485805237604717
 30
0.0
 11
6.482008789598947
 21
3.512160308615448
 31
0.0
  0
LINE
  5
194
330
191
100
AcDbEntity
  8
0
 62
     0
100
AcDbLine
 10
6.420298379528889
 20
3.485805237604717
 30
0.0
 11
6.482008789598947
 21
3.547515647674775
 31
0.0
  0
LINE
  5
195
330
191
100
AcDbEntity
  8
0
 62
     0
100
AcDbLine
 10
6.384943040469562
 20
3.485805237604717
 30
0.0
 11
6.482008789598947
 21
3.582870986734103
 31
0.0
  0
LINE
  5
196
330
191
100
AcDbEntity
  8
0
 62
     0
100
AcDbLine
 10
6.349587701410235
 20
3.485805237604717
 30
0.0
 11
6.482008789598947
 21
3.61822632579343
 31
0.0
  0
LINE
  5
197
330
191
100
AcDbEntity
  8
0
 62
     0
100
AcDbLine
 10
6.314232362350908
 20
3.485805237604717
 30
0.0
 11
6.482008789598947
 21
3.653581664852757
 31
0.0
  0
LINE
  5
198
330
191
100
AcDbEntity
  8
0
 62
     0
100
AcDbLine
 10
6.27887702329158
 20
3.485805237604717
 30
0.0
 11
6.482008789598947
 21
3.688937003912085
 31
0.0
  0
LINE
  5
199
330
191
100
AcDbEntity
  8
0
 62
     0
100
AcDbLine
 10
6.243521684232253
 20
3.485805237604717
 30
0.0
 11
6.482008789598947
 21
3.724292342971412
 31
0.0
  0
LINE
  5
19A
330
191
100
AcDbEntity
  8
0
 62
     0
100
AcDbLine
 10
6.208166345172926
 20
3.485805237604717
 30
0.0
 11
6.482008789598947
 21
3.75964768203074
 31
0.0
  0
LINE
  5
19B
330
191
100
AcDbEntity
  8
0
 62
     0
100
AcDbLine
 10
6.172811006113598
 20
3.485805237604717
 30
0.0
 11
6.482008789598947
 21
3.795003021090066
 31
0.0
  0
LINE
  5
19C
330
191
100
AcDbEntity
  8
0
 62
     0
100
AcDbLine
 10
6.13745566705427
 20
3.485805237604717
 30
0.0
 11
6.482008789598947
 21
3.830358360149394
 31
0.0
  0
LINE
  5
19D
330
191
100
AcDbEntity
  8
0
 62
     0
100
AcDbLine
 10
6.107041342511141
 20
3.490746252120915
 30
0.0
 11
6.477067775082751
 21
3.860772684692525
 31
0.0
  0
LINE
  5
19E
330
191
100
AcDbEntity
  8
0
 62
     0
100
AcDbLine
 10
6.10944813505911
 20
3.528508383728212
 30
0.0
 11
6.439305643475454
 21
3.858365892144556
 31
0.0
  0
LINE
  5
19F
330
191
100
AcDbEntity
  8
0
 62
     0
100
AcDbLine
 10
6.116884707869568
 20
3.571300295597997
 30
0.0
 11
6.396513731605669
 21
3.850929319334097
 31
0.0
  0
LINE
  5
1A0
330
191
100
AcDbEntity
  8
0
 62
     0
100
AcDbLine
 10
6.132862699926207
 20
3.622633626713963
 30
0.0
 11
6.345180400489703
 21
3.834951327277459
 31
0.0
  0
LINE
  5
1A1
330
191
100
AcDbEntity
  8
0
 62
     0
100
AcDbLine
 10
6.172699196925758
 20
3.697825462772842
 30
0.0
 11
6.269988564430825
 21
3.795114830277908
 31
0.0
  0
LINE
  5
1A2
330
191
100
AcDbEntity
  8
0
 62
     0
100
AcDbLine
 10
6.482008789598947
 20
3.47680496955612
 30
0.0
 11
6.491009057647545
 21
3.485805237604717
 31
0.0
  0
LINE
  5
1A3
330
191
100
AcDbEntity
  8
0
 62
     0
100
AcDbLine
 10
6.482008789598947
 20
3.441449630496793
 30
0.0
 11
6.526364396706872
 21
3.485805237604717
 31
0.0
  0
LINE
  5
1A4
330
191
100
AcDbEntity
  8
0
 62
     0
100
AcDbLine
 10
6.482008789598947
 20
3.406094291437466
 30
0.0
 11
6.5617197357662
 21
3.485805237604717
 31
0.0
  0
LINE
  5
1A5
330
191
100
AcDbEntity
  8
0
 62
     0
100
AcDbLine
 10
6.482008789598947
 20
3.370738952378138
 30
0.0
 11
6.597075074825526
 21
3.485805237604717
 31
0.0
  0
LINE
  5
1A6
330
191
100
AcDbEntity
  8
0
 62
     0
100
AcDbLine
 10
6.482008789598947
 20
3.335383613318811
 30
0.0
 11
6.632430413884853
 21
3.485805237604717
 31
0.0
  0
LINE
  5
1A7
330
191
100
AcDbEntity
  8
0
 62
     0
100
AcDbLine
 10
6.482008789598947
 20
3.300028274259484
 30
0.0
 11
6.667785752944181
 21
3.485805237604717
 31
0.0
  0
LINE
  5
1A8
330
191
100
AcDbEntity
  8
0
 62
     0
100
AcDbLine
 10
6.482008789598947
 20
3.264672935200156
 30
0.0
 11
6.703141092003509
 21
3.485805237604717
 31
0.0
  0
LINE
  5
1A9
330
191
100
AcDbEntity
  8
0
 62
     0
100
AcDbLine
 10
6.482008789598947
 20
3.229317596140829
 30
0.0
 11
6.738496431062836
 21
3.485805237604717
 31
0.0
  0
LINE
  5
1AA
330
191
100
AcDbEntity
  8
0
 62
     0
100
AcDbLine
 10
6.482008789598947
 20
3.193962257081501
 30
0.0
 11
6.773851770122163
 21
3.485805237604717
 31
0.0
  0
LINE
  5
1AB
330
191
100
AcDbEntity
  8
0
 62
     0
100
AcDbLine
 10
6.482008789598947
 20
3.158606918022174
 30
0.0
 11
6.809207109181491
 21
3.485805237604717
 31
0.0
  0
LINE
  5
1AC
330
191
100
AcDbEntity
  8
0
 62
     0
100
AcDbLine
 10
6.482008789598947
 20
3.123251578962847
 30
0.0
 11
6.844562448240818
 21
3.485805237604717
 31
0.0
  0
LINE
  5
1AD
330
191
100
AcDbEntity
  8
0
 62
     0
100
AcDbLine
 10
6.505664664989164
 20
3.111552115293735
 30
0.0
 11
6.85626191190993
 21
3.462149362214502
 31
0.0
  0
LINE
  5
1AE
330
191
100
AcDbEntity
  8
0
 62
     0
100
AcDbLine
 10
6.545725937059539
 20
3.116258048304783
 30
0.0
 11
6.851555978898883
 21
3.422088090144127
 31
0.0
  0
LINE
  5
1AF
330
191
100
AcDbEntity
  8
0
 62
     0
100
AcDbLine
 10
6.592175968206674
 20
3.127352740392591
 30
0.0
 11
6.840461286811075
 21
3.375638058996992
 31
0.0
  0
LINE
  5
1B0
330
191
100
AcDbEntity
  8
0
 62
     0
100
AcDbLine
 10
6.651444518775554
 20
3.151265951902144
 30
0.0
 11
6.816548075301522
 21
3.316369508428111
 31
0.0
  0
ENDBLK
  5
1B1
330
191
100
AcDbEntity
  8
0
100
AcDbBlockEnd
  0
BLOCK
  5
18E
330
18D
100
AcDbEntity
  8
0
100
AcDbBlockBegin
  2
work point
 70
     0
 10
0.0
 20
0.0
 30
0.0
  3
work point
  1

  0
LINE
  5
18F
330
18D
100
AcDbEntity
  8
0
100
AcDbLine
 10
0.6056250806605572
 20
-88.19980482706348
 30
0.0
 11
1.070572365767889
 21
-88.19980482706348
 31
0.0
  0
INSERT
  5
190
330
18D
100
AcDbEntity
  8
0
100
AcDbBlockReference
  2
*X3
 10
-0.7831360848958014
 20
-89.07165010974274
 30
0.0
 41
0.2501130221717222
 42
0.2501130221716889
 43
0.2501130221716889
  0
CIRCLE
  5
1B2
330
18D
100
AcDbEntity
  8
0
100
AcDbCircle
 10
0.8380987232142231
 20
-88.19980482706348
 30
0.0
 40
0.0937923833143834
  0
LINE
  5
1B3
330
18D
100
AcDbEntity
  8
0
100
AcDbLine
 10
0.8380987232142231
 20
-87.96733118450983
 30
0.0
 11
0.8380987232142231
 21
-88.43227846961726
 31
0.0
  0
ENDBLK
  5
1B4
330
18D
100
AcDbEntity
  8
0
100
AcDbBlockEnd
  0
BLOCK
  5
266
330
265
100
AcDbEntity
  8
0
100
AcDbBlockBegin
  2
ANCHOR
 70
     0
 10
0.0
 20
0.0
 30
0.0
  3
ANCHOR
  1

  0
LINE
  5
267
330
265
100
AcDbEntity
  8
0
100
AcDbLine
 10
36.61486367758931
 20
-20.49970755084456
 30
0.0
 11
36.6773636775893
 21
-20.56178279941014
 31
0.0
  0
LINE
  5
268
330
265
100
AcDbEntity
  8
0
100
AcDbLine
 10
36.6773636775893
 20
-20.56178279941014
 30
0.0
 11
36.61486367758931
 21
-20.62427482391687
 31
0.0
  0
LINE
  5
269
330
265
100
AcDbEntity
  8
0
100
AcDbLine
 10
36.6773636775893
 20
-20.81178279941015
 30
0.0
 11
36.61486367758931
 21
-20.87427482391688
 31
0.0
  0
LINE
  5
26A
330
265
100
AcDbEntity
  8
0
100
AcDbLine
 10
36.61486367758931
 20
-20.74970755084457
 30
0.0
 11
36.6773636775893
 21
-20.81178279941015
 31
0.0
  0
LINE
  5
26B
330
265
100
AcDbEntity
  8
0
100
AcDbLine
 10
36.6773636775893
 20
-21.06178279941016
 30
0.0
 11
36.61486367758931
 21
-21.12427482391689
 31
0.0
  0
LINE
  5
26C
330
265
100
AcDbEntity
  8
0
100
AcDbLine
 10
36.61486367758931
 20
-20.99970755084457
 30
0.0
 11
36.6773636775893
 21
-21.06178279941016
 31
0.0
  0
LINE
  5
26D
330
265
100
AcDbEntity
  8
0
100
AcDbLine
 10
36.6773636775893
 20
-20.42115779941013
 30
0.0
 11
36.61486367758931
 21
-20.48364982391687
 31
0.0
  0
LINE
  5
26E
330
265
100
AcDbEntity
  8
0
100
AcDbLine
 10
36.6773636775893
 20
-21.31178279941016
 30
0.0
 11
36.61486367758931
 21
-21.37427482391689
 31
0.0
  0
LINE
  5
26F
330
265
100
AcDbEntity
  8
0
100
AcDbLine
 10
36.61486367758931
 20
-21.24970755084458
 30
0.0
 11
36.6773636775893
 21
-21.31178279941016
 31
0.0
  0
LINE
  5
270
330
265
100
AcDbEntity
  8
0
100
AcDbLine
 10
36.6773636775893
 20
-21.56178279941016
 30
0.0
 11
36.61486367758931
 21
-21.6242748239169
 31
0.0
  0
LINE
  5
271
330
265
100
AcDbEntity
  8
0
100
AcDbLine
 10
36.61486367758931
 20
-21.49970755084459
 30
0.0
 11
36.6773636775893
 21
-21.56178279941016
 31
0.0
  0
LINE
  5
272
330
265
100
AcDbEntity
  8
0
100
AcDbLine
 10
36.6773636775893
 20
-21.81178279941017
 30
0.0
 11
36.61486367758931
 21
-21.87427482391691
 31
0.0
  0
LINE
  5
273
330
265
100
AcDbEntity
  8
0
100
AcDbLine
 10
36.61486367758931
 20
-21.74970755084459
 30
0.0
 11
36.6773636775893
 21
-21.81178279941017
 31
0.0
  0
LINE
  5
274
330
265
100
AcDbEntity
  8
0
100
AcDbLine
 10
36.3023636775893
 20
-21.37428279941016
 30
0.0
 11
36.6773636775893
 21
-21.31178279941016
 31
0.0
  0
LINE
  5
275
330
265
100
AcDbEntity
  8
0
100
AcDbLine
 10
36.3023636775893
 20
-21.62428279941017
 30
0.0
 11
36.6773636775893
 21
-21.56178279941016
 31
0.0
  0
LINE
  5
276
330
265
100
AcDbEntity
  8
0
100
AcDbLine
 10
36.3023636775893
 20
-21.87428279941018
 30
0.0
 11
36.6773636775893
 21
-21.81178279941017
 31
0.0
  0
LINE
  5
277
330
265
100
AcDbEntity
  8
0
100
AcDbLine
 10
36.11486367758929
 20
-19.53095755084453
 30
0.0
 11
36.86486367758931
 21
-19.53095755084453
 31
0.0
  0
LINE
  5
278
330
265
100
AcDbEntity
  8
0
100
AcDbLine
 10
36.86486367758931
 20
-19.26533255084453
 30
0.0
 11
36.11486367758929
 21
-19.26533255084453
 31
0.0
  0
LINE
  5
279
330
265
100
AcDbEntity
  8
0
100
AcDbLine
 10
36.3023636775893
 20
-19.53095755084453
 30
0.0
 11
36.6773636775893
 21
-19.53095755084453
 31
0.0
  0
LINE
  5
27A
330
265
100
AcDbEntity
  8
0
100
AcDbLine
 10
36.3023636775893
 20
-20.62428279941014
 30
0.0
 11
36.6773636775893
 21
-20.56178279941014
 31
0.0
  0
LINE
  5
27B
330
265
100
AcDbEntity
  8
0
100
AcDbLine
 10
36.3023636775893
 20
-20.87428279941015
 30
0.0
 11
36.6773636775893
 21
-20.81178279941015
 31
0.0
  0
LINE
  5
27C
330
265
100
AcDbEntity
  8
0
100
AcDbLine
 10
36.3023636775893
 20
-21.12428279941016
 30
0.0
 11
36.6773636775893
 21
-21.06178279941016
 31
0.0
  0
LINE
  5
27D
330
265
100
AcDbEntity
  8
0
100
AcDbLine
 10
36.4898636775893
 20
-19.26533255084453
 30
0.0
 11
36.4898636775893
 21
-19.53095755084453
 31
0.0
  0
LINE
  5
27E
330
265
100
AcDbEntity
  8
0
100
AcDbLine
 10
36.61486367758931
 20
-20.49970755084456
 30
0.0
 11
36.61486367758931
 21
-20.48364982391687
 31
0.0
  0
LINE
  5
27F
330
265
100
AcDbEntity
  8
0
100
AcDbLine
 10
36.61486367758931
 20
-20.74970755084457
 30
0.0
 11
36.61486367758931
 21
-20.62427482391687
 31
0.0
  0
LINE
  5
280
330
265
100
AcDbEntity
  8
0
100
AcDbLine
 10
36.61486367758931
 20
-20.99970755084457
 30
0.0
 11
36.61486367758931
 21
-20.87427482391688
 31
0.0
  0
LINE
  5
281
330
265
100
AcDbEntity
  8
0
100
AcDbLine
 10
36.61486367758931
 20
-21.49970755084459
 30
0.0
 11
36.61486367758931
 21
-21.37427482391689
 31
0.0
  0
LINE
  5
282
330
265
100
AcDbEntity
  8
0
100
AcDbLine
 10
36.61486367758931
 20
-21.74970755084459
 30
0.0
 11
36.61486367758931
 21
-21.6242748239169
 31
0.0
  0
LINE
  5
283
330
265
100
AcDbEntity
  8
0
100
AcDbLine
 10
36.61486367758931
 20
-21.87427482391691
 30
0.0
 11
36.57223315183905
 21
-21.97034108586645
 31
0.0
  0
LINE
  5
284
330
265
100
AcDbEntity
  8
0
100
AcDbLine
 10
36.57223315183905
 20
-21.97034108586645
 30
0.0
 11
36.61806416308243
 21
-22.01651795053903
 31
0.0
  0
LINE
  5
285
330
265
100
AcDbEntity
  8
0
100
AcDbLine
 10
36.61806416308243
 20
-22.01651795053903
 30
0.0
 11
36.54154245815251
 21
-22.03950139217786
 31
0.0
  0
LINE
  5
286
330
265
100
AcDbEntity
  8
0
100
AcDbLine
 10
36.45266116609978
 20
-22.09072436750993
 30
0.0
 11
36.54154245815251
 21
-22.03950139217786
 31
0.0
  0
LINE
  5
287
330
265
100
AcDbEntity
  8
0
100
AcDbLine
 10
36.45266116609978
 20
-22.09072436750993
 30
0.0
 11
36.4898636775893
 21
-22.15595755084461
 31
0.0
  0
LINE
  5
288
330
265
100
AcDbEntity
  8
0
100
AcDbLine
 10
36.54154245815251
 20
-22.03950139217786
 30
0.0
 11
36.4898636775893
 21
-22.15595755084461
 31
0.0
  0
LINE
  5
289
330
265
100
AcDbEntity
  8
0
100
AcDbLine
 10
36.61486367758931
 20
-21.24970755084458
 30
0.0
 11
36.61486367758931
 21
-21.12427482391689
 31
0.0
  0
LINE
  5
28A
330
265
100
AcDbEntity
  8
0
100
AcDbLine
 10
36.11486367758929
 20
-19.26533255084453
 30
0.0
 11
36.11486367758929
 21
-19.53095755084453
 31
0.0
  0
LINE
  5
28B
330
265
100
AcDbEntity
  8
0
100
AcDbLine
 10
36.3023636775893
 20
-20.42115779941013
 30
0.0
 11
36.3023636775893
 21
-19.53095755084453
 31
0.0
  0
LINE
  5
28C
330
265
100
AcDbEntity
  8
0
100
AcDbLine
 10
36.3648636775893
 20
-21.06220755084458
 30
0.0
 11
36.3023636775893
 21
-21.12428279941016
 31
0.0
  0
LINE
  5
28D
330
265
100
AcDbEntity
  8
0
100
AcDbLine
 10
36.3648636775893
 20
-20.81220755084457
 30
0.0
 11
36.3023636775893
 21
-20.87428279941015
 31
0.0
  0
LINE
  5
28E
330
265
100
AcDbEntity
  8
0
100
AcDbLine
 10
36.3023636775893
 20
-20.87428279941015
 30
0.0
 11
36.3648636775893
 21
-20.93677482391688
 31
0.0
  0
LINE
  5
28F
330
265
100
AcDbEntity
  8
0
100
AcDbLine
 10
36.3023636775893
 20
-20.62428279941014
 30
0.0
 11
36.3648636775893
 21
-20.68677482391688
 31
0.0
  0
LINE
  5
290
330
265
100
AcDbEntity
  8
0
100
AcDbLine
 10
36.3648636775893
 20
-20.56220755084456
 30
0.0
 11
36.3023636775893
 21
-20.62428279941014
 31
0.0
  0
LINE
  5
291
330
265
100
AcDbEntity
  8
0
100
AcDbLine
 10
36.3648636775893
 20
-20.56220755084456
 30
0.0
 11
36.3648636775893
 21
-20.48364982391687
 31
0.0
  0
LINE
  5
292
330
265
100
AcDbEntity
  8
0
100
AcDbLine
 10
36.3648636775893
 20
-20.81220755084457
 30
0.0
 11
36.3648636775893
 21
-20.68677482391688
 31
0.0
  0
LINE
  5
293
330
265
100
AcDbEntity
  8
0
100
AcDbLine
 10
36.3648636775893
 20
-21.06220755084458
 30
0.0
 11
36.3648636775893
 21
-20.93677482391688
 31
0.0
  0
LINE
  5
294
330
265
100
AcDbEntity
  8
0
100
AcDbLine
 10
36.3023636775893
 20
-20.42115779941013
 30
0.0
 11
36.3648636775893
 21
-20.48364982391687
 31
0.0
  0
LINE
  5
295
330
265
100
AcDbEntity
  8
0
100
AcDbLine
 10
36.3648636775893
 20
-21.8122075508446
 30
0.0
 11
36.3023636775893
 21
-21.87428279941018
 31
0.0
  0
LINE
  5
296
330
265
100
AcDbEntity
  8
0
100
AcDbLine
 10
36.3023636775893
 20
-21.87428279941018
 30
0.0
 11
36.3648636775893
 21
-21.93677482391692
 31
0.0
  0
LINE
  5
297
330
265
100
AcDbEntity
  8
0
100
AcDbLine
 10
36.3648636775893
 20
-21.56220755084459
 30
0.0
 11
36.3023636775893
 21
-21.62428279941017
 31
0.0
  0
LINE
  5
298
330
265
100
AcDbEntity
  8
0
100
AcDbLine
 10
36.3023636775893
 20
-21.62428279941017
 30
0.0
 11
36.3648636775893
 21
-21.68677482391691
 31
0.0
  0
LINE
  5
299
330
265
100
AcDbEntity
  8
0
100
AcDbLine
 10
36.3648636775893
 20
-21.31220755084458
 30
0.0
 11
36.3023636775893
 21
-21.37428279941016
 31
0.0
  0
LINE
  5
29A
330
265
100
AcDbEntity
  8
0
100
AcDbLine
 10
36.3023636775893
 20
-21.37428279941016
 30
0.0
 11
36.3648636775893
 21
-21.4367748239169
 31
0.0
  0
LINE
  5
29B
330
265
100
AcDbEntity
  8
0
100
AcDbLine
 10
36.3648636775893
 20
-21.31220755084458
 30
0.0
 11
36.3648636775893
 21
-21.18677482391689
 31
0.0
  0
LINE
  5
29C
330
265
100
AcDbEntity
  8
0
100
AcDbLine
 10
36.3648636775893
 20
-21.56220755084459
 30
0.0
 11
36.3648636775893
 21
-21.4367748239169
 31
0.0
  0
LINE
  5
29D
330
265
100
AcDbEntity
  8
0
100
AcDbLine
 10
36.3648636775893
 20
-21.8122075508446
 30
0.0
 11
36.3648636775893
 21
-21.68677482391691
 31
0.0
  0
LINE
  5
29E
330
265
100
AcDbEntity
  8
0
100
AcDbLine
 10
36.3648636775893
 20
-21.93677482391692
 30
0.0
 11
36.40955514002938
 21
-22.01513959678094
 31
0.0
  0
LINE
  5
29F
330
265
100
AcDbEntity
  8
0
100
AcDbLine
 10
36.40955514002938
 20
-22.01513959678094
 30
0.0
 11
36.36166319209618
 21
-22.06339295053903
 31
0.0
  0
LINE
  5
2A0
330
265
100
AcDbEntity
  8
0
100
AcDbLine
 10
36.3023636775893
 20
-21.12428279941016
 30
0.0
 11
36.3648636775893
 21
-21.18677482391689
 31
0.0
  0
LINE
  5
2A1
330
265
100
AcDbEntity
  8
0
100
AcDbLine
 10
36.3648636775893
 20
-21.18677482391689
 30
0.0
 11
36.61486367758931
 21
-21.12427482391689
 31
0.0
  0
LINE
  5
2A2
330
265
100
AcDbEntity
  8
0
100
AcDbLine
 10
36.3648636775893
 20
-21.31220755084458
 30
0.0
 11
36.61486367758931
 21
-21.24970755084458
 31
0.0
  0
LINE
  5
2A3
330
265
100
AcDbEntity
  8
0
100
AcDbLine
 10
36.3648636775893
 20
-21.4367748239169
 30
0.0
 11
36.61486367758931
 21
-21.37427482391689
 31
0.0
  0
LINE
  5
2A4
330
265
100
AcDbEntity
  8
0
100
AcDbLine
 10
36.3648636775893
 20
-21.56220755084459
 30
0.0
 11
36.61486367758931
 21
-21.49970755084459
 31
0.0
  0
LINE
  5
2A5
330
265
100
AcDbEntity
  8
0
100
AcDbLine
 10
36.3648636775893
 20
-21.68677482391691
 30
0.0
 11
36.61486367758931
 21
-21.6242748239169
 31
0.0
  0
LINE
  5
2A6
330
265
100
AcDbEntity
  8
0
100
AcDbLine
 10
36.3648636775893
 20
-21.8122075508446
 30
0.0
 11
36.61486367758931
 21
-21.74970755084459
 31
0.0
  0
LINE
  5
2A7
330
265
100
AcDbEntity
  8
0
100
AcDbLine
 10
36.3648636775893
 20
-21.93677482391692
 30
0.0
 11
36.61486367758931
 21
-21.87427482391691
 31
0.0
  0
LINE
  5
2A8
330
265
100
AcDbEntity
  8
0
100
AcDbLine
 10
36.36166319209618
 20
-22.06339295053903
 30
0.0
 11
36.45266116609978
 21
-22.09072436750993
 31
0.0
  0
LINE
  5
2A9
330
265
100
AcDbEntity
  8
0
100
AcDbLine
 10
36.40955514002938
 20
-22.01513959678094
 30
0.0
 11
36.57223315183905
 21
-21.97034108586645
 31
0.0
  0
LINE
  5
2AA
330
265
100
AcDbEntity
  8
0
100
AcDbLine
 10
36.36166319209618
 20
-22.06339295053903
 30
0.0
 11
36.61806416308243
 21
-22.01651795053903
 31
0.0
  0
LINE
  5
2AB
330
265
100
AcDbEntity
  8
0
100
AcDbLine
 10
36.3648636775893
 20
-20.56220755084456
 30
0.0
 11
36.61486367758931
 21
-20.49970755084456
 31
0.0
  0
LINE
  5
2AC
330
265
100
AcDbEntity
  8
0
100
AcDbLine
 10
36.3648636775893
 20
-20.68677482391688
 30
0.0
 11
36.61486367758931
 21
-20.62427482391687
 31
0.0
  0
LINE
  5
2AD
330
265
100
AcDbEntity
  8
0
100
AcDbLine
 10
36.3648636775893
 20
-20.81220755084457
 30
0.0
 11
36.61486367758931
 21
-20.74970755084457
 31
0.0
  0
LINE
  5
2AE
330
265
100
AcDbEntity
  8
0
100
AcDbLine
 10
36.3648636775893
 20
-20.93677482391688
 30
0.0
 11
36.61486367758931
 21
-20.87427482391688
 31
0.0
  0
LINE
  5
2AF
330
265
100
AcDbEntity
  8
0
100
AcDbLine
 10
36.3648636775893
 20
-21.06220755084458
 30
0.0
 11
36.61486367758931
 21
-20.99970755084457
 31
0.0
  0
LINE
  5
2B0
330
265
100
AcDbEntity
  8
0
100
AcDbLine
 10
36.3648636775893
 20
-20.48364982391687
 30
0.0
 11
36.61486367758931
 21
-20.48364982391687
 31
0.0
  0
LINE
  5
2B1
330
265
100
AcDbEntity
  8
0
100
AcDbLine
 10
36.6773636775893
 20
-20.42115779941013
 30
0.0
 11
36.6773636775893
 21
-19.53095755084453
 31
0.0
  0
LINE
  5
2B2
330
265
100
AcDbEntity
  8
0
100
AcDbLine
 10
36.86486367758931
 20
-19.53095755084453
 30
0.0
 11
36.86486367758931
 21
-19.26533255084453
 31
0.0
  0
ENDBLK
  5
2B3
330
265
100
AcDbEntity
  8
0
100
AcDbBlockEnd
  0
ENDSEC
  0
SECTION
  2
ENTITIES
  0
MTEXT
  5
32
102
{ACAD_REACTORS
330
1B7
102
}
330
2
100
AcDbEntity
  8
0
  6
Continuous
100
AcDbMText
 10
133.7206483803663
 20
-55.10200658672421
 30
0.0
 40
0.1875
 41
4.4125
 71
     3
 72
     1
  1
EPDM SETTING BLOCK
 73
     1
 44
1.0
1001
ACAD
1000
MTEXTBEGIN
1070
    73
1070
     1
1070
    44
1040
1.0
1070
    74
1070
     0
1000
MTEXTEND
  0
MTEXT
  5
33
102
{ACAD_REACTORS
330
1B8
102
}
330
2
100
AcDbEntity
  8
0
  6
Continuous
100
AcDbMText
 10
133.7206483803663
 20
-54.81102161815115
 30
0.0
 40
0.1875
 41
4.4125
 71
     3
 72
     1
  1
EPDM GLAZING GASKET
 73
     1
 44
1.0
1001
ACAD
1000
MTEXTBEGIN
1070
    73
1070
     1
1070
    44
1040
1.0
1070
    74
1070
     0
1000
MTEXTEND
  0
MTEXT
  5
34
102
{ACAD_REACTORS
330
1B9
102
}
330
2
100
AcDbEntity
  8
0
  6
Continuous
100
AcDbMText
 10
133.7206483803663
 20
-53.98403460068177
 30
0.0
 40
0.1875
 41
4.4125
 71
     3
 72
     1
  1
SILICONE SEAL
 73
     1
 44
1.0
1001
ACAD
1000
MTEXTBEGIN
1070
    73
1070
     1
1070
    44
1040
1.0
1070
    74
1070
     0
1000
MTEXTEND
  0
MTEXT
  5
35
102
{ACAD_REACTORS
330
1BA
102
}
330
2
100
AcDbEntity
  8
0
  6
Continuous
100
AcDbMText
 10
133.7206483803663
 20
-53.51706267268141
 30
0.0
 40
0.1875
 41
4.4125
 71
     3
 72
     1
  1
ALUMINUM SNAP CAP BEYOND
 73
     1
 44
1.0
1001
ACAD
1000
MTEXTBEGIN
1070
    73
1070
     1
1070
    44
1040
1.0
1070
    74
1070
     0
1000
MTEXTEND
  0
TEXT
  5
36
330
2
100
AcDbEntity
  8
0
  6
Continuous
100
AcDbText
 10
131.9464969861298
 20
-58.03683341532527
 30
0.0
 40
0.1082863998362349
  1
-800-972-9112-
100
AcDbText
  0
MTEXT
  5
37
102
{ACAD_REACTORS
330
1BB
102
}
330
2
100
AcDbEntity
  8
0
  6
Continuous
100
AcDbMText
 10
133.7206483803663
 20
-57.70902562427927
 30
0.0
 40
0.1875
 41
4.4125
 71
     3
 72
     1
  1
INTER-SKY SILL
 73
     1
 44
1.0
1001
ACAD
1000
MTEXTBEGIN
1070
    73
1070
     1
1070
    44
1040
1.0
1070
    74
1070
     0
1000
MTEXTEND
  0
MTEXT
  5
38
102
{ACAD_REACTORS
330
154
102
}
330
2
100
AcDbEntity
  8
0
  6
Continuous
100
AcDbMText
 10
133.7206483803663
 20
-58.63567800054712
 30
0.0
 40
0.1875
 41
4.4125
 71
     3
 72
     1
  1
WEEP HOLE
 73
     1
 44
1.0
1001
ACAD
1000
MTEXTBEGIN
1070
    73
1070
     1
1070
    44
1040
1.0
1070
    74
1070
     0
1000
MTEXTEND
  0
MTEXT
  5
39
102
{ACAD_REACTORS
330
157
102
}
330
2
100
AcDbEntity
  8
0
  6
Continuous
100
AcDbMText
 10
133.7206483803663
 20
-56.80279809694754
 30
0.0
 40
0.1875
 41
4.4125
 71
     3
 72
     1
  1
{\fArial|b0|i0|c0|p34;INTER-SKY RAFTER} BEYOND
 73
     1
 44
1.0
1001
ACAD
1000
MTEXTBEGIN
1070
    73
1070
     1
1070
    44
1040
1.0
1070
    74
1070
     0
1000
MTEXTEND
  0
MTEXT
  5
3A
102
{ACAD_REACTORS
330
158
102
}
330
2
100
AcDbEntity
  8
0
  6
Continuous
100
AcDbMText
 10
133.7206483803663
 20
-59.30902003683822
 30
0.0
 40
0.1875
 41
4.4125
 71
     3
 72
     1
  1
WORKPOINT
 73
     1
 44
1.0
1001
ACAD
1000
MTEXTBEGIN
1070
    73
1070
     1
1070
    44
1040
1.0
1070
    74
1070
     0
1000
MTEXTEND
  0
MTEXT
  5
3B
102
{ACAD_REACTORS
330
14D
102
}
330
2
100
AcDbEntity
  8
0
  6
Continuous
100
AcDbMText
 10
133.7206483803663
 20
-59.99323415667898
 30
0.0
 40
0.1875
 41
4.4125
 71
     3
 72
     1
  1
ANCHOR
 73
     1
 44
1.0
1001
ACAD
1000
MTEXTBEGIN
1070
    73
1070
     1
1070
    44
1040
1.0
1070
    74
1070
     0
1000
MTEXTEND
  0
MTEXT
  5
3C
102
{ACAD_REACTORS
330
14F
102
}
330
2
100
AcDbEntity
  8
0
  6
Continuous
100
AcDbMText
 10
133.7206483803663
 20
-60.57275334994985
 30
0.0
 40
0.1875
 41
4.4125
 71
     3
 72
     1
  1
SILL FLASHING
 73
     1
 44
1.0
1001
ACAD
1000
MTEXTBEGIN
1070
    73
1070
     1
1070
    44
1040
1.0
1070
    74
1070
     0
1000
MTEXTEND
  0
MTEXT
  5
3D
102
{ACAD_REACTORS
330
14E
102
}
330
2
100
AcDbEntity
  8
0
  6
Continuous
100
AcDbMText
 10
133.7206483803663
 20
-61.77562829803356
 30
0.0
 40
0.1875
 41
4.4125
 71
     3
 72
     1
  1
CURB BY OTHERS
 73
     1
 44
1.0
1001
ACAD
1000
MTEXTBEGIN
1070
    73
1070
     1
1070
    44
1040
1.0
1070
    74
1070
     0
1000
MTEXTEND
  0
TEXT
  5
3E
330
2
100
AcDbEntity
  8
0
  6
Continuous
100
AcDbText
 10
130.5640641300137
 20
-57.13515194585657
 30
0.0
 40
0.1082863998362349
  1
-800-972-9112-
100
AcDbText
  0
LINE
  5
143
330
2
100
AcDbEntity
  8
0
  6
Continuous
100
AcDbLine
 10
139.9379122258156
 20
-58.62522145252421
 30
0.0
 11
136.4379122258156
 21
-62.50046527209983
 31
0.0
  0
LINE
  5
144
330
2
100
AcDbEntity
  8
0
  6
Continuous
100
AcDbLine
 10
136.4379122258156
 20
-59.50046527209901
 30
0.0
 11
139.9379122258156
 21
-62.50046527209983
 31
0.0
  0
LINE
  5
145
330
2
100
AcDbEntity
  8
.050 Flashing
  6
Continuous
100
AcDbLine
 10
135.9379122258156
 20
-59.62550010346778
 30
0.0
 11
135.9379122258156
 21
-61.39396716297551
 31
0.0
  0
LINE
  5
147
330
2
100
AcDbEntity
  8
.050 Flashing
  6
Continuous
100
AcDbLine
 10
135.8879122258156
 20
-59.58646392138884
 30
0.0
 11
135.8879122258156
 21
-61.37325648485684
 31
0.0
  0
LINE
  5
148
330
2
100
AcDbEntity
  8
Curb
  6
DASHED2
370
    25
100
AcDbLine
 10
139.9379122258156
 20
-58.62522145252421
 30
0.0
 11
139.9379122258156
 21
-62.50046527209983
 31
0.0
  0
LINE
  5
14C
330
2
100
AcDbEntity
  8
Curb
  6
DASHED2
370
    25
100
AcDbLine
 10
136.4379122258156
 20
-59.50046527209901
 30
0.0
 11
136.4379122258156
 21
-62.50046527209983
 31
0.0
  0
LEADER
  5
14D
330
2
100
AcDbEntity
  8
0
  6
Continuous
100
AcDbLeader
  3
STANDARD
 73
     0
 40
0.1940228512960436
 41
2.087824010914051
 76
     2
 10
138.0646741204271
 20
-60.08698415667898
 30
0.0
 10
133.8106483803663
 20
-60.08698415667898
 30
0.0
340
3B
213
0.0
223
-0.09375
233
0.0
1001
ACAD
1000
DSTYLE
1002
{
1070
   147
1040
0.09
1070
    77
1070
     0
1002
}
  0
LEADER
  5
14E
330
2
100
AcDbEntity
  8
0
  6
Continuous
100
AcDbLeader
  3
STANDARD
 73
     0
 40
0.1940228512960437
 41
2.301927012278308
 76
     2
 10
136.4379122258156
 20
-61.86937829803357
 30
0.0
 10
133.8106483803663
 20
-61.86937829803357
 30
0.0
340
3D
213
0.0
223
-0.09375
233
0.0
1001
ACAD
1000
DSTYLE
1002
{
1070
   147
1040
0.09
1070
    77
1070
     0
1002
}
  0
LEADER
  5
14F
330
2
100
AcDbEntity
  8
0
  6
Continuous
100
AcDbLeader
  3
STANDARD
 73
     0
 40
0.1938949522510232
 41
2.463975102319235
 76
     2
 10
135.8879122258156
 20
-60.66650334994985
 30
0.0
 10
133.8106483803663
 20
-60.66650334994985
 30
0.0
340
3C
213
0.0
223
-0.09375
233
0.0
1001
ACAD
1000
DSTYLE
1002
{
1070
   147
1040
0.09
1070
    77
1070
     0
1002
}
  0
LINE
  5
150
330
2
100
AcDbEntity
  8
.050 Flashing
  6
Continuous
100
AcDbLine
 10
135.711135530519
 20
-61.55003318015349
 30
0.0
 11
135.8879122258156
 21
-61.37325648485684
 31
0.0
  0
LINE
  5
151
330
2
100
AcDbEntity
  8
.050 Flashing
  6
Continuous
100
AcDbLine
 10
135.7464908695783
 20
-61.58538851921282
 30
0.0
 11
135.9379122258156
 21
-61.39396716297551
 31
0.0
  0
LINE
  5
152
330
2
100
AcDbEntity
  8
.050 Flashing
  6
Continuous
100
AcDbLine
 10
135.711135530519
 20
-61.55003318015349
 30
0.0
 11
135.7464908695783
 21
-61.58538851921282
 31
0.0
  0
LINE
  5
153
330
2
100
AcDbEntity
  8
Curb
  6
DASHED2
370
    25
100
AcDbLine
 10
136.4379122258156
 20
-62.50046527209983
 30
0.0
 11
139.9379122258156
 21
-62.50046527209983
 31
0.0
  0
LEADER
  5
154
330
2
100
AcDbEntity
  8
0
  6
Continuous
100
AcDbLeader
  3
STANDARD
 73
     0
 40
0.1940228512960437
 41
2.044722032742155
 76
     2
 10
136.2862153745388
 20
-58.72942800054712
 30
0.0
 10
133.8106483803663
 20
-58.72942800054712
 30
0.0
340
38
213
0.0
223
-0.09375
233
0.0
1001
ACAD
1000
DSTYLE
1002
{
1070
   147
1040
0.09
1070
    77
1070
     0
1002
}
  0
LINE
  5
155
330
2
100
AcDbEntity
  8
3
  6
Continuous
100
AcDbLine
 10
136.3347737618912
 20
-58.57277326649704
 30
0.0
 11
136.2135079373299
 21
-58.60309817034646
 31
0.0
  0
LEADER
  5
157
330
2
100
AcDbEntity
  8
0
  6
Continuous
100
AcDbLeader
  3
STANDARD
 73
     0
 40
0.1940228512960437
 41
3.658296384720327
 76
     2
 10
137.2286713397897
 20
-56.89654809694754
 30
0.0
 10
133.8106483803663
 20
-56.89654809694754
 30
0.0
340
39
213
0.0
223
-0.09375
233
0.0
1001
ACAD
1000
DSTYLE
1002
{
1070
   147
1040
0.09
1070
    77
1070
     0
1002
}
  0
LEADER
  5
158
330
2
100
AcDbEntity
  8
0
  6
Continuous
100
AcDbLeader
  3
STANDARD
 73
     0
 40
0.1940228512960437
 41
1.606795702592087
 76
     2
 10
136.3607078007716
 20
-59.40277003683822
 30
0.0
 10
133.8106483803663
 20
-59.40277003683822
 30
0.0
340
3A
213
0.0
223
-0.09375
233
0.0
1001
ACAD
1000
DSTYLE
1002
{
1070
   147
1040
0.09
1070
    77
1070
     0
1002
}
  0
LINE
  5
159
330
2
100
AcDbEntity
  8
.050 Flashing
  6
Continuous
100
AcDbLine
 10
139.833355313531
 20
-58.65136796431591
 30
0.0
 11
135.9379122258156
 21
-59.62550010346778
 31
0.0
  0
LINE
  5
15A
330
2
100
AcDbEntity
  8
.050 Flashing
  6
Continuous
100
AcDbLine
 10
139.7727190221667
 20
-58.61499159603117
 30
0.0
 11
135.8879122258156
 21
-59.58646392138884
 31
0.0
  0
INSERT
  5
15B
330
2
100
AcDbEntity
  8
0
  6
Continuous
 62
     0
100
AcDbBlockReference
  2
S4
 10
116.3412499858468
 20
-13.72111771323328
 30
0.0
 50
14.04
  0
LINE
  5
17C
330
2
100
AcDbEntity
  8
Glazing
  6
Continuous
100
AcDbLine
 10
138.1850158471962
 20
-54.12085913816614
 30
0.0
 11
134.9108385840423
 21
-54.93963154210175
 31
0.0
  0
LINE
  5
17E
330
2
100
AcDbEntity
  8
Glazing
  6
Continuous
100
AcDbLine
 10
137.9424166164008
 20
-53.15073254167604
 30
0.0
 11
134.6682393532469
 21
-53.96950494561164
 31
0.0
  0
LINE
  5
17F
330
2
100
AcDbEntity
  8
Glazing
  6
Continuous
100
AcDbLine
 10
138.1243660394973
 20
-53.87832748904362
 30
0.0
 11
134.8501887763434
 21
-54.69709989297924
 31
0.0
  0
LINE
  5
180
330
2
100
AcDbEntity
  8
Glazing
  6
Continuous
100
AcDbLine
 10
138.0030664240996
 20
-53.39326419079856
 30
0.0
 11
134.7288891609459
 21
-54.21203659473414
 31
0.0
  0
LINE
  5
181
330
2
100
AcDbEntity
  8
Glazing
  6
Continuous
100
AcDbLine
 10
138.1510519548851
 20
-53.98504141465847
 30
0.0
 11
134.8768746917309
 21
-54.80381381859297
 31
0.0
  0
LINE
  5
182
330
2
100
AcDbEntity
  8
Glazing
  6
Continuous
100
AcDbLine
 10
138.1583299318089
 20
-54.01414521255317
 30
0.0
 11
134.8841526686548
 21
-54.83291761648766
 31
0.0
  0
LINE
  5
183
330
2
100
AcDbEntity
  8
0
  6
Continuous
100
AcDbLine
 10
137.8059545490783
 20
-52.60503633115034
 30
0.0
 11
134.1679798122408
 21
-53.51478344663437
 31
0.0
  0
LINE
  5
184
330
2
100
AcDbEntity
  8
0
  6
Continuous
100
AcDbLine
 10
137.9120917125513
 20
-53.02946671711476
 30
0.0
 11
134.2741169757138
 21
-53.93921383259878
 31
0.0
  0
LINE
  5
185
330
2
100
AcDbEntity
  8
0
  6
Continuous
100
AcDbLine
 10
137.9193729035819
 20
-53.05858336785473
 30
0.0
 11
134.281398166744
 21
-53.9683304833375
 31
0.0
  0
LINE
  5
186
330
2
100
AcDbEntity
  8
0
  6
Continuous
100
AcDbLine
 10
137.9266540946121
 20
-53.08770001859348
 30
0.0
 11
134.2886793577742
 21
-53.99744713407625
 31
0.0
  0
LINE
  5
187
330
2
100
AcDbEntity
  8
0
  6
Continuous
100
AcDbLine
 10
137.9339352856424
 20
-53.11681666933228
 30
0.0
 11
134.2959605488045
 21
-54.02656378481502
 31
0.0
  0
LINE
  5
188
330
2
100
AcDbEntity
  8
0
  6
Continuous
100
AcDbLine
 10
135.4250266464084
 20
-54.93479852965916
 30
0.0
 11
138.2141406113174
 21
-54.23732574112237
 31
0.0
  0
LINE
  5
189
330
2
100
AcDbEntity
  8
0
  6
Continuous
100
AcDbLine
 10
138.1922970382267
 20
-54.14997578890593
 30
0.0
 11
135.4031830733176
 21
-54.84744857744273
 31
0.0
  0
LINE
  5
18A
330
2
100
AcDbEntity
  8
0
  6
Continuous
100
AcDbLine
 10
138.1995782292569
 20
-54.1790924396447
 30
0.0
 11
135.4104642643478
 21
-54.8765652281815
 31
0.0
  0
LINE
  5
18B
330
2
100
AcDbEntity
  8
0
  6
Continuous
100
AcDbLine
 10
138.2068594202872
 20
-54.20820909038347
 30
0.0
 11
135.4177454553781
 21
-54.90568187892026
 31
0.0
  0
INSERT
  5
18C
330
2
100
AcDbEntity
  8
0
  6
Continuous
100
AcDbBlockReference
  2
work point
 10
135.5998135026014
 20
28.7493395549637
 30
0.0
  0
LEADER
  5
1B5
330
2
100
AcDbEntity
  8
0
  6
Continuous
100
AcDbLeader
  3
STANDARD
 73
     0
 40
0.1938949522510232
 41
1.119500341064119
 76
     2
 10
135.5068628204208
 20
-54.48062069299256
 30
0.0
 10
133.8106483803663
 20
-54.48062069299256
 30
0.0
340
1B6
213
0.0
223
-0.09375
233
0.0
1001
ACAD
1000
DSTYLE
1002
{
1070
   147
1040
0.09
1070
    77
1070
     0
1002
}
  0
MTEXT
  5
1B6
102
{ACAD_REACTORS
330
1B5
102
}
330
2
100
AcDbEntity
  8
0
  6
Continuous
100
AcDbMText
 10
133.7206483803663
 20
-54.38687069299255
 30
0.0
 40
0.1875
 41
4.4125
 71
     3
 72
     1
  1
GLAZING
 73
     1
 44
1.0
1001
ACAD
1000
MTEXTBEGIN
1070
    73
1070
     1
1070
    44
1040
1.0
1070
    74
1070
     0
1000
MTEXTEND
  0
LEADER
  5
1B7
330
2
100
AcDbEntity
  8
0
  6
Continuous
100
AcDbLeader
  3
STANDARD
 73
     0
 40
0.1940228512960437
 41
2.904203615279672
 76
     2
 10
134.8271088874921
 20
-55.19575658672422
 30
0.0
 10
133.8106483803663
 20
-55.19575658672422
 30
0.0
340
32
213
0.0
223
-0.09375
233
0.0
1001
ACAD
1000
DSTYLE
1002
{
1070
   147
1040
0.09
1070
    77
1070
     0
1002
}
  0
LEADER
  5
1B8
330
2
100
AcDbEntity
  8
0
  6
Continuous
100
AcDbLeader
  3
STANDARD
 73
     0
 40
0.1938949522510232
 41
3.088761937244202
 76
     2
 10
135.3261023201737
 20
-54.90477161815114
 30
0.0
 10
133.8106483803663
 20
-54.90477161815114
 30
0.0
340
33
213
0.0
223
-0.09375
233
0.0
1001
ACAD
1000
DSTYLE
1002
{
1070
   147
1040
0.09
1070
    77
1070
     0
1002
}
  0
LEADER
  5
1B9
330
2
100
AcDbEntity
  8
0
  6
Continuous
100
AcDbLeader
  3
STANDARD
 73
     0
 40
0.1940228512960437
 41
1.94419338335607
 76
     2
 10
134.5761021063607
 20
-54.07778460068176
 30
0.0
 10
133.8106483803663
 20
-54.07778460068176
 30
0.0
340
34
213
0.0
223
-0.09375
233
0.0
1001
ACAD
1000
DSTYLE
1002
{
1070
   147
1040
0.09
1070
    77
1070
     0
1002
}
  0
LEADER
  5
1BA
330
2
100
AcDbEntity
  8
0
  6
Continuous
100
AcDbLeader
  3
STANDARD
 73
     0
 40
0.1940228512960437
 41
3.960266030013642
 76
     2
 10
134.9360090883288
 20
-53.6108126726814
 30
0.0
 10
133.8106483803663
 20
-53.6108126726814
 30
0.0
340
35
213
0.0
223
-0.09375
233
0.0
1001
ACAD
1000
DSTYLE
1002
{
1070
   147
1040
0.09
1070
    77
1070
     0
1002
}
  0
LEADER
  5
1BB
330
2
100
AcDbEntity
  8
0
  6
Continuous
100
AcDbLeader
  3
STANDARD
 73
     0
 40
0.1938949522510232
 41
1.975017053206002
 76
     2
 10
136.08590473294
 20
-57.80277562427928
 30
0.0
 10
133.8106483803663
 20
-57.80277562427928
 30
0.0
340
37
213
0.0
223
-0.09375
233
0.0
1001
ACAD
1000
DSTYLE
1002
{
1070
   147
1040
0.09
1070
    77
1070
     0
1002
}
  0
INSERT
  5
1BC
330
2
100
AcDbEntity
  8
0
  6
Continuous
 62
     0
100
AcDbBlockReference
  2
epdm
 10
132.7353665770818
 20
-60.9555854078631
 30
0.0
 41
-1.0
 50
14.04
  0
LINE
  5
229
330
2
100
AcDbEntity
  8
Glazing
  6
Continuous
100
AcDbLine
 10
134.9108385840423
 20
-54.93963154210175
 30
0.0
 11
134.6682393532469
 21
-53.96950494561164
 31
0.0
  0
LINE
  5
22A
330
2
100
AcDbEntity
  8
Glazing
  6
Continuous
100
AcDbLine
 10
135.3352520745885
 20
-54.57580027758135
 30
0.0
 11
135.2139524591908
 21
-54.09073697933632
 31
0.0
  0
LINE
  5
22B
330
2
100
AcDbEntity
  8
0
  6
Continuous
100
AcDbLine
 10
134.7288891609459
 20
-54.21203659473414
 30
0.0
 11
135.3352520745885
 21
-54.57580027758135
 31
0.0
  0
LINE
  5
22C
330
2
100
AcDbEntity
  8
0
  6
Continuous
100
AcDbLine
 10
135.2139524591908
 20
-54.0907369793363
 30
0.0
 11
134.8501887763435
 21
-54.69709989297922
 31
0.0
  0
LINE
  5
22D
330
2
100
AcDbEntity
  8
0
  6
Continuous
100
AcDbLine
 10
134.3032417398347
 20
-54.05568043555378
 30
0.0
 11
134.1679798122408
 21
-53.51478344663437
 31
0.0
  0
LINE
  5
22E
330
2
100
AcDbEntity
  8
Glazing
  6
Continuous
100
AcDbLine
 10
134.424507564396
 20
-54.02535553170436
 30
0.0
 11
134.6682393532469
 21
-53.96950494561164
 31
0.0
  0
ARC
  5
22F
330
2
100
AcDbEntity
  8
Glazing
  6
Continuous
100
AcDbCircle
 10
134.3892977668658
 20
-53.31195239386353
 30
0.0
 40
0.714271493847572
100
AcDbArc
 50
272.8255232541669
 51
292.9872323501831
  0
ARC
  5
230
330
2
100
AcDbEntity
  8
Glazing
  6
Continuous
100
AcDbCircle
 10
134.3892977668658
 20
-53.31195239386353
 30
0.0
 40
0.7342714938475721
100
AcDbArc
 50
273.1347792971474
 51
292.7416103690873
  0
ARC
  5
231
330
2
100
AcDbEntity
  8
Glazing
  6
Continuous
100
AcDbCircle
 10
134.3892977668658
 20
-53.31195239386353
 30
0.0
 40
0.7542714938475721
100
AcDbArc
 50
273.4273387619445
 51
292.5091625869027
  0
ARC
  5
232
330
2
100
AcDbEntity
  8
Glazing
  6
Continuous
100
AcDbCircle
 10
134.3892977668658
 20
-53.31195239386353
 30
0.0
 40
0.7742714938475722
100
AcDbArc
 50
273.7045256964818
 51
292.2888531099625
  0
ARC
  5
233
330
2
100
AcDbEntity
  8
Glazing
  6
Continuous
100
AcDbCircle
 10
134.3892977668658
 20
-53.31195239386353
 30
0.0
 40
0.7942714938475721
100
AcDbArc
 50
273.9675270219437
 51
292.0797522321363
  0
ARC
  5
234
330
2
100
AcDbEntity
  8
Glazing
  6
Continuous
100
AcDbCircle
 10
134.3892977668658
 20
-53.31195239386353
 30
0.0
 40
0.8142714938475721
100
AcDbArc
 50
274.21740992579
 51
291.8810231257257
  0
ARC
  5
235
330
2
100
AcDbEntity
  8
Glazing
  6
Continuous
100
AcDbCircle
 10
134.3892977668658
 20
-53.31195239386353
 30
0.0
 40
0.8342714938475721
100
AcDbArc
 50
274.4551366603043
 51
291.6919104911282
  0
ARC
  5
236
330
2
100
AcDbEntity
  8
Glazing
  6
Continuous
100
AcDbCircle
 10
134.3892977668658
 20
-53.31195239386353
 30
0.0
 40
0.8542714938475722
100
AcDbArc
 50
274.6815771892858
 51
291.5117308360374
  0
ARC
  5
237
330
2
100
AcDbEntity
  8
Glazing
  6
Continuous
100
AcDbCircle
 10
134.3892977668658
 20
-53.31195239386353
 30
0.0
 40
0.8742714938475721
100
AcDbArc
 50
274.8975200408722
 51
291.3398641168726
  0
ARC
  5
238
330
2
100
AcDbEntity
  8
Glazing
  6
Continuous
100
AcDbCircle
 10
134.3892977668658
 20
-53.31195239386353
 30
0.0
 40
0.8942714938475722
100
AcDbArc
 50
275.1036816577249
 51
291.1757465242306
  0
ARC
  5
239
330
2
100
AcDbEntity
  8
Glazing
  6
Continuous
100
AcDbCircle
 10
134.3892977668658
 20
-53.31195239386353
 30
0.0
 40
0.9142714938475721
100
AcDbArc
 50
275.3007144827793
 51
291.0188642333052
  0
ARC
  5
23A
330
2
100
AcDbEntity
  8
Glazing
  6
Continuous
100
AcDbCircle
 10
134.3892977668658
 20
-53.31195239386353
 30
0.0
 40
0.9342714938475722
100
AcDbArc
 50
275.489213976407
 51
290.8687479716183
  0
ARC
  5
23B
330
2
100
AcDbEntity
  8
Glazing
  6
Continuous
100
AcDbCircle
 10
134.3892977668658
 20
-53.31195239386353
 30
0.0
 40
0.9542714938475722
100
AcDbArc
 50
275.6697247267911
 51
290.7249682817399
  0
LINE
  5
23C
330
2
100
AcDbEntity
  8
Glazing
  6
Continuous
100
AcDbLine
 10
134.7430403544303
 20
-55.29913175289587
 30
0.0
 11
134.9855720035529
 21
-55.238481945197
 31
0.0
  0
LINE
  5
23D
330
2
100
AcDbEntity
  8
Glazing
  6
Continuous
100
AcDbLine
 10
134.9855720035529
 20
-55.238481945197
 30
0.0
 11
134.7288891609454
 21
-54.21203659473426
 31
0.0
  0
LINE
  5
23E
330
2
100
AcDbEntity
  8
Glazing
  6
Continuous
100
AcDbLine
 10
134.7288891609454
 20
-54.21203659473426
 30
0.0
 11
134.4863575118233
 21
-54.27268640243301
 31
0.0
  0
LINE
  5
23F
330
2
100
AcDbEntity
  8
Glazing
  6
Continuous
100
AcDbLine
 10
134.4863575118233
 20
-54.27268640243301
 30
0.0
 11
134.7430403544303
 21
-55.29913175289587
 31
0.0
  0
LINE
  5
240
330
2
100
AcDbEntity
  8
0
  6
Continuous
100
AcDbLine
 10
134.4863575118233
 20
-54.27268640243301
 30
0.0
 11
134.9855720035529
 21
-55.238481945197
 31
0.0
  0
LINE
  5
241
330
2
100
AcDbEntity
  8
0
  6
Continuous
100
AcDbLine
 10
134.7430403544303
 20
-55.29913175289587
 30
0.0
 11
134.7288891609454
 21
-54.21203659473426
 31
0.0
  0
LINE
  5
242
330
2
100
AcDbEntity
  8
0
  6
Continuous
100
AcDbLine
 10
139.3209996018215
 20
-58.66352833760849
 30
0.0
 11
136.4106198123511
 21
-59.3913260299947
 31
0.0
  0
LINE
  5
254
330
2
100
AcDbEntity
  8
3
  6
Continuous
100
AcDbLine
 10
136.39542356959
 20
-58.81530491561957
 30
0.0
 11
136.2741577450287
 21
-58.84562981946899
 31
0.0
  0
LINE
  5
255
330
2
100
AcDbEntity
  8
Curb
  6
DASHED2
370
    25
100
AcDbLine
 10
139.9379122258156
 20
-58.62522145252421
 30
0.0
 11
136.4379122258156
 21
-59.50046527209901
 31
0.0
  0
LINE
  5
256
330
2
100
AcDbEntity
  8
.050 Flashing
  6
Continuous
100
AcDbLine
 10
139.7727190221667
 20
-58.61499159603117
 30
0.0
 11
139.651419406769
 21
-58.12992829778614
 31
0.0
  0
LINE
  5
257
330
2
100
AcDbEntity
  8
.050 Flashing
  6
Continuous
100
AcDbLine
 10
139.833355313531
 20
-58.65136796431591
 30
0.0
 11
139.6999257365935
 21
-58.11779833624635
 31
0.0
  0
LINE
  5
258
330
2
100
AcDbEntity
  8
.050 Flashing
  6
Continuous
100
AcDbLine
 10
139.6999257365935
 20
-58.11779833624635
 30
0.0
 11
139.651419406769
 21
-58.12992829778614
 31
0.0
  0
LINE
  5
259
330
2
100
AcDbEntity
  8
0
  6
Continuous
100
AcDbLine
 10
139.2451873421979
 20
-58.36036377620532
 30
0.0
 11
138.5359426033863
 21
-55.52417512760182
 31
0.0
  0
LINE
  5
25A
330
2
100
AcDbEntity
  8
0
  6
Continuous
100
AcDbLine
 10
138.2120178310686
 20
-55.25934313833018
 30
0.0
 11
138.7784742525088
 21
-55.46352531990297
 31
0.0
  0
LINE
  5
25B
330
2
100
AcDbEntity
  8
0
  6
Continuous
100
AcDbLine
 10
138.7784742525088
 20
-55.46352531990297
 30
0.0
 11
138.5359426033863
 21
-55.52417512760182
 31
0.0
  0
LINE
  5
25C
330
2
100
AcDbEntity
  8
0
  6
Continuous
100
AcDbLine
 10
138.4545494801912
 20
-55.19869333063133
 30
0.0
 11
138.2120178310686
 21
-55.25934313833018
 31
0.0
  0
LINE
  5
25D
330
2
100
AcDbEntity
  8
0
  6
Continuous
100
AcDbLine
 10
138.4545494801912
 20
-55.19869333063133
 30
0.0
 11
137.7453047413795
 21
-52.36250468202782
 31
0.0
  0
LINE
  5
25E
330
2
100
AcDbEntity
  8
0
  6
Continuous
100
AcDbLine
 10
136.39542356959
 20
-58.81530491561957
 30
0.0
 11
139.1845375344991
 21
-58.11783212708279
 31
0.0
  0
LINE
  5
25F
330
2
100
AcDbEntity
  8
0
  6
Continuous
100
AcDbLine
 10
136.3044488580417
 20
-58.45150744193583
 30
0.0
 11
139.0935628229508
 21
-57.75403465339903
 31
0.0
  0
INSERT
  5
2BB
330
2
100
AcDbEntity
  8
Text
  6
Continuous
100
AcDbBlockReference
  2
ANCHOR
 10
97.71287359183032
 20
-48.87165352420726
 30
0.0
 50
14.04
  0
ARC
  5
2BD
330
2
100
AcDbEntity
  8
5
  6
Continuous
100
AcDbCircle
 10
137.8548079977236
 20
-58.98254512137672
 30
0.0
 40
0.5162897113074624
100
AcDbArc
 50
15.84806746899253
 51
192.2319325310061
  0
ARC
  5
2BE
330
2
100
AcDbEntity
  8
5
  6
Continuous
100
AcDbCircle
 10
137.8548079977236
 20
-58.98254512137672
 30
0.0
 40
0.4962897113074624
100
AcDbArc
 50
15.84806746899253
 51
192.2319325310061
  0
ARC
  5
2BF
330
2
100
AcDbEntity
  8
5
  6
Continuous
100
AcDbCircle
 10
137.8548079977236
 20
-58.98254512137672
 30
0.0
 40
0.4762897113074624
100
AcDbArc
 50
15.84806746899253
 51
192.2319325310061
  0
ARC
  5
2C0
330
2
100
AcDbEntity
  8
5
  6
Continuous
100
AcDbCircle
 10
137.8548079977236
 20
-58.98254512137672
 30
0.0
 40
0.4562897113074623
100
AcDbArc
 50
15.84806746899253
 51
48.7699575914087
  0
ARC
  5
2C1
330
2
100
AcDbEntity
  8
5
  6
Continuous
100
AcDbCircle
 10
137.8548079977236
 20
-58.98254512137672
 30
0.0
 40
0.4362897113074623
100
AcDbArc
 50
15.84806746899253
 51
44.77720014295143
  0
ARC
  5
2C2
330
2
100
AcDbEntity
  8
5
  6
Continuous
100
AcDbCircle
 10
137.8548079977236
 20
-58.98254512137672
 30
0.0
 40
0.4162897113074623
100
AcDbArc
 50
15.84806746899253
 51
39.77460216722032
  0
ARC
  5
2C3
330
2
100
AcDbEntity
  8
5
  6
Continuous
100
AcDbCircle
 10
137.8548079977236
 20
-58.98254512137672
 30
0.0
 40
0.3962897113074622
100
AcDbArc
 50
15.84806746899253
 51
32.90600049748155
  0
ARC
  5
2C4
330
2
100
AcDbEntity
  8
5
  6
Continuous
100
AcDbCircle
 10
137.8548079977236
 20
-58.98254512137672
 30
0.0
 40
0.3762897113074622
100
AcDbArc
 50
15.84806746899253
 51
18.78511599613633
  0
ARC
  5
2C5
330
2
100
AcDbEntity
  8
5
  6
Continuous
100
AcDbCircle
 10
137.8548079977236
 20
-58.98254512137672
 30
0.0
 40
0.3562897113074622
100
AcDbArc
 50
66.34260534913247
 51
141.7373946508667
  0
ARC
  5
2C6
330
2
100
AcDbEntity
  8
5
  6
Continuous
100
AcDbCircle
 10
137.8548079977236
 20
-58.98254512137672
 30
0.0
 40
0.3362897113074622
100
AcDbArc
 50
71.00198879504937
 51
137.0780112049513
  0
ARC
  5
2C7
330
2
100
AcDbEntity
  8
5
  6
Continuous
100
AcDbCircle
 10
137.8548079977236
 20
-58.98254512137672
 30
0.0
 40
0.3162897113074622
100
AcDbArc
 50
77.07933560879685
 51
131.0006643912033
  0
ARC
  5
2C8
330
2
100
AcDbEntity
  8
5
  6
Continuous
100
AcDbCircle
 10
137.8548079977236
 20
-58.98254512137672
 30
0.0
 40
0.2962897113074621
100
AcDbArc
 50
86.11929957886205
 51
121.9607004211381
  0
ARC
  5
2C9
330
2
100
AcDbEntity
  8
5
  6
Continuous
100
AcDbCircle
 10
137.8548079977236
 20
-58.98254512137672
 30
0.0
 40
0.4362897113074623
100
AcDbArc
 50
163.3027998570292
 51
192.2319325310061
  0
ARC
  5
2CA
330
2
100
AcDbEntity
  8
5
  6
Continuous
100
AcDbCircle
 10
137.8548079977236
 20
-58.98254512137672
 30
0.0
 40
0.4562897113074623
100
AcDbArc
 50
159.3100424085761
 51
192.2319325310061
  0
ARC
  5
2CB
330
2
100
AcDbEntity
  8
5
  6
Continuous
100
AcDbCircle
 10
137.8548079977236
 20
-58.98254512137672
 30
0.0
 40
0.4162897113074623
100
AcDbArc
 50
168.3053978327567
 51
192.2319325310061
  0
ARC
  5
2CC
330
2
100
AcDbEntity
  8
5
  6
Continuous
100
AcDbCircle
 10
137.8548079977236
 20
-58.98254512137672
 30
0.0
 40
0.3962897113074622
100
AcDbArc
 50
175.1739995024904
 51
192.2319325310061
  0
ARC
  5
2CD
330
2
100
AcDbEntity
  8
5
  6
Continuous
100
AcDbCircle
 10
137.8548079977236
 20
-58.98254512137672
 30
0.0
 40
0.3762897113074622
100
AcDbArc
 50
189.2948840037656
 51
192.2319325310061
  0
ARC
  5
2CE
330
2
100
AcDbEntity
  8
5
  6
Continuous
100
AcDbCircle
 10
137.8548079977236
 20
-58.98254512137672
 30
0.0
 40
0.3762897113074622
100
AcDbArc
 50
62.56077274701259
 51
145.5192272529877
  0
ARC
  5
2CF
330
2
100
AcDbEntity
  8
5
  6
Continuous
100
AcDbCircle
 10
137.8548079977236
 20
-58.98254512137672
 30
0.0
 40
0.3962897113074622
100
AcDbArc
 50
59.38774664178875
 51
148.6922533582113
  0
ARC
  5
2D0
330
2
100
AcDbEntity
  8
5
  6
Continuous
100
AcDbCircle
 10
137.8548079977236
 20
-58.98254512137672
 30
0.0
 40
0.4162897113074623
100
AcDbArc
 50
56.66584754009597
 51
151.4141524599046
  0
ARC
  5
2D1
330
2
100
AcDbEntity
  8
5
  6
Continuous
100
AcDbCircle
 10
137.8548079977236
 20
-58.98254512137672
 30
0.0
 40
0.4362897113074623
100
AcDbArc
 50
54.29300547292471
 51
153.7869945270752
  0
ARC
  5
2D2
330
2
100
AcDbEntity
  8
5
  6
Continuous
100
AcDbCircle
 10
137.8548079977236
 20
-58.98254512137672
 30
0.0
 40
0.4562897113074623
100
AcDbArc
 50
52.19867880015087
 51
155.88132119985
  0
ENDSEC
  0
SECTION
  2
OBJECTS
  0
DICTIONARY
  5
9
330
0
100
AcDbDictionary
281
     1
  3
ACAD_COLOR
350
30
  3
ACAD_GROUP
350
2C
  3
ACAD_LAYOUT
350
D
  3
ACAD_MATERIAL
350
2F
  3
ACAD_MLINESTYLE
350
2D
  3
ACAD_PLOTSETTINGS
350
2E
  3
ACAD_PLOTSTYLENAME
350
8
  3
ACDBHEADERROUNDTRIPXREC
350
2E4
  3
AcDbVariableDictionary
350
2DF
  0
DICTIONARY
  5
15
330
14
100
AcDbDictionary
280
     1
281
     1
  3
ACAD_LAYERFILTERS
360
16
  3
ACAD_LAYERSTATES
360
1A
  0
DICTIONARY
  5
3
330
2
100
AcDbDictionary
280
     1
281
     1
  3
ACAD_LAYOUTSELFREF
360
4
  0
DICTIONARY
  5
F
330
E
100
AcDbDictionary
280
     1
281
     1
  3
ACAD_LAYOUTSELFREF
360
10
  0
DICTIONARY
  5
30
102
{ACAD_REACTORS
330
9
102
}
330
9
100
AcDbDictionary
281
     1
  0
DICTIONARY
  5
2C
102
{ACAD_REACTORS
330
9
102
}
330
9
100
AcDbDictionary
281
     1
  0
DICTIONARY
  5
D
102
{ACAD_REACTORS
330
9
102
}
330
9
100
AcDbDictionary
281
     1
  3
Layout1
350
13
  3
Model
350
C
  0
DICTIONARY
  5
2F
102
{ACAD_REACTORS
330
9
102
}
330
9
100
AcDbDictionary
281
     1
  0
DICTIONARY
  5
2D
102
{ACAD_REACTORS
330
9
102
}
330
9
100
AcDbDictionary
281
     1
  3
STANDARD
350
31
  0
DICTIONARY
  5
2E
102
{ACAD_REACTORS
330
9
102
}
330
9
100
AcDbDictionary
281
     1
  0
ACDBDICTIONARYWDFLT
  5
8
102
{ACAD_REACTORS
330
9
102
}
330
9
100
AcDbDictionary
281
     1
  3
Normal
350
7
100
AcDbDictionaryWithDefault
340
7
  0
DICTIONARY
  5
2E4
102
{ACAD_REACTORS
330
9
102
}
330
9
100
AcDbDictionary
281
     1
  3
COLORDICT
350
2E6
  3
MATERIALDICT
350
2E5
  0
DICTIONARY
  5
2DF
102
{ACAD_REACTORS
330
9
102
}
330
9
100
AcDbDictionary
281
     1
  3
DIMASSOC
350
2E1
  3
HIDETEXT
350
2E0
  3
PROJECTNAME
350
2E2
  0
DICTIONARY
  5
16
102
{ACAD_REACTORS
330
15
102
}
330
15
100
AcDbDictionary
280
     1
281
     1
  3
clg
360
17
  3
Roof
360
18
  3
sk
360
19
  0
DICTIONARY
  5
1A
102
{ACAD_REACTORS
330
15
102
}
330
15
100
AcDbDictionary
281
     1
  0
XRECORD
  5
4
102
{ACAD_REACTORS
330
3
102
}
330
3
100
AcDbXrecord
280
     1
340
2
  0
XRECORD
  5
10
102
{ACAD_REACTORS
330
F
102
}
330
F
100
AcDbXrecord
280
     1
340
E
  0
LAYOUT
  5
13
102
{ACAD_XDICTIONARY
360
2E9
102
}
102
{ACAD_REACTORS
330
D
102
}
330
D
100
AcDbPlotSettings
  1

  2
HP DesignJet 430 Plotter
  4

  6

 40
0.0
 41
0.0
 42
0.0
 43
0.0
 44
0.0
 45
0.0
 46
0.0
 47
0.0
 48
0.0
 49
0.0
140
0.0
141
0.0
142
1.0
143
1.0
 70
   688
 72
     0
 73
     0
 74
     5
  7
acad.ctb
 75
    16
147
1.0
148
0.0
149
0.0
100
AcDbLayout
  1
Layout1
 70
     1
 71
     1
 10
0.0
 20
0.0
 11
11.0
 21
8.5
 12
0.0
 22
0.0
 32
0.0
 14
0.0
 24
0.0
 34
0.0
 15
11.0
 25
8.5
 35
0.0
146
0.0
 13
0.0
 23
0.0
 33
0.0
 16
1.0
 26
0.0
 36
0.0
 17
0.0
 27
1.0
 37
0.0
 76
     0
330
E
  0
LAYOUT
  5
C
102
{ACAD_XDICTIONARY
360
2E7
102
}
102
{ACAD_REACTORS
330
D
102
}
330
D
100
AcDbPlotSettings
  1

  2
Brother MFC9700
  4
Letter
  6

 40
7.143749713897705
 41
5.027085304260253
 42
7.14373779296875
 43
5.027069091796875
 44
215.8999938964844
 45
279.3999938964844
 46
17.272
 47
0.0
 48
0.0
 49
0.0
140
0.0
141
0.0
142
1.0
143
0.1454883688845959
 70
 11956
 72
     0
 73
     1
 74
     0
  7
acad.ctb
 75
     0
147
6.873401686104671
148
-475.9428163058331
149
1456.585280992969
100
AcDbLayout
  1
Model
 70
     1
 71
     0
 10
0.0
 20
0.0
 11
12.0
 21
9.0
 12
0.0
 22
0.0
 32
0.0
 14
0.0
 24
0.0
 34
0.0
 15
0.0
 25
0.0
 35
0.0
146
0.0
 13
0.0
 23
0.0
 33
0.0
 16
1.0
 26
0.0
 36
0.0
 17
0.0
 27
1.0
 37
0.0
 76
     0
330
2
  0
MLINESTYLE
  5
31
102
{ACAD_REACTORS
330
2D
102
}
330
2D
100
AcDbMlineStyle
  2
STANDARD
 70
     0
  3

 62
   256
 51
90.0
 52
90.0
 71
     2
 49
0.5
 62
   256
  6
BYLAYER
 49
-0.5
 62
   256
  6
BYLAYER
  0
ACDBPLACEHOLDER
  5
7
102
{ACAD_REACTORS
330
8
102
}
330
8
  0
XRECORD
  5
2E6
102
{ACAD_REACTORS
330
2E4
102
}
330
2E4
100
AcDbXrecord
280
     1
340
30
  0
XRECORD
  5
2E5
102
{ACAD_REACTORS
330
2E4
102
}
330
2E4
100
AcDbXrecord
280
     1
340
2F
  0
DICTIONARYVAR
  5
2E1
102
{ACAD_REACTORS
330
2DF
102
}
330
2DF
100
DictionaryVariables
280
     0
  1
1
  0
DICTIONARYVAR
  5
2E0
102
{ACAD_REACTORS
330
2DF
102
}
330
2DF
100
DictionaryVariables
280
     0
  1
1
  0
DICTIONARYVAR
  5
2E2
102
{ACAD_REACTORS
330
2DF
102
}
330
2DF
100
DictionaryVariables
280
     0
  1

  0
XRECORD
  5
17
102
{ACAD_REACTORS
330
16
102
}
330
16
100
AcDbXrecord
280
     1
  1
clg
  1
a-c*
  1
*
  1
*
 70
     0
  1
*
  1
*
  0
XRECORD
  5
18
102
{ACAD_REACTORS
330
16
102
}
330
16
100
AcDbXrecord
280
     1
  1
Roof
  1
a-roo*.*
  1
*
  1
*
 70
     0
  1
*
  1
*
  0
XRECORD
  5
19
102
{ACAD_REACTORS
330
16
102
}
330
16
100
AcDbXrecord
280
     1
  1
sk
  1
*sketch
  1
*
  1
*
 70
     0
  1
*
  1
*
  0
DICTIONARY
  5
2E9
330
13
100
AcDbDictionary
280
     1
281
     1
  3
ACAD_XREC_ROUNDTRIP
360
2EA
  0
DICTIONARY
  5
2E7
330
C
100
AcDbDictionary
280
     1
281
     1
  3
ACAD_XREC_ROUNDTRIP
360
2E8
  0
XRECORD
  5
2EA
102
{ACAD_REACTORS
330
2E9
102
}
330
2E9
100
AcDbXrecord
280
     1
102
SHADEPLOT
 70
     0
102
SHADEPLOTRESLEVEL
 70
     2
102
SHADEPLOTCUSTOMDPI
 70
   300
  0
XRECORD
  5
2E8
102
{ACAD_REACTORS
330
2E7
102
}
330
2E7
100
AcDbXrecord
280
     1
102
SHADEPLOT
 70
     0
102
SHADEPLOTRESLEVEL
 70
     2
102
SHADEPLOTCUSTOMDPI
 70
   300
  0
ENDSEC
  0
EOF
