  0
SECTION
  2
HEADER
  9
$ACADVER
  1
AC1015
  9
$ACADMAINTVER
 70
    20
  9
$DWGCODEPAGE
  3
ANSI_1252
  9
$INSBASE
 10
0.0
 20
0.0
 30
0.0
  9
$EXTMIN
 10
129.6976329368743
 20
-50.4462150249758
 30
-0.0015258207003583
  9
$EXTMAX
 10
140.4056402868656
 20
-40.36919853814743
 30
0.0000000349246037
  9
$LIMMIN
 10
0.0
 20
0.0
  9
$LIMMAX
 10
408.0
 20
264.0
  9
$ORTHOMODE
 70
     1
  9
$REGENMODE
 70
     1
  9
$FILLMODE
 70
     1
  9
$QTEXTMODE
 70
     0
  9
$MIRRTEXT
 70
     1
  9
$LTSCALE
 40
0.25
  9
$ATTMODE
 70
     1
  9
$TEXTSIZE
 40
0.1875
  9
$TRACEWID
 40
0.05
  9
$TEXTSTYLE
  7
STANDARD
  9
$CLAYER
  8
0
  9
$CELTYPE
  6
CONTINUOUS
  9
$CECOLOR
 62
   256
  9
$CELTSCALE
 40
1.0
  9
$DISPSILH
 70
     0
  9
$DIMSCALE
 40
1.0
  9
$DIMASZ
 40
0.125
  9
$DIMEXO
 40
0.0625
  9
$DIMDLI
 40
0.38
  9
$DIMRND
 40
0.0
  9
$DIMDLE
 40
0.0
  9
$DIMEXE
 40
0.09375
  9
$DIMTP
 40
0.0
  9
$DIMTM
 40
0.0
  9
$DIMTXT
 40
0.18
  9
$DIMCEN
 40
0.09
  9
$DIMTSZ
 40
0.0
  9
$DIMTOL
 70
     0
  9
$DIMLIM
 70
     0
  9
$DIMTIH
 70
     1
  9
$DIMTOH
 70
     1
  9
$DIMSE1
 70
     0
  9
$DIMSE2
 70
     0
  9
$DIMTAD
 70
     0
  9
$DIMZIN
 70
     0
  9
$DIMBLK
  1

  9
$DIMASO
 70
     1
  9
$DIMSHO
 70
     1
  9
$DIMPOST
  1

  9
$DIMAPOST
  1

  9
$DIMALT
 70
     1
  9
$DIMALTD
 70
     4
  9
$DIMALTF
 40
1.0
  9
$DIMLFAC
 40
1.0
  9
$DIMTOFL
 70
     0
  9
$DIMTVP
 40
0.0
  9
$DIMTIX
 70
     0
  9
$DIMSOXD
 70
     0
  9
$DIMSAH
 70
     0
  9
$DIMBLK1
  1

  9
$DIMBLK2
  1

  9
$DIMSTYLE
  2
STANDARD
  9
$DIMCLRD
 70
     0
  9
$DIMCLRE
 70
     0
  9
$DIMCLRT
 70
     0
  9
$DIMTFAC
 40
1.0
  9
$DIMGAP
 40
0.09
  9
$DIMJUST
 70
     0
  9
$DIMSD1
 70
     0
  9
$DIMSD2
 70
     0
  9
$DIMTOLJ
 70
     1
  9
$DIMTZIN
 70
     0
  9
$DIMALTZ
 70
     0
  9
$DIMALTTZ
 70
     0
  9
$DIMUPT
 70
     0
  9
$DIMDEC
 70
     4
  9
$DIMTDEC
 70
     4
  9
$DIMALTU
 70
     5
  9
$DIMALTTD
 70
     4
  9
$DIMTXSTY
  7
STANDARD
  9
$DIMAUNIT
 70
     0
  9
$DIMADEC
 70
     8
  9
$DIMALTRND
 40
0.0
  9
$DIMAZIN
 70
     0
  9
$DIMDSEP
 70
    46
  9
$DIMATFIT
 70
     3
  9
$DIMFRAC
 70
     0
  9
$DIMLDRBLK
  1

  9
$DIMLUNIT
 70
     2
  9
$DIMLWD
 70
    -2
  9
$DIMLWE
 70
    -2
  9
$DIMTMOVE
 70
     0
  9
$LUNITS
 70
     4
  9
$LUPREC
 70
     5
  9
$SKETCHINC
 40
0.1
  9
$FILLETRAD
 40
0.01
  9
$AUNITS
 70
     0
  9
$AUPREC
 70
     1
  9
$MENU
  1
acad
  9
$ELEVATION
 40
0.0
  9
$PELEVATION
 40
0.0
  9
$THICKNESS
 40
0.0
  9
$LIMCHECK
 70
     0
  9
$CHAMFERA
 40
0.0
  9
$CHAMFERB
 40
0.0
  9
$CHAMFERC
 40
1.0
  9
$CHAMFERD
 40
0.0
  9
$SKPOLY
 70
     0
  9
$TDCREATE
 40
2453453.437640602
  9
$TDUCREATE
 40
2453453.770973935
  9
$TDUPDATE
 40
2453808.522230359
  9
$TDUUPDATE
 40
2453808.855563692
  9
$TDINDWG
 40
4.9756391204
  9
$TDUSRTIMER
 40
4.9756391204
  9
$USRTIMER
 70
     1
  9
$ANGBASE
 50
0.0
  9
$ANGDIR
 70
     0
  9
$PDMODE
 70
     0
  9
$PDSIZE
 40
0.0
  9
$PLINEWID
 40
0.0
  9
$SPLFRAME
 70
     0
  9
$SPLINETYPE
 70
     6
  9
$SPLINESEGS
 70
     8
  9
$HANDSEED
  5
5B4
  9
$SURFTAB1
 70
     6
  9
$SURFTAB2
 70
     6
  9
$SURFTYPE
 70
     6
  9
$SURFU
 70
     6
  9
$SURFV
 70
     6
  9
$UCSBASE
  2

  9
$UCSNAME
  2

  9
$UCSORG
 10
0.0
 20
0.0
 30
0.0
  9
$UCSXDIR
 10
1.0
 20
0.0
 30
0.0
  9
$UCSYDIR
 10
0.0
 20
1.0
 30
0.0
  9
$UCSORTHOREF
  2

  9
$UCSORTHOVIEW
 70
     1
  9
$UCSORGTOP
 10
0.0
 20
0.0
 30
0.0
  9
$UCSORGBOTTOM
 10
0.0
 20
0.0
 30
0.0
  9
$UCSORGLEFT
 10
0.0
 20
0.0
 30
0.0
  9
$UCSORGRIGHT
 10
0.0
 20
0.0
 30
0.0
  9
$UCSORGFRONT
 10
0.0
 20
0.0
 30
0.0
  9
$UCSORGBACK
 10
0.0
 20
0.0
 30
0.0
  9
$PUCSBASE
  2

  9
$PUCSNAME
  2

  9
$PUCSORG
 10
0.0
 20
0.0
 30
0.0
  9
$PUCSXDIR
 10
1.0
 20
0.0
 30
0.0
  9
$PUCSYDIR
 10
0.0
 20
1.0
 30
0.0
  9
$PUCSORTHOREF
  2

  9
$PUCSORTHOVIEW
 70
     0
  9
$PUCSORGTOP
 10
0.0
 20
0.0
 30
0.0
  9
$PUCSORGBOTTOM
 10
0.0
 20
0.0
 30
0.0
  9
$PUCSORGLEFT
 10
0.0
 20
0.0
 30
0.0
  9
$PUCSORGRIGHT
 10
0.0
 20
0.0
 30
0.0
  9
$PUCSORGFRONT
 10
0.0
 20
0.0
 30
0.0
  9
$PUCSORGBACK
 10
0.0
 20
0.0
 30
0.0
  9
$USERI1
 70
     0
  9
$USERI2
 70
     0
  9
$USERI3
 70
     0
  9
$USERI4
 70
     0
  9
$USERI5
 70
     0
  9
$USERR1
 40
0.0
  9
$USERR2
 40
0.0
  9
$USERR3
 40
0.0
  9
$USERR4
 40
0.0
  9
$USERR5
 40
0.0
  9
$WORLDVIEW
 70
     1
  9
$SHADEDGE
 70
     3
  9
$SHADEDIF
 70
    70
  9
$TILEMODE
 70
     1
  9
$MAXACTVP
 70
    48
  9
$PINSBASE
 10
0.0
 20
0.0
 30
0.0
  9
$PLIMCHECK
 70
     0
  9
$PEXTMIN
 10
0.0
 20
0.0
 30
0.0
  9
$PEXTMAX
 10
11.0
 20
8.5
 30
0.0
  9
$PLIMMIN
 10
0.0
 20
0.0
  9
$PLIMMAX
 10
11.0
 20
8.5
  9
$UNITMODE
 70
     0
  9
$VISRETAIN
 70
     1
  9
$PLINEGEN
 70
     0
  9
$PSLTSCALE
 70
     1
  9
$TREEDEPTH
 70
  3020
  9
$CMLSTYLE
  2
STANDARD
  9
$CMLJUST
 70
     0
  9
$CMLSCALE
 40
1.0
  9
$PROXYGRAPHICS
 70
     1
  9
$MEASUREMENT
 70
     0
  9
$CELWEIGHT
370
    -1
  9
$ENDCAPS
280
     0
  9
$JOINSTYLE
280
     0
  9
$LWDISPLAY
290
     0
  9
$INSUNITS
 70
     0
  9
$HYPERLINKBASE
  1

  9
$STYLESHEET
  1

  9
$XEDIT
290
     1
  9
$CEPSNTYPE
380
     0
  9
$PSTYLEMODE
290
     1
  9
$FINGERPRINTGUID
  2
{429355A8-7BC6-4FCE-9B99-57A0ED0E2088}
  9
$VERSIONGUID
  2
{B7F551D8-7365-43FE-8787-55ED60423040}
  9
$EXTNAMES
290
     1
  9
$PSVPSCALE
 40
0.0
  9
$OLESTARTUP
290
     0
  0
ENDSEC
  0
SECTION
  2
CLASSES
  0
CLASS
  1
DICTIONARYVAR
  2
AcDbDictionaryVar
  3
ObjectDBX Classes
 90
        0
280
     0
281
     0
  0
CLASS
  1
ACDBDICTIONARYWDFLT
  2
AcDbDictionaryWithDefault
  3
ObjectDBX Classes
 90
        0
280
     0
281
     0
  0
CLASS
  1
ACDBPLACEHOLDER
  2
AcDbPlaceHolder
  3
ObjectDBX Classes
 90
        0
280
     0
281
     0
  0
CLASS
  1
LAYOUT
  2
AcDbLayout
  3
ObjectDBX Classes
 90
        0
280
     0
281
     0
  0
ENDSEC
  0
SECTION
  2
TABLES
  0
TABLE
  2
VPORT
  5
24
330
0
100
AcDbSymbolTable
 70
     3
  0
VPORT
  5
5AC
330
24
100
AcDbSymbolTableRecord
100
AcDbViewportTableRecord
  2
*Active
 70
     0
 10
0.0
 20
0.0
 11
1.0
 21
1.0
 12
135.05163661187
 22
-45.40770678156161
 13
0.0
 23
0.0
 14
0.5
 24
0.5
 15
0.5
 25
0.5
 16
0.0
 26
0.0
 36
1.0
 17
0.0
 27
0.0
 37
0.0
 40
10.14890958899361
 41
1.45595238095238
 42
50.0
 43
0.0
 44
0.0
 50
0.0
 51
0.0
 71
     0
 72
   100
 73
     1
 74
     1
 75
     0
 76
     0
 77
     0
 78
     1
281
     0
 65
     1
110
0.0
120
0.0
130
0.0
111
1.0
121
0.0
131
0.0
112
0.0
122
1.0
132
0.0
 79
     0
146
0.0
  0
ENDTAB
  0
TABLE
  2
LTYPE
  5
1F
330
0
100
AcDbSymbolTable
 70
     5
  0
LTYPE
  5
20
330
1F
100
AcDbSymbolTableRecord
100
AcDbLinetypeTableRecord
  2
BYBLOCK
 70
     0
  3

 72
    65
 73
     0
 40
0.0
  0
LTYPE
  5
21
330
1F
100
AcDbSymbolTableRecord
100
AcDbLinetypeTableRecord
  2
BYLAYER
 70
     0
  3

 72
    65
 73
     0
 40
0.0
  0
LTYPE
  5
A
330
1F
100
AcDbSymbolTableRecord
100
AcDbLinetypeTableRecord
  2
CONTINUOUS
 70
     0
  3
Solid line
 72
    65
 73
     0
 40
0.0
  0
LTYPE
  5
E9
330
1F
100
AcDbSymbolTableRecord
100
AcDbLinetypeTableRecord
  2
ACAD_ISO02W100
 70
     0
  3
ISO dash __ __ __ __ __ __ __ __ __ __ __ __ __
 72
    65
 73
     2
 40
15.0
 49
12.0
 74
     0
 49
-3.0
 74
     0
  0
LTYPE
  5
1B0
330
1F
100
AcDbSymbolTableRecord
100
AcDbLinetypeTableRecord
  2
CENTER
 70
     0
  3
Center ____ _ ____ _ ____ _ ____ _ ____ _ ____
 72
    65
 73
     4
 40
2.0
 49
1.25
 74
     0
 49
-0.25
 74
     0
 49
0.25
 74
     0
 49
-0.25
 74
     0
  0
LTYPE
  5
F2
330
1F
100
AcDbSymbolTableRecord
100
AcDbLinetypeTableRecord
  2
DASHED2
 70
     0
  3
Dashed (.5x) _ _ _ _ _ _ _ _ _ _ _ _ _ _ _ _ _
 72
    65
 73
     2
 40
0.375
 49
0.25
 74
     0
 49
-0.125
 74
     0
  0
LTYPE
  5
265
330
1F
100
AcDbSymbolTableRecord
100
AcDbLinetypeTableRecord
  2
HIDDEN
 70
     0
  3
Hidden __ __ __ __ __ __ __ __ __ __ __ __ __ _
 72
    65
 73
     2
 40
0.375
 49
0.25
 74
     0
 49
-0.125
 74
     0
  0
ENDTAB
  0
TABLE
  2
LAYER
  5
14
102
{ACAD_XDICTIONARY
360
15
102
}
330
0
100
AcDbSymbolTable
 70
     9
  0
LAYER
  5
6
330
14
100
AcDbSymbolTableRecord
100
AcDbLayerTableRecord
  2
0
 70
     0
 62
     7
  6
CONTINUOUS
370
    -3
390
7
  0
LAYER
  5
60
330
14
100
AcDbSymbolTableRecord
100
AcDbLayerTableRecord
  2
.050 Flashing
 70
     0
 62
   120
  6
CONTINUOUS
370
     5
390
7
  0
LAYER
  5
F1
330
14
100
AcDbSymbolTableRecord
100
AcDbLayerTableRecord
  2
Curb
 70
     0
 62
    12
  6
ACAD_ISO02W100
370
     9
390
7
  0
LAYER
  5
163
330
14
100
AcDbSymbolTableRecord
100
AcDbLayerTableRecord
  2
5
 70
     0
 62
     5
  6
CONTINUOUS
370
    -3
390
7
  0
LAYER
  5
264
330
14
100
AcDbSymbolTableRecord
100
AcDbLayerTableRecord
  2
1
 70
     0
 62
     1
  6
HIDDEN
370
    -3
390
7
  0
LAYER
  5
1AF
330
14
100
AcDbSymbolTableRecord
100
AcDbLayerTableRecord
  2
2
 70
     0
 62
     4
  6
CENTER
370
    -3
390
7
  0
LAYER
  5
E8
330
14
100
AcDbSymbolTableRecord
100
AcDbLayerTableRecord
  2
HIDDEN
 70
     0
 62
     8
  6
ACAD_ISO02W100
370
    -3
390
7
  0
LAYER
  5
47
330
14
100
AcDbSymbolTableRecord
100
AcDbLayerTableRecord
  2
Glazing
 70
     0
 62
     5
  6
CONTINUOUS
370
    -3
390
7
  0
LAYER
  5
57D
330
14
100
AcDbSymbolTableRecord
100
AcDbLayerTableRecord
  2
Text
 70
     0
 62
     7
  6
CONTINUOUS
370
    -3
390
7
  0
ENDTAB
  0
TABLE
  2
STYLE
  5
1B
330
0
100
AcDbSymbolTable
 70
     2
  0
STYLE
  5
1C
330
1B
100
AcDbSymbolTableRecord
100
AcDbTextStyleTableRecord
  2
STANDARD
 70
     0
 40
0.1875
 41
1.0
 50
0.0
 71
     0
 42
0.1875
  3
ARIAL.TTF
  4

1001
ACAD
1000
Arial
1071
       34
  0
STYLE
  5
2A
330
1B
100
AcDbSymbolTableRecord
100
AcDbTextStyleTableRecord
  2
ARCHITXT
 70
     0
 40
3.0
 41
1.0
 50
0.0
 71
     0
 42
3.0
  3
architxt.shx
  4

  0
ENDTAB
  0
TABLE
  2
VIEW
  5
22
330
0
100
AcDbSymbolTable
 70
     0
  0
ENDTAB
  0
TABLE
  2
UCS
  5
23
330
0
100
AcDbSymbolTable
 70
     0
  0
ENDTAB
  0
TABLE
  2
APPID
  5
26
330
0
100
AcDbSymbolTable
 70
     1
  0
APPID
  5
1D
330
26
100
AcDbSymbolTableRecord
100
AcDbRegAppTableRecord
  2
ACAD
 70
     0
  0
ENDTAB
  0
TABLE
  2
DIMSTYLE
  5
27
330
0
100
AcDbSymbolTable
 70
     2
100
AcDbDimStyleTable
 71
     2
340
28
340
29
  0
DIMSTYLE
105
28
330
27
100
AcDbSymbolTableRecord
100
AcDbDimStyleTableRecord
  2
STANDARD
 70
     0
 41
0.125
 44
0.09375
143
1.0
170
     1
171
     4
179
     8
273
     5
274
     4
340
1C
  0
DIMSTYLE
105
29
330
27
100
AcDbSymbolTableRecord
100
AcDbDimStyleTableRecord
  2
ARCHITXT_WS
 70
     0
 40
24.0
 41
0.1875
 43
0.375
 44
0.1875
140
0.125
141
0.0625
147
0.0625
174
     1
271
     5
272
     5
276
     2
277
     4
340
2A
  0
ENDTAB
  0
TABLE
  2
BLOCK_RECORD
  5
1
330
0
100
AcDbSymbolTable
 70
     8
  0
BLOCK_RECORD
  5
2
102
{ACAD_XDICTIONARY
360
3
102
}
330
1
100
AcDbSymbolTableRecord
100
AcDbBlockTableRecord
  2
*MODEL_SPACE
340
C
  0
BLOCK_RECORD
  5
E
102
{ACAD_XDICTIONARY
360
F
102
}
330
1
100
AcDbSymbolTableRecord
100
AcDbBlockTableRecord
  2
*PAPER_SPACE
340
13
  0
BLOCK_RECORD
  5
288
330
1
100
AcDbSymbolTableRecord
100
AcDbBlockTableRecord
  2
epdm
340
0
310
2800000020000000200000000100080000000000000400000000000000000000000000000000000000000000000080000080000000808000800000008000800080800000C0C0C000C0DCC000F0CAA6000020400000206000002080000020A0000020C0000020E00000400000004020000040400000406000004080000040A0
310
000040C0000040E00000600000006020000060400000606000006080000060A0000060C0000060E00000800000008020000080400000806000008080000080A0000080C0000080E00000A0000000A0200000A0400000A0600000A0800000A0A00000A0C00000A0E00000C0000000C0200000C0400000C0600000C0800000C0
310
A00000C0C00000C0E00000E0000000E0200000E0400000E0600000E0800000E0A00000E0C00000E0E00040000000400020004000400040006000400080004000A0004000C0004000E00040200000402020004020400040206000402080004020A0004020C0004020E000404000004040200040404000404060004040800040
310
40A0004040C0004040E00040600000406020004060400040606000406080004060A0004060C0004060E00040800000408020004080400040806000408080004080A0004080C0004080E00040A0000040A0200040A0400040A0600040A0800040A0A00040A0C00040A0E00040C0000040C0200040C0400040C0600040C08000
310
40C0A00040C0C00040C0E00040E0000040E0200040E0400040E0600040E0800040E0A00040E0C00040E0E00080000000800020008000400080006000800080008000A0008000C0008000E00080200000802020008020400080206000802080008020A0008020C0008020E00080400000804020008040400080406000804080
310
008040A0008040C0008040E00080600000806020008060400080606000806080008060A0008060C0008060E00080800000808020008080400080806000808080008080A0008080C0008080E00080A0000080A0200080A0400080A0600080A0800080A0A00080A0C00080A0E00080C0000080C0200080C0400080C0600080C0
310
800080C0A00080C0C00080C0E00080E0000080E0200080E0400080E0600080E0800080E0A00080E0C00080E0E000C0000000C0002000C0004000C0006000C0008000C000A000C000C000C000E000C0200000C0202000C0204000C0206000C0208000C020A000C020C000C020E000C0400000C0402000C0404000C0406000C0
310
408000C040A000C040C000C040E000C0600000C0602000C0604000C0606000C0608000C060A000C060C000C060E000C0800000C0802000C0804000C0806000C0808000C080A000C080C000C080E000C0A00000C0A02000C0A04000C0A06000C0A08000C0A0A000C0A0C000C0A0E000C0C00000C0C02000C0C04000C0C06000
310
C0C08000C0C0A000F0FBFF00A4A0A000808080000000FF0000FF000000FFFF00FF000000FF00FF00FFFF0000FFFFFF0000000000000000000000000000000000000000000000000000000000000000000000000000000000000000000000000000000000000000000000000000000000000000000000000000000000000000
310
00000000000000000000000000000000000000000000000000000000000000000000000000000000000000000000000000000000000000000000000000000000000000000000000000000000000000000000000000000000000000000000000000000000000000000000000000000000000000000000000000000000000000
310
00000000000000000000000000000000000000000000000000000000000000000000000000000000000000000000000000000000000000000000000000000000000000000000000000000000000000000000000000000000000000000000FFFCFCFCFCFCFFFF0000000000000000000000000000000000000000000000FFFF
310
FFFFFFFFFF00FFFF00000000000000000000000000000000000000000000FFFFFCFCFFFFFFFFFFFF00000000000000000000000000000000000000000000FCFC00FC00FFFF00FCFF000000000000000000000000000000000000000000000000FC00FFFF00FF00000000000000000000000000000000000000000000000000
310
00FCFFFF00FFFF00000000000000000000000000000000000000000000000000FCFFFF00FFFFFFFC00000000000000000000000000FFFFFFFFFFFFFFFCFCFCFCFCFF00FFFFFF00FCFCFCFCFCFCFCFCFCFCFCFC0000FFFFFFFFFFFFFFFFFFFFFFFF00FFFFFF00FFFFFFFFFFFFFFFFFFFFFFFFFF0000FFFFFFFFFFFFFFFFFFFF
310
FF00FFFFFF00FFFFFFFFFFFFFFFFFFFFFFFFFFFF0000FFFFFFFFFFFFFFFFFFFF00FFFFFFFFFFFFFFFFFFFFFFFFFFFFFFFFFFFFFF0000FFFF00FFFFFFFF00FF00FFFFFFFF00FF00FFFFFFFF00FF00FFFFFFFFFFFF0000FC00FFFCFFFC00FC00FFFCFFFC00FCFCFFFCFFFC00FFFCFFFCFFFCFFFFFC000000FCFCFFFC00FC00FC
310
FCFFFC00FC00FFFCFFFC00FCFCFFFCFFFC00FCFC0000000000000000000000000000000000000000000000000000000000000000000000000000000000000000000000000000000000000000000000000000000000000000000000000000000000000000000000000000000000000000000000000000000000000000000000
310
00000000000000000000000000000000000000000000000000000000000000000000000000000000000000000000000000000000000000000000000000000000000000000000000000000000000000000000000000000000000000000000000000000000000000000000000000000000000000000000000000000000000000
310
0000000000000000000000000000000000000000000000000000000000000000000000000000000000000000000000000000000000000000
102
{BLKREFS
331
287
102
}
  0
BLOCK_RECORD
  5
175
330
1
100
AcDbSymbolTableRecord
100
AcDbBlockTableRecord
  2
10-2
340
0
  0
BLOCK_RECORD
  5
6D
330
1
100
AcDbSymbolTableRecord
100
AcDbBlockTableRecord
  2
purlin fin
340
0
310
2800000020000000200000000100080000000000000400000000000000000000000000000000000000000000000080000080000000808000800000008000800080800000C0C0C000C0DCC000F0CAA6000020400000206000002080000020A0000020C0000020E00000400000004020000040400000406000004080000040A0
310
000040C0000040E00000600000006020000060400000606000006080000060A0000060C0000060E00000800000008020000080400000806000008080000080A0000080C0000080E00000A0000000A0200000A0400000A0600000A0800000A0A00000A0C00000A0E00000C0000000C0200000C0400000C0600000C0800000C0
310
A00000C0C00000C0E00000E0000000E0200000E0400000E0600000E0800000E0A00000E0C00000E0E00040000000400020004000400040006000400080004000A0004000C0004000E00040200000402020004020400040206000402080004020A0004020C0004020E000404000004040200040404000404060004040800040
310
40A0004040C0004040E00040600000406020004060400040606000406080004060A0004060C0004060E00040800000408020004080400040806000408080004080A0004080C0004080E00040A0000040A0200040A0400040A0600040A0800040A0A00040A0C00040A0E00040C0000040C0200040C0400040C0600040C08000
310
40C0A00040C0C00040C0E00040E0000040E0200040E0400040E0600040E0800040E0A00040E0C00040E0E00080000000800020008000400080006000800080008000A0008000C0008000E00080200000802020008020400080206000802080008020A0008020C0008020E00080400000804020008040400080406000804080
310
008040A0008040C0008040E00080600000806020008060400080606000806080008060A0008060C0008060E00080800000808020008080400080806000808080008080A0008080C0008080E00080A0000080A0200080A0400080A0600080A0800080A0A00080A0C00080A0E00080C0000080C0200080C0400080C0600080C0
310
800080C0A00080C0C00080C0E00080E0000080E0200080E0400080E0600080E0800080E0A00080E0C00080E0E000C0000000C0002000C0004000C0006000C0008000C000A000C000C000C000E000C0200000C0202000C0204000C0206000C0208000C020A000C020C000C020E000C0400000C0402000C0404000C0406000C0
310
408000C040A000C040C000C040E000C0600000C0602000C0604000C0606000C0608000C060A000C060C000C060E000C0800000C0802000C0804000C0806000C0808000C080A000C080C000C080E000C0A00000C0A02000C0A04000C0A06000C0A08000C0A0A000C0A0C000C0A0E000C0C00000C0C02000C0C04000C0C06000
310
C0C08000C0C0A000F0FBFF00A4A0A000808080000000FF0000FF000000FFFF00FF000000FF00FF00FFFF0000FFFFFF000000000000000000000000000000000000000000000000000000000000000000000000000000FF000000000000000000000000000000000000FF000000000000000000000000FFFF00000000000000
310
00000000000000000000FF000000000000000000000000FFFF00000000000000000000000000000000FFFF000000000000000000000000FFFF00000000000000000000000000000000FFFF000000000000000000000000FFFF00000000000000000000000000000000FFFF000000000000000000000000FFFF000000000000
310
00000000000000000000FFFF000000000000000000000000FFFF00000000000000000000000000000000FFFF000000000000000000000000FFFF00000000000000000000000000000000FFFF000000000000000000000000FFFF00000000000000000000000000000000FFFF000000000000000000000000FFFF0000000000
310
0000000000000000000000FFFF000000000000000000000000FFFF00000000000000000000000000000000FFFF000000000000000000000000FFFF00000000000000000000000000000000FFFF000000000000000000000000FFFF00000000000000000000000000000000FFFF000000000000000000000000FFFF00000000
310
000000000000000000000000FFFF000000000000000000000000FFFF00000000000000000000000000000000FFFF000000000000000000000000FFFF00000000000000000000000000000000FFFF000000000000000000000000FFFFFFFFFFFFFFFFFFFFFFFFFFFFFFFFFFFFFFFF000000000000000000000000FF00000000
310
0000000000000000000000000000FF000000000000000000000000FFFFFFFF00FFFFFFFFFFFFFFFFFFFF00FFFFFFFF000000000000000000000000FFFF00FFFFFF000000FFFF000000FFFFFF00FFFF000000000000000000000000000000000000000000FFFF00000000000000000000000000000000000000000000000000
310
0000000000FFFF000000000000000000000000000000000000000000000000000000000000FFFF000000000000000000000000000000000000000000000000000000000000FFFF000000000000000000000000000000000000000000000000000000000000FFFF000000000000000000000000000000000000000000000000
310
000000000000FFFF000000000000000000000000000000000000000000000000000000000000FFFF000000000000000000000000000000000000000000000000000000000000FFFF000000000000000000000000000000000000000000000000000000000000FFFF0000000000000000000000000000000000000000000000
310
00000000000000FFFF0000000000000000000000000000000000000000000000000000000000000000000000000000000000000000000000
102
{BLKREFS
331
6C
102
}
  0
BLOCK_RECORD
  5
BC
330
1
100
AcDbSymbolTableRecord
100
AcDbBlockTableRecord
  2
snap bottom
340
0
310
2800000020000000200000000100080000000000000400000000000000000000000000000000000000000000000080000080000000808000800000008000800080800000C0C0C000C0DCC000F0CAA6000020400000206000002080000020A0000020C0000020E00000400000004020000040400000406000004080000040A0
310
000040C0000040E00000600000006020000060400000606000006080000060A0000060C0000060E00000800000008020000080400000806000008080000080A0000080C0000080E00000A0000000A0200000A0400000A0600000A0800000A0A00000A0C00000A0E00000C0000000C0200000C0400000C0600000C0800000C0
310
A00000C0C00000C0E00000E0000000E0200000E0400000E0600000E0800000E0A00000E0C00000E0E00040000000400020004000400040006000400080004000A0004000C0004000E00040200000402020004020400040206000402080004020A0004020C0004020E000404000004040200040404000404060004040800040
310
40A0004040C0004040E00040600000406020004060400040606000406080004060A0004060C0004060E00040800000408020004080400040806000408080004080A0004080C0004080E00040A0000040A0200040A0400040A0600040A0800040A0A00040A0C00040A0E00040C0000040C0200040C0400040C0600040C08000
310
40C0A00040C0C00040C0E00040E0000040E0200040E0400040E0600040E0800040E0A00040E0C00040E0E00080000000800020008000400080006000800080008000A0008000C0008000E00080200000802020008020400080206000802080008020A0008020C0008020E00080400000804020008040400080406000804080
310
008040A0008040C0008040E00080600000806020008060400080606000806080008060A0008060C0008060E00080800000808020008080400080806000808080008080A0008080C0008080E00080A0000080A0200080A0400080A0600080A0800080A0A00080A0C00080A0E00080C0000080C0200080C0400080C0600080C0
310
800080C0A00080C0C00080C0E00080E0000080E0200080E0400080E0600080E0800080E0A00080E0C00080E0E000C0000000C0002000C0004000C0006000C0008000C000A000C000C000C000E000C0200000C0202000C0204000C0206000C0208000C020A000C020C000C020E000C0400000C0402000C0404000C0406000C0
310
408000C040A000C040C000C040E000C0600000C0602000C0604000C0606000C0608000C060A000C060C000C060E000C0800000C0802000C0804000C0806000C0808000C080A000C080C000C080E000C0A00000C0A02000C0A04000C0A06000C0A08000C0A0A000C0A0C000C0A0E000C0C00000C0C02000C0C04000C0C06000
310
C0C08000C0C0A000F0FBFF00A4A0A000808080000000FF0000FF000000FFFF00FF000000FF00FF00FFFF0000FFFFFF0000000000000000000000000000000000000000000000000000000000000000000000000000000000000000000000000000000000000000000000000000000000000000000000000000000000000000
310
00000000000000000000000000000000000000000000000000000000000000000000000000000000000000000000000000000000000000000000000000000000000000000000000000000000000000000000000000000000000000000000000000000000000000000000000000000000000000000000000000000000000000
310
00000000000000000000000000000000000000000000000000000000000000000000000000000000000000000000000000000000000000000000000000000000000000000000000000000000000000000000000000000000000000000000000000000000000000000000000000000000000000000000000000000000000000
310
0000000000000000000000000000000000000000FFFFFFFFFFFFFFFFFFFFFFFFFFFFFFFFFFFFFFFFFFFFFFFFFFFFFFFFFFFF0000FF00000000000000000000000000000000000000000000000000000000FF0000FFFFFFFFFFFFFFFFFFFFFFFFFFFFFFFFFFFFFFFFFFFFFFFFFFFFFFFFFFFF0000FFFF000000FF0000000000
310
00000000000000000000000000FF000000FFFF0000FFFF0000FFFF000000000000000000000000000000000000FFFF0000FFFF000000FF000000FF000000000000000000000000000000000000FF000000FF0000000000000000FF000000000000000000000000000000000000FF000000000000000000000000FF00000000
310
0000000000000000000000000000FF000000000000000000000000FF000000000000000000000000000000000000FF000000000000000000000000FF000000000000000000000000000000000000FF000000000000000000000000000000000000000000000000000000000000000000000000000000000000000000000000
310
00000000000000000000000000000000000000000000000000000000000000000000000000000000000000000000000000000000000000000000000000000000000000000000000000000000000000000000000000000000000000000000000000000000000000000000000000000000000000000000000000000000000000
310
00000000000000000000000000000000000000000000000000000000000000000000000000000000000000000000000000000000000000000000000000000000000000000000000000000000000000000000000000000000000000000000000000000000000000000000000000000000000000000000000000000000000000
310
0000000000000000000000000000000000000000000000000000000000000000000000000000000000000000000000000000000000000000
102
{BLKREFS
331
BB
102
}
  0
BLOCK_RECORD
  5
13E
330
1
100
AcDbSymbolTableRecord
100
AcDbBlockTableRecord
  2
*X4
340
0
102
{BLKREFS
331
13D
102
}
  0
BLOCK_RECORD
  5
13A
330
1
100
AcDbSymbolTableRecord
100
AcDbBlockTableRecord
  2
work point
340
0
310
2800000020000000200000000100080000000000000400000000000000000000000000000000000000000000000080000080000000808000800000008000800080800000C0C0C000C0DCC000F0CAA6000020400000206000002080000020A0000020C0000020E00000400000004020000040400000406000004080000040A0
310
000040C0000040E00000600000006020000060400000606000006080000060A0000060C0000060E00000800000008020000080400000806000008080000080A0000080C0000080E00000A0000000A0200000A0400000A0600000A0800000A0A00000A0C00000A0E00000C0000000C0200000C0400000C0600000C0800000C0
310
A00000C0C00000C0E00000E0000000E0200000E0400000E0600000E0800000E0A00000E0C00000E0E00040000000400020004000400040006000400080004000A0004000C0004000E00040200000402020004020400040206000402080004020A0004020C0004020E000404000004040200040404000404060004040800040
310
40A0004040C0004040E00040600000406020004060400040606000406080004060A0004060C0004060E00040800000408020004080400040806000408080004080A0004080C0004080E00040A0000040A0200040A0400040A0600040A0800040A0A00040A0C00040A0E00040C0000040C0200040C0400040C0600040C08000
310
40C0A00040C0C00040C0E00040E0000040E0200040E0400040E0600040E0800040E0A00040E0C00040E0E00080000000800020008000400080006000800080008000A0008000C0008000E00080200000802020008020400080206000802080008020A0008020C0008020E00080400000804020008040400080406000804080
310
008040A0008040C0008040E00080600000806020008060400080606000806080008060A0008060C0008060E00080800000808020008080400080806000808080008080A0008080C0008080E00080A0000080A0200080A0400080A0600080A0800080A0A00080A0C00080A0E00080C0000080C0200080C0400080C0600080C0
310
800080C0A00080C0C00080C0E00080E0000080E0200080E0400080E0600080E0800080E0A00080E0C00080E0E000C0000000C0002000C0004000C0006000C0008000C000A000C000C000C000E000C0200000C0202000C0204000C0206000C0208000C020A000C020C000C020E000C0400000C0402000C0404000C0406000C0
310
408000C040A000C040C000C040E000C0600000C0602000C0604000C0606000C0608000C060A000C060C000C060E000C0800000C0802000C0804000C0806000C0808000C080A000C080C000C080E000C0A00000C0A02000C0A04000C0A06000C0A08000C0A0A000C0A0C000C0A0E000C0C00000C0C02000C0C04000C0C06000
310
C0C08000C0C0A000F0FBFF00A4A0A000808080000000FF0000FF000000FFFF00FF000000FF00FF00FFFF0000FFFFFF000000000000000000000000000000000000000000000000000000000000000000000000000000000000000000000000FF00000000000000000000000000000000000000000000000000000000000000
310
FF00000000000000000000000000000000000000000000000000000000000000FF00000000000000000000000000000000000000000000000000000000000000FF00000000000000000000000000000000000000000000000000000000000000FF000000000000000000000000000000000000000000000000000000000000
310
00FF00000000000000000000000000000000000000000000000000000000000000FF00000000000000000000000000000000000000000000000000000000000000FF00000000000000000000000000000000000000000000000000000000000000FF0000000000000000000000000000000000000000000000000000000000
310
00FFFFFFFFFF00000000000000000000000000000000000000000000000000FFFF00FFFFFFFFFF0000000000000000000000000000000000000000000000FF000000FFFFFFFFFFFF000000000000000000000000000000000000000000FF00000000FFFFFFFFFFFFFF0000000000000000000000000000000000000000FF00
310
000000FFFFFFFFFFFFFF0000000000000000000000000000000000000000FF00000000FFFFFFFFFFFFFF0000000000000000000000FFFFFFFFFFFFFFFFFFFFFFFFFFFFFFFFFFFFFFFFFFFFFFFFFFFFFFFFFFFF0000000000000000000000FFFFFFFFFFFFFF00000000FF0000000000000000000000000000000000000000FF
310
FFFFFFFFFFFF00000000FF000000000000000000000000000000000000000000FFFFFFFFFFFF000000FF0000000000000000000000000000000000000000000000FFFFFFFFFF0000FF00000000000000000000000000000000000000000000000000FFFFFFFFFFFF0000000000000000000000000000000000000000000000
310
0000000000FF00000000000000000000000000000000000000000000000000000000000000FF00000000000000000000000000000000000000000000000000000000000000FF00000000000000000000000000000000000000000000000000000000000000FF00000000000000000000000000000000000000000000000000
310
000000000000FF00000000000000000000000000000000000000000000000000000000000000FF00000000000000000000000000000000000000000000000000000000000000FF00000000000000000000000000000000000000000000000000000000000000FF000000000000000000000000000000000000000000000000
310
00000000000000FF000000000000000000000000000000000000000000000000000000000000000000000000000000000000000000000000
102
{BLKREFS
331
139
102
}
  0
BLOCK_RECORD
  5
52E
330
1
100
AcDbSymbolTableRecord
100
AcDbBlockTableRecord
  2
ANCHOR
340
0
310
2800000020000000200000000100080000000000000400000000000000000000000000000000000000000000000080000080000000808000800000008000800080800000C0C0C000C0DCC000F0CAA6000020400000206000002080000020A0000020C0000020E00000400000004020000040400000406000004080000040A0
310
000040C0000040E00000600000006020000060400000606000006080000060A0000060C0000060E00000800000008020000080400000806000008080000080A0000080C0000080E00000A0000000A0200000A0400000A0600000A0800000A0A00000A0C00000A0E00000C0000000C0200000C0400000C0600000C0800000C0
310
A00000C0C00000C0E00000E0000000E0200000E0400000E0600000E0800000E0A00000E0C00000E0E00040000000400020004000400040006000400080004000A0004000C0004000E00040200000402020004020400040206000402080004020A0004020C0004020E000404000004040200040404000404060004040800040
310
40A0004040C0004040E00040600000406020004060400040606000406080004060A0004060C0004060E00040800000408020004080400040806000408080004080A0004080C0004080E00040A0000040A0200040A0400040A0600040A0800040A0A00040A0C00040A0E00040C0000040C0200040C0400040C0600040C08000
310
40C0A00040C0C00040C0E00040E0000040E0200040E0400040E0600040E0800040E0A00040E0C00040E0E00080000000800020008000400080006000800080008000A0008000C0008000E00080200000802020008020400080206000802080008020A0008020C0008020E00080400000804020008040400080406000804080
310
008040A0008040C0008040E00080600000806020008060400080606000806080008060A0008060C0008060E00080800000808020008080400080806000808080008080A0008080C0008080E00080A0000080A0200080A0400080A0600080A0800080A0A00080A0C00080A0E00080C0000080C0200080C0400080C0600080C0
310
800080C0A00080C0C00080C0E00080E0000080E0200080E0400080E0600080E0800080E0A00080E0C00080E0E000C0000000C0002000C0004000C0006000C0008000C000A000C000C000C000E000C0200000C0202000C0204000C0206000C0208000C020A000C020C000C020E000C0400000C0402000C0404000C0406000C0
310
408000C040A000C040C000C040E000C0600000C0602000C0604000C0606000C0608000C060A000C060C000C060E000C0800000C0802000C0804000C0806000C0808000C080A000C080C000C080E000C0A00000C0A02000C0A04000C0A06000C0A08000C0A0A000C0A0C000C0A0E000C0C00000C0C02000C0C04000C0C06000
310
C0C08000C0C0A000F0FBFF00A4A0A000808080000000FF0000FF000000FFFF00FF000000FF00FF00FFFF0000FFFFFF000000000000000000000000000000000000000000000000000000000000000000000000000000000000000000000000FF000000000000000000000000000000000000000000000000000000000000FF
310
FFFF000000000000000000000000000000000000000000000000000000000000FFFFFF00000000000000000000000000000000000000000000000000000000FFFFFFFF00000000000000000000000000000000000000000000000000000000FFFFFFFF00000000000000000000000000000000000000000000000000000000
310
FFFF00FF00000000000000000000000000000000000000000000000000000000FFFFFFFF00000000000000000000000000000000000000000000000000000000FFFFFFFF00000000000000000000000000000000000000000000000000000000FFFFFFFF000000000000000000000000000000000000000000000000000000
310
00FFFFFFFF00000000000000000000000000000000000000000000000000000000FFFFFFFF00000000000000000000000000000000000000000000000000000000FFFFFFFF00000000000000000000000000000000000000000000000000000000FFFFFFFF0000000000000000000000000000000000000000000000000000
310
0000FFFFFFFF00000000000000000000000000000000000000000000000000000000FFFFFFFF00000000000000000000000000000000000000000000000000000000FFFFFFFF00000000000000000000000000000000000000000000000000000000FFFFFFFF00000000000000000000000000000000000000000000000000
310
000000FFFFFFFF00000000000000000000000000000000000000000000000000000000FF0000FF00000000000000000000000000000000000000000000000000000000FF0000FF00000000000000000000000000000000000000000000000000000000FF0000FF000000000000000000000000000000000000000000000000
310
00000000FF0000FF00000000000000000000000000000000000000000000000000000000FF0000FF00000000000000000000000000000000000000000000000000000000FF0000FF00000000000000000000000000000000000000000000000000000000FF0000FF0000000000000000000000000000000000000000000000
310
0000000000FF0000FF0000000000000000000000000000000000000000000000000000FFFFFFFFFFFFFFFF000000000000000000000000000000000000000000000000FF0000FF000000FF000000000000000000000000000000000000000000000000FF0000FF000000FF0000000000000000000000000000000000000000
310
00000000FFFFFFFFFFFFFFFF0000000000000000000000000000000000000000000000000000000000000000000000000000000000000000
102
{BLKREFS
331
57F
331
584
102
}
  0
ENDTAB
  0
ENDSEC
  0
SECTION
  2
BLOCKS
  0
BLOCK
  5
5
330
2
100
AcDbEntity
  8
0
100
AcDbBlockBegin
  2
*MODEL_SPACE
 70
     0
 10
0.0
 20
0.0
 30
0.0
  3
*MODEL_SPACE
  1

  0
ENDBLK
  5
B
330
2
100
AcDbEntity
  8
0
100
AcDbBlockEnd
  0
BLOCK
  5
11
330
E
100
AcDbEntity
 67
     1
  8
0
100
AcDbBlockBegin
  2
*PAPER_SPACE
 70
     0
 10
0.0
 20
0.0
 30
0.0
  3
*PAPER_SPACE
  1

  0
ENDBLK
  5
12
330
E
100
AcDbEntity
 67
     1
  8
0
100
AcDbBlockEnd
  0
BLOCK
  5
289
330
288
100
AcDbEntity
  8
0
100
AcDbBlockBegin
  2
epdm
 70
     0
 10
0.0
 20
0.0
 30
0.0
  3
epdm
  1

  0
LINE
  5
28A
330
288
100
AcDbEntity
  8
5
100
AcDbLine
 10
-3.7342876288553
 20
5.081818992145358
 30
0.0
 11
-3.79070225244123
 21
5.062661067774548
 31
0.0
  0
LINE
  5
28B
330
288
100
AcDbEntity
  8
5
100
AcDbLine
 10
-3.904010361953952
 20
5.081818992145358
 30
0.0
 11
-3.847595738368022
 21
5.06266106777455
 31
0.0
  0
LINE
  5
28C
330
288
100
AcDbEntity
  8
0
 62
     0
100
AcDbLine
 10
-3.831085386472681
 20
5.062661067774548
 30
0.0
 11
-3.879509494485192
 21
5.111085175787058
 31
0.0
  0
LINE
  5
28D
330
288
100
AcDbEntity
  8
0
 62
     0
100
AcDbLine
 10
-3.84936330732429
 20
5.063261319096492
 30
0.0
 11
-3.904010361953945
 21
5.11790837372615
 31
0.0
  0
LINE
  5
28E
330
288
100
AcDbEntity
  8
0
 62
     0
100
AcDbLine
 10
-3.781259168532224
 20
5.065867858423082
 30
0.0
 11
-3.859784160816312
 21
5.14439285070717
 31
0.0
  0
LINE
  5
28F
330
288
100
AcDbEntity
  8
0
 62
     0
100
AcDbLine
 10
-3.795730047413352
 20
5.062661067774548
 30
0.0
 11
-3.84983420580229
 21
5.116765226163481
 31
0.0
  0
LINE
  5
290
330
288
100
AcDbEntity
  8
0
 62
     0
100
AcDbLine
 10
-3.81340771694302
 20
5.062661067774548
 30
0.0
 11
-3.851618669269948
 21
5.100872020101476
 31
0.0
  0
LINE
  5
291
330
288
100
AcDbEntity
  8
5
100
AcDbLine
 10
-3.79070225244123
 20
5.062661067774548
 30
0.0
 11
-3.847595738368022
 21
5.06266106777455
 31
0.0
  0
LINE
  5
292
330
288
100
AcDbEntity
  8
5
100
AcDbLine
 10
-3.79532826093464
 20
5.097704922538818
 30
0.0
 11
-3.7342876288553
 21
5.120056985403987
 31
0.0
  0
LINE
  5
293
330
288
100
AcDbEntity
  8
5
100
AcDbLine
 10
-3.764063546942781
 20
5.188416018424497
 30
0.0
 11
-3.79532826093464
 21
5.097704922538818
 31
0.0
  0
LINE
  5
294
330
288
100
AcDbEntity
  8
0
 62
     0
100
AcDbLine
 10
-3.768062854535196
 20
5.070349213955719
 30
0.0
 11
-3.869734115830341
 21
5.172020475250858
 31
0.0
  0
LINE
  5
295
330
288
100
AcDbEntity
  8
5
100
AcDbLine
 10
-3.778175527431054
 20
5.288786934748507
 30
0.0
 11
-3.799020256880035
 21
5.308469012926966
 31
0.0
  0
LINE
  5
296
330
288
100
AcDbEntity
  8
0
 62
     0
100
AcDbLine
 10
-3.691675294177679
 20
5.188416018424497
 30
0.0
 11
-3.805556559643813
 21
5.302297283890631
 31
0.0
  0
LINE
  5
297
330
288
100
AcDbEntity
  8
0
 62
     0
100
AcDbLine
 10
-3.768164674788282
 20
5.176517051386785
 30
0.0
 11
-3.891522287447552
 21
5.299874664046056
 31
0.0
  0
LINE
  5
298
330
288
100
AcDbEntity
  8
0
 62
     0
100
AcDbLine
 10
-3.76238597229633
 20
5.188416018424497
 30
0.0
 11
-3.882429880218696
 21
5.308459926346861
 31
0.0
  0
LINE
  5
299
330
288
100
AcDbEntity
  8
0
 62
     0
100
AcDbLine
 10
-3.744708302766669
 20
5.188416018424497
 30
0.0
 11
-3.853085627160114
 21
5.296793342817942
 31
0.0
  0
LINE
  5
29A
330
288
100
AcDbEntity
  8
0
 62
     0
100
AcDbLine
 10
-3.727030633237001
 20
5.188416018424497
 30
0.0
 11
-3.843993219931251
 21
5.305378605118747
 31
0.0
  0
LINE
  5
29B
330
288
100
AcDbEntity
  8
0
 62
     0
100
AcDbLine
 10
-3.70935296370734
 20
5.188416018424497
 30
0.0
 11
-3.814648966872669
 21
5.293712021589826
 31
0.0
  0
LINE
  5
29C
330
288
100
AcDbEntity
  8
0
 62
     0
100
AcDbLine
 10
-3.77722691889131
 20
5.150223956430487
 30
0.0
 11
-3.929958947734997
 21
5.30295598527417
 31
0.0
  0
LINE
  5
29D
330
288
100
AcDbEntity
  8
0
 62
     0
100
AcDbLine
 10
-3.7726957968398
 20
5.163370503908636
 30
0.0
 11
-3.900614694676415
 21
5.291289401745251
 31
0.0
  0
LINE
  5
29E
330
288
100
AcDbEntity
  8
0
 62
     0
100
AcDbLine
 10
-3.781758040942827
 20
5.13707740895234
 30
0.0
 11
-3.939051354963853
 21
5.294370722973365
 31
0.0
  0
LINE
  5
29F
330
288
100
AcDbEntity
  8
5
100
AcDbLine
 10
-4.069949034206496
 20
5.188416018424497
 30
0.0
 11
-4.069949034206496
 21
5.288896419438431
 31
0.0
  0
LINE
  5
2A0
330
288
100
AcDbEntity
  8
0
 62
     0
100
AcDbLine
 10
-3.886129659003978
 20
5.188416018424495
 30
0.0
 11
-3.986580422480153
 21
5.288866781900674
 31
0.0
  0
LINE
  5
2A1
330
288
100
AcDbEntity
  8
0
 62
     0
100
AcDbLine
 10
-3.903807328533639
 20
5.188416018424495
 30
0.0
 11
-4.015924675538736
 21
5.300533365429593
 31
0.0
  0
LINE
  5
2A2
330
288
100
AcDbEntity
  8
0
 62
     0
100
AcDbLine
 10
-3.9214849980633
 20
5.188416018424495
 30
0.0
 11
-4.025017082767599
 21
5.291948103128788
 31
0.0
  0
LINE
  5
2A3
330
288
100
AcDbEntity
  8
0
 62
     0
100
AcDbLine
 10
-3.939162667592968
 20
5.188416018424495
 30
0.0
 11
-4.054361335826181
 21
5.303614686657709
 31
0.0
  0
LINE
  5
2A4
330
288
100
AcDbEntity
  8
0
 62
     0
100
AcDbLine
 10
-3.956840337122629
 20
5.188416018424495
 30
0.0
 11
-4.063453743055037
 21
5.295029424356904
 31
0.0
  0
LINE
  5
2A5
330
288
100
AcDbEntity
  8
0
 62
     0
100
AcDbLine
 10
-3.786289162994345
 20
5.123930861474189
 30
0.0
 11
-3.968395608022435
 21
5.306037306502284
 31
0.0
  0
LINE
  5
2A6
330
288
100
AcDbEntity
  8
0
 62
     0
100
AcDbLine
 10
-3.790820285045855
 20
5.110784313996042
 30
0.0
 11
-3.977488015251298
 21
5.297452044201479
 31
0.0
  0
LINE
  5
2A7
330
288
100
AcDbEntity
  8
5
100
AcDbLine
 10
-4.069949034206496
 20
5.188416018424497
 30
0.0
 11
-3.875638891202912
 21
5.188416018424497
 31
0.0
  0
LINE
  5
2A8
330
288
100
AcDbEntity
  8
0
 62
     0
100
AcDbLine
 10
-4.045228684770949
 20
5.188416018424497
 30
0.0
 11
-4.069949034206496
 21
5.213136367860041
 31
0.0
  0
LINE
  5
2A9
330
288
100
AcDbEntity
  8
0
 62
     0
100
AcDbLine
 10
-4.062906354300617
 20
5.188416018424497
 30
0.0
 11
-4.069949034206496
 21
5.195458698330378
 31
0.0
  0
LINE
  5
2AA
330
288
100
AcDbEntity
  8
0
 62
     0
100
AcDbLine
 10
-3.992195676181959
 20
5.188416018424495
 30
0.0
 11
-4.069949034206496
 21
5.266169376449033
 31
0.0
  0
LINE
  5
2AB
330
288
100
AcDbEntity
  8
0
 62
     0
100
AcDbLine
 10
-4.00987334571162
 20
5.188416018424495
 30
0.0
 11
-4.069949034206496
 21
5.24849170691937
 31
0.0
  0
LINE
  5
2AC
330
288
100
AcDbEntity
  8
0
 62
     0
100
AcDbLine
 10
-4.027551015241288
 20
5.188416018424495
 30
0.0
 11
-4.069949034206496
 21
5.230814037389706
 31
0.0
  0
LINE
  5
2AD
330
288
100
AcDbEntity
  8
0
 62
     0
100
AcDbLine
 10
-3.974518006652298
 20
5.188416018424495
 30
0.0
 11
-4.069949034206496
 21
5.283847045978697
 31
0.0
  0
LINE
  5
2AE
330
288
100
AcDbEntity
  8
5
100
AcDbLine
 10
-3.904010361953945
 20
5.120056985403987
 30
0.0
 11
-3.904010361953952
 21
5.081818992145358
 31
0.0
  0
LINE
  5
2AF
330
288
100
AcDbEntity
  8
0
 62
     0
100
AcDbLine
 10
-3.876131085828612
 20
5.072351428071149
 30
0.0
 11
-3.904010361953945
 21
5.100230704196487
 31
0.0
  0
LINE
  5
2B0
330
288
100
AcDbEntity
  8
0
 62
     0
100
AcDbLine
 10
-3.902898864332934
 20
5.081441537045806
 30
0.0
 11
-3.904010361953952
 21
5.082553034666823
 31
0.0
  0
LINE
  5
2B1
330
288
100
AcDbEntity
  8
5
100
AcDbLine
 10
-3.842969729874612
 20
5.097704922538818
 30
0.0
 11
-3.904010361953945
 21
5.120056985403987
 31
0.0
  0
LINE
  5
2B2
330
288
100
AcDbEntity
  8
5
100
AcDbLine
 10
-3.875638891202912
 20
5.188416018424497
 30
0.0
 11
-3.842969729874612
 21
5.097704922538818
 31
0.0
  0
LINE
  5
2B3
330
288
100
AcDbEntity
  8
5
100
AcDbLine
 10
-3.944975527431056
 20
5.288786934748507
 30
0.0
 11
-3.96582025688003
 21
5.308469012926966
 31
0.0
  0
LINE
  5
2B4
330
288
100
AcDbEntity
  8
5
100
AcDbLine
 10
-4.049220256880028
 20
5.308469012926966
 30
0.0
 11
-4.070064986329009
 21
5.288786934748507
 31
0.0
  0
LINE
  5
2B5
330
288
100
AcDbEntity
  8
5
100
AcDbLine
 10
-4.028375527431053
 20
5.288786934748507
 30
0.0
 11
-4.049220256880028
 21
5.308469012926966
 31
0.0
  0
LINE
  5
2B6
330
288
100
AcDbEntity
  8
5
100
AcDbLine
 10
-4.007520256880036
 20
5.308469012926966
 30
0.0
 11
-4.028364986329004
 21
5.288786934748507
 31
0.0
  0
LINE
  5
2B7
330
288
100
AcDbEntity
  8
5
100
AcDbLine
 10
-3.986675527431055
 20
5.288786934748507
 30
0.0
 11
-4.007520256880036
 21
5.308469012926966
 31
0.0
  0
LINE
  5
2B8
330
288
100
AcDbEntity
  8
5
100
AcDbLine
 10
-3.96582025688003
 20
5.308469012926966
 30
0.0
 11
-3.986664986329012
 21
5.288786934748507
 31
0.0
  0
LINE
  5
2B9
330
288
100
AcDbEntity
  8
5
100
AcDbLine
 10
-3.924120256880032
 20
5.308469012926966
 30
0.0
 11
-3.944964986329006
 21
5.288786934748507
 31
0.0
  0
LINE
  5
2BA
330
288
100
AcDbEntity
  8
5
100
AcDbLine
 10
-3.903275527431057
 20
5.288786934748507
 30
0.0
 11
-3.924120256880032
 21
5.308469012926966
 31
0.0
  0
LINE
  5
2BB
330
288
100
AcDbEntity
  8
5
100
AcDbLine
 10
-3.882420256880033
 20
5.308469012926966
 30
0.0
 11
-3.903264986329007
 21
5.288786934748507
 31
0.0
  0
LINE
  5
2BC
330
288
100
AcDbEntity
  8
5
100
AcDbLine
 10
-3.861575527431051
 20
5.288786934748507
 30
0.0
 11
-3.882420256880033
 21
5.308469012926966
 31
0.0
  0
LINE
  5
2BD
330
288
100
AcDbEntity
  8
5
100
AcDbLine
 10
-3.840720256880027
 20
5.308469012926966
 30
0.0
 11
-3.861564986329009
 21
5.288786934748507
 31
0.0
  0
LINE
  5
2BE
330
288
100
AcDbEntity
  8
5
100
AcDbLine
 10
-3.81987552743106
 20
5.288786934748507
 30
0.0
 11
-3.840720256880027
 21
5.308469012926966
 31
0.0
  0
LINE
  5
2BF
330
288
100
AcDbEntity
  8
5
100
AcDbLine
 10
-3.799020256880035
 20
5.308469012926966
 30
0.0
 11
-3.81986498632901
 21
5.288786934748507
 31
0.0
  0
LINE
  5
2C0
330
288
100
AcDbEntity
  8
5
100
AcDbLine
 10
-3.569675527431053
 20
5.188416018424497
 30
0.0
 11
-3.569675527431053
 21
5.288786934748507
 31
0.0
  0
LINE
  5
2C1
330
288
100
AcDbEntity
  8
0
 62
     0
100
AcDbLine
 10
-3.569675527431053
 20
5.225515277444847
 30
0.0
 11
-3.642717511265184
 21
5.298557261278979
 31
0.0
  0
LINE
  5
2C2
330
288
100
AcDbEntity
  8
0
 62
     0
100
AcDbLine
 10
-3.569675527431053
 20
5.243192946974511
 30
0.0
 11
-3.633625104036328
 21
5.307142523579784
 31
0.0
  0
LINE
  5
2C3
330
288
100
AcDbEntity
  8
0
 62
     0
100
AcDbLine
 10
-3.569675527431053
 20
5.260870616504174
 30
0.0
 11
-3.604280850977739
 21
5.295475940050863
 31
0.0
  0
LINE
  5
2C4
330
288
100
AcDbEntity
  8
0
 62
     0
100
AcDbLine
 10
-3.569675527431053
 20
5.278548286033839
 30
0.0
 11
-3.595188443748883
 21
5.304061202351668
 31
0.0
  0
LINE
  5
2C5
330
288
100
AcDbEntity
  8
0
 62
     0
100
AcDbLine
 10
-3.673997624648011
 20
5.188416018424497
 30
0.0
 11
-3.776212306585231
 21
5.290630700361711
 31
0.0
  0
LINE
  5
2C6
330
288
100
AcDbEntity
  8
0
 62
     0
100
AcDbLine
 10
-3.65631995511835
 20
5.188416018424497
 30
0.0
 11
-3.767119899356368
 21
5.299215962662518
 31
0.0
  0
LINE
  5
2C7
330
288
100
AcDbEntity
  8
0
 62
     0
100
AcDbLine
 10
-3.638642285588682
 20
5.188416018424497
 30
0.0
 11
-3.758027492127512
 21
5.307801224963323
 31
0.0
  0
LINE
  5
2C8
330
288
100
AcDbEntity
  8
0
 62
     0
100
AcDbLine
 10
-3.620964616059021
 20
5.188416018424497
 30
0.0
 11
-3.72868323906893
 21
5.296134641434402
 31
0.0
  0
LINE
  5
2C9
330
288
100
AcDbEntity
  8
0
 62
     0
100
AcDbLine
 10
-3.60328694652936
 20
5.188416018424497
 30
0.0
 11
-3.719590831840067
 21
5.304719903735207
 31
0.0
  0
LINE
  5
2CA
330
288
100
AcDbEntity
  8
0
 62
     0
100
AcDbLine
 10
-3.585609276999692
 20
5.188416018424497
 30
0.0
 11
-3.690246578781485
 21
5.293053320206288
 31
0.0
  0
LINE
  5
2CB
330
288
100
AcDbEntity
  8
0
 62
     0
100
AcDbLine
 10
-3.569675527431053
 20
5.190159938385519
 30
0.0
 11
-3.681154171552629
 21
5.301638582507093
 31
0.0
  0
LINE
  5
2CC
330
288
100
AcDbEntity
  8
0
 62
     0
100
AcDbLine
 10
-3.569675527431053
 20
5.207837607915184
 30
0.0
 11
-3.651809918494047
 21
5.289971998978174
 31
0.0
  0
LINE
  5
2CD
330
288
100
AcDbEntity
  8
5
100
AcDbLine
 10
-3.569675527431053
 20
5.188416018424497
 30
0.0
 11
-3.764063546942781
 21
5.188416018424497
 31
0.0
  0
LINE
  5
2CE
330
288
100
AcDbEntity
  8
5
100
AcDbLine
 10
-3.7342876288553
 20
5.120056985403987
 30
0.0
 11
-3.7342876288553
 21
5.081818992145358
 31
0.0
  0
LINE
  5
2CF
330
288
100
AcDbEntity
  8
0
 62
     0
100
AcDbLine
 10
-3.7342876288553
 20
5.107284666394475
 30
0.0
 11
-3.74363653436769
 21
5.116633571906861
 31
0.0
  0
LINE
  5
2D0
330
288
100
AcDbEntity
  8
0
 62
     0
100
AcDbLine
 10
-3.7342876288553
 20
5.089606996864812
 30
0.0
 11
-3.756575990545451
 21
5.111895358554965
 31
0.0
  0
LINE
  5
2D1
330
288
100
AcDbEntity
  8
0
 62
     0
100
AcDbLine
 10
-3.741670226541147
 20
5.079311925020995
 30
0.0
 11
-3.76951544672322
 21
5.107157145203068
 31
0.0
  0
LINE
  5
2D2
330
288
100
AcDbEntity
  8
0
 62
     0
100
AcDbLine
 10
-3.754866540538175
 20
5.074830569488357
 30
0.0
 11
-3.782454902900989
 21
5.102418931851172
 31
0.0
  0
LINE
  5
2D3
330
288
100
AcDbEntity
  8
5
100
AcDbLine
 10
-3.611375527431059
 20
5.288786934748507
 30
0.0
 11
-3.632220256880033
 21
5.308469012926966
 31
0.0
  0
LINE
  5
2D4
330
288
100
AcDbEntity
  8
5
100
AcDbLine
 10
-3.75732025688003
 20
5.308469012926966
 30
0.0
 11
-3.778164986329011
 21
5.288786934748507
 31
0.0
  0
LINE
  5
2D5
330
288
100
AcDbEntity
  8
5
100
AcDbLine
 10
-3.736475527431055
 20
5.288786934748507
 30
0.0
 11
-3.75732025688003
 21
5.308469012926966
 31
0.0
  0
LINE
  5
2D6
330
288
100
AcDbEntity
  8
5
100
AcDbLine
 10
-3.715620256880031
 20
5.308469012926966
 30
0.0
 11
-3.736464986329005
 21
5.288786934748507
 31
0.0
  0
LINE
  5
2D7
330
288
100
AcDbEntity
  8
5
100
AcDbLine
 10
-3.694775527431056
 20
5.288786934748507
 30
0.0
 11
-3.715620256880031
 21
5.308469012926966
 31
0.0
  0
LINE
  5
2D8
330
288
100
AcDbEntity
  8
5
100
AcDbLine
 10
-3.673920256880032
 20
5.308469012926966
 30
0.0
 11
-3.694764986329007
 21
5.288786934748507
 31
0.0
  0
LINE
  5
2D9
330
288
100
AcDbEntity
  8
5
100
AcDbLine
 10
-3.653075527431051
 20
5.288786934748507
 30
0.0
 11
-3.673920256880032
 21
5.308469012926966
 31
0.0
  0
LINE
  5
2DA
330
288
100
AcDbEntity
  8
5
100
AcDbLine
 10
-3.632220256880033
 20
5.308469012926966
 30
0.0
 11
-3.653064986329008
 21
5.288786934748507
 31
0.0
  0
LINE
  5
2DB
330
288
100
AcDbEntity
  8
5
100
AcDbLine
 10
-3.590520256880035
 20
5.308469012926966
 30
0.0
 11
-3.611364986329009
 21
5.288786934748507
 31
0.0
  0
LINE
  5
2DC
330
288
100
AcDbEntity
  8
5
100
AcDbLine
 10
-3.569675527431053
 20
5.288786934748507
 30
0.0
 11
-3.590520256880035
 21
5.308469012926966
 31
0.0
  0
LINE
  5
2DD
330
288
100
AcDbEntity
  8
5
100
AcDbLine
 10
-3.590520256880035
 20
5.308469012926966
 30
0.0
 11
-3.611364986329009
 21
5.288786934748507
 31
0.0
  0
LINE
  5
2DE
330
288
100
AcDbEntity
  8
5
100
AcDbLine
 10
-3.569675527431053
 20
5.288786934748507
 30
0.0
 11
-3.590520256880035
 21
5.308469012926966
 31
0.0
  0
LINE
  5
2DF
330
288
100
AcDbEntity
  8
5
100
AcDbLine
 10
-3.590520256880035
 20
5.308469012926966
 30
0.0
 11
-3.611364986329009
 21
5.288786934748507
 31
0.0
  0
LINE
  5
2E0
330
288
100
AcDbEntity
  8
5
100
AcDbLine
 10
-3.569675527431053
 20
5.288786934748507
 30
0.0
 11
-3.590520256880035
 21
5.308469012926966
 31
0.0
  0
LINE
  5
2E1
330
288
100
AcDbEntity
  8
5
100
AcDbLine
 10
-3.590520256880035
 20
5.308469012926966
 30
0.0
 11
-3.611364986329009
 21
5.288786934748507
 31
0.0
  0
LINE
  5
2E2
330
288
100
AcDbEntity
  8
5
100
AcDbLine
 10
-3.569675527431053
 20
5.288786934748507
 30
0.0
 11
-3.590520256880035
 21
5.308469012926966
 31
0.0
  0
LINE
  5
2E3
330
288
100
AcDbEntity
  8
5
100
AcDbLine
 10
-3.590520256880035
 20
5.308469012926966
 30
0.0
 11
-3.611364986329009
 21
5.288786934748507
 31
0.0
  0
LINE
  5
2E4
330
288
100
AcDbEntity
  8
5
100
AcDbLine
 10
-3.569675527431053
 20
5.288786934748507
 30
0.0
 11
-3.590520256880035
 21
5.308469012926966
 31
0.0
  0
LINE
  5
2E5
330
288
100
AcDbEntity
  8
5
100
AcDbLine
 10
-3.590520256880035
 20
5.308469012926966
 30
0.0
 11
-3.611364986329009
 21
5.288786934748507
 31
0.0
  0
LINE
  5
2E6
330
288
100
AcDbEntity
  8
5
100
AcDbLine
 10
-3.569675527431053
 20
5.288786934748507
 30
0.0
 11
-3.590520256880035
 21
5.308469012926966
 31
0.0
  0
LINE
  5
2E7
330
288
100
AcDbEntity
  8
5
100
AcDbLine
 10
-3.590520256880035
 20
5.308469012926966
 30
0.0
 11
-3.611364986329009
 21
5.288786934748507
 31
0.0
  0
LINE
  5
2E8
330
288
100
AcDbEntity
  8
5
100
AcDbLine
 10
-3.569675527431053
 20
5.288786934748507
 30
0.0
 11
-3.590520256880035
 21
5.308469012926966
 31
0.0
  0
LINE
  5
2E9
330
288
100
AcDbEntity
  8
5
100
AcDbLine
 10
-3.590520256880035
 20
5.308469012926966
 30
0.0
 11
-3.611364986329009
 21
5.288786934748507
 31
0.0
  0
LINE
  5
2EA
330
288
100
AcDbEntity
  8
5
100
AcDbLine
 10
-3.569675527431053
 20
5.288786934748507
 30
0.0
 11
-3.590520256880035
 21
5.308469012926966
 31
0.0
  0
LINE
  5
2EB
330
288
100
AcDbEntity
  8
5
100
AcDbLine
 10
-3.590520256880035
 20
5.308469012926966
 30
0.0
 11
-3.611364986329009
 21
5.288786934748507
 31
0.0
  0
LINE
  5
2EC
330
288
100
AcDbEntity
  8
5
100
AcDbLine
 10
-3.569675527431053
 20
5.288786934748507
 30
0.0
 11
-3.590520256880035
 21
5.308469012926966
 31
0.0
  0
LINE
  5
2ED
330
288
100
AcDbEntity
  8
5
100
AcDbLine
 10
-3.590520256880035
 20
5.308469012926966
 30
0.0
 11
-3.611364986329009
 21
5.288786934748507
 31
0.0
  0
LINE
  5
2EE
330
288
100
AcDbEntity
  8
5
100
AcDbLine
 10
-3.569675527431053
 20
5.288786934748507
 30
0.0
 11
-3.590520256880035
 21
5.308469012926966
 31
0.0
  0
LINE
  5
2EF
330
288
100
AcDbEntity
  8
5
100
AcDbLine
 10
-3.590520256880035
 20
5.308469012926966
 30
0.0
 11
-3.611364986329009
 21
5.288786934748507
 31
0.0
  0
LINE
  5
2F0
330
288
100
AcDbEntity
  8
5
100
AcDbLine
 10
-3.569675527431053
 20
5.288786934748507
 30
0.0
 11
-3.590520256880035
 21
5.308469012926966
 31
0.0
  0
LINE
  5
2F1
330
288
100
AcDbEntity
  8
5
100
AcDbLine
 10
-3.590520256880035
 20
5.308469012926966
 30
0.0
 11
-3.611364986329009
 21
5.288786934748507
 31
0.0
  0
LINE
  5
2F2
330
288
100
AcDbEntity
  8
5
100
AcDbLine
 10
-3.569675527431053
 20
5.288786934748507
 30
0.0
 11
-3.590520256880035
 21
5.308469012926966
 31
0.0
  0
ENDBLK
  5
2F3
330
288
100
AcDbEntity
  8
0
100
AcDbBlockEnd
  0
BLOCK
  5
176
330
175
100
AcDbEntity
  8
5
100
AcDbBlockBegin
  2
10-2
 70
     0
 10
0.0
 20
0.0
 30
0.0
  3
10-2
  1

  0
LINE
  5
177
330
175
100
AcDbEntity
  8
0
100
AcDbLine
 10
-0.0993865681774908
 20
-1.74544415217491
 30
0.0
 11
0.0990878887811429
 21
-1.709755047174977
 31
0.0
  0
LINE
  5
178
330
175
100
AcDbEntity
  8
0
100
AcDbLine
 10
-0.0624760390166728
 20
-1.265568508878473
 30
0.0
 11
-0.0994593600000009
 21
-1.244216178553221
 31
0.0
  0
LINE
  5
179
330
175
100
AcDbEntity
  8
0
100
AcDbLine
 10
-0.0624760390166745
 20
-1.295050523487873
 30
0.0
 11
-0.0624760390166728
 21
-1.265568508878471
 31
0.0
  0
LINE
  5
17A
330
175
100
AcDbEntity
  8
0
100
AcDbLine
 10
0.062476039016671
 20
-1.230051846508419
 30
0.0
 11
-0.0624760390166728
 21
-1.265568508878473
 31
0.0
  0
LINE
  5
17B
330
175
100
AcDbEntity
  8
0
100
AcDbLine
 10
0.062476039016671
 20
-1.229475171248521
 30
0.0
 11
0.062476039016671
 21
-1.258957185857923
 31
0.0
  0
LINE
  5
17C
330
175
100
AcDbEntity
  8
0
100
AcDbLine
 10
0.062476039016671
 20
-1.258957185857922
 30
0.0
 11
-0.0624760390166745
 21
-1.294473848227973
 31
0.0
  0
LINE
  5
17D
330
175
100
AcDbEntity
  8
0
100
AcDbLine
 10
0.062476039016671
 20
-1.258957185857922
 30
0.0
 11
0.0994593599999991
 21
-1.280309516183171
 31
0.0
  0
LINE
  5
17E
330
175
100
AcDbEntity
  8
0
100
AcDbLine
 10
0.0994593599999991
 20
-1.495139516183175
 30
0.0
 11
-0.0994593600000009
 21
-1.530656178553227
 31
0.0
  0
LINE
  5
17F
330
175
100
AcDbEntity
  8
0
100
AcDbLine
 10
-0.0994593600000009
 20
-1.530656178553227
 30
0.0
 11
-0.0624760390166728
 21
-1.509303848227977
 31
0.0
  0
LINE
  5
180
330
175
100
AcDbEntity
  8
0
100
AcDbLine
 10
-0.0624760390166745
 20
-1.509880523487877
 30
0.0
 11
-0.0624760390166728
 21
-1.480398508878475
 31
0.0
  0
LINE
  5
181
330
175
100
AcDbEntity
  8
0
100
AcDbLine
 10
0.062476039016671
 20
-1.444881846508424
 30
0.0
 11
-0.0624760390166728
 21
-1.480398508878477
 31
0.0
  0
LINE
  5
182
330
175
100
AcDbEntity
  8
0
100
AcDbLine
 10
-0.0624760390166728
 20
-1.480398508878477
 30
0.0
 11
-0.0994593600000009
 21
-1.459046178553225
 31
0.0
  0
LINE
  5
183
330
175
100
AcDbEntity
  8
0
100
AcDbLine
 10
0.062476039016671
 20
-1.473787185857925
 30
0.0
 11
-0.0624760390166745
 21
-1.509303848227977
 31
0.0
  0
LINE
  5
184
330
175
100
AcDbEntity
  8
0
100
AcDbLine
 10
0.062476039016671
 20
-1.444305171248525
 30
0.0
 11
0.062476039016671
 21
-1.473787185857927
 31
0.0
  0
LINE
  5
185
330
175
100
AcDbEntity
  8
0
100
AcDbLine
 10
0.062476039016671
 20
-1.473787185857925
 30
0.0
 11
0.0994593599999991
 21
-1.495139516183175
 31
0.0
  0
LINE
  5
186
330
175
100
AcDbEntity
  8
0
100
AcDbLine
 10
0.0994593599999991
 20
-1.495139516183175
 30
0.0
 11
0.062476039016671
 21
-1.516491846508425
 31
0.0
  0
LINE
  5
187
330
175
100
AcDbEntity
  8
0
100
AcDbLine
 10
0.0994593599999991
 20
-1.423529516183174
 30
0.0
 11
-0.0994593600000009
 21
-1.459046178553225
 31
0.0
  0
LINE
  5
188
330
175
100
AcDbEntity
  8
0
100
AcDbLine
 10
-0.0994593600000009
 20
-1.459046178553225
 30
0.0
 11
-0.0624760390166728
 21
-1.437693848227975
 31
0.0
  0
LINE
  5
189
330
175
100
AcDbEntity
  8
0
100
AcDbLine
 10
-0.0624760390166745
 20
-1.438270523487875
 30
0.0
 11
-0.0624760390166728
 21
-1.408788508878474
 31
0.0
  0
LINE
  5
18A
330
175
100
AcDbEntity
  8
0
100
AcDbLine
 10
0.062476039016671
 20
-1.373271846508422
 30
0.0
 11
-0.0624760390166728
 21
-1.408788508878476
 31
0.0
  0
LINE
  5
18B
330
175
100
AcDbEntity
  8
0
100
AcDbLine
 10
-0.0624760390166728
 20
-1.408788508878476
 30
0.0
 11
-0.0994593600000009
 21
-1.387436178553224
 31
0.0
  0
LINE
  5
18C
330
175
100
AcDbEntity
  8
0
100
AcDbLine
 10
0.062476039016671
 20
-1.402177185857924
 30
0.0
 11
-0.0624760390166745
 21
-1.437693848227975
 31
0.0
  0
LINE
  5
18D
330
175
100
AcDbEntity
  8
0
100
AcDbLine
 10
0.062476039016671
 20
-1.372695171248524
 30
0.0
 11
0.062476039016671
 21
-1.402177185857925
 31
0.0
  0
LINE
  5
18E
330
175
100
AcDbEntity
  8
0
100
AcDbLine
 10
0.062476039016671
 20
-1.402177185857924
 30
0.0
 11
0.0994593599999991
 21
-1.423529516183174
 31
0.0
  0
LINE
  5
18F
330
175
100
AcDbEntity
  8
0
100
AcDbLine
 10
0.0994593599999991
 20
-1.423529516183174
 30
0.0
 11
0.062476039016671
 21
-1.444881846508424
 31
0.0
  0
LINE
  5
190
330
175
100
AcDbEntity
  8
0
100
AcDbLine
 10
0.0994593599999991
 20
-1.351919516183172
 30
0.0
 11
-0.0994593600000009
 21
-1.387436178553224
 31
0.0
  0
LINE
  5
191
330
175
100
AcDbEntity
  8
0
100
AcDbLine
 10
-0.0994593600000009
 20
-1.387436178553224
 30
0.0
 11
-0.0624760390166728
 21
-1.366083848227974
 31
0.0
  0
LINE
  5
192
330
175
100
AcDbEntity
  8
0
100
AcDbLine
 10
-0.0624760390166745
 20
-1.366660523487874
 30
0.0
 11
-0.0624760390166728
 21
-1.337178508878472
 31
0.0
  0
LINE
  5
193
330
175
100
AcDbEntity
  8
0
100
AcDbLine
 10
0.062476039016671
 20
-1.301661846508421
 30
0.0
 11
-0.0624760390166728
 21
-1.337178508878474
 31
0.0
  0
LINE
  5
194
330
175
100
AcDbEntity
  8
0
100
AcDbLine
 10
-0.0624760390166728
 20
-1.337178508878474
 30
0.0
 11
-0.0994593600000009
 21
-1.315826178553222
 31
0.0
  0
LINE
  5
195
330
175
100
AcDbEntity
  8
0
100
AcDbLine
 10
0.062476039016671
 20
-1.330567185857922
 30
0.0
 11
-0.0624760390166745
 21
-1.366083848227974
 31
0.0
  0
LINE
  5
196
330
175
100
AcDbEntity
  8
0
100
AcDbLine
 10
0.062476039016671
 20
-1.301085171248522
 30
0.0
 11
0.062476039016671
 21
-1.330567185857925
 31
0.0
  0
LINE
  5
197
330
175
100
AcDbEntity
  8
0
100
AcDbLine
 10
0.062476039016671
 20
-1.330567185857922
 30
0.0
 11
0.0994593599999991
 21
-1.351919516183172
 31
0.0
  0
LINE
  5
198
330
175
100
AcDbEntity
  8
0
100
AcDbLine
 10
0.0994593599999991
 20
-1.351919516183172
 30
0.0
 11
0.062476039016671
 21
-1.373271846508422
 31
0.0
  0
LINE
  5
199
330
175
100
AcDbEntity
  8
0
100
AcDbLine
 10
0.0994593599999991
 20
-1.280309516183171
 30
0.0
 11
-0.0994593600000009
 21
-1.315826178553222
 31
0.0
  0
LINE
  5
19A
330
175
100
AcDbEntity
  8
0
100
AcDbLine
 10
-0.0994593600000009
 20
-1.315826178553222
 30
0.0
 11
-0.0624760390166728
 21
-1.294473848227973
 31
0.0
  0
LINE
  5
19B
330
175
100
AcDbEntity
  8
0
100
AcDbLine
 10
0.0994593599999991
 20
-1.280309516183171
 30
0.0
 11
0.062476039016671
 21
-1.301661846508421
 31
0.0
  0
ARC
  5
19C
330
175
100
AcDbEntity
  8
0
100
AcDbCircle
 10
-0.000433840223244
 20
-1.886016649306523
 30
0.0
 40
0.03125
100
AcDbArc
 50
202.499999975583
 51
337.500000024416
  0
LINE
  5
19D
330
175
100
AcDbEntity
  8
0
100
AcDbLine
 10
-0.3039403194853296
 20
0.046875
 30
0.0
 11
0.303509713563022
 21
0.046875
 31
0.0
  0
LINE
  5
19E
330
175
100
AcDbEntity
  8
0
100
AcDbLine
 10
-0.3039403194853296
 20
0.03125
 30
0.0
 11
0.303509713563022
 21
0.03125
 31
0.0
  0
LINE
  5
19F
330
175
100
AcDbEntity
  8
0
100
AcDbLine
 10
-0.3039403194853296
 20
0.015625
 30
0.0
 11
0.303509713563022
 21
0.015625
 31
0.0
  0
LINE
  5
1A0
330
175
100
AcDbEntity
  8
0
100
AcDbLine
 10
-0.3039403194853296
 20
0.0
 30
0.0
 11
0.303509713563022
 21
0.0
 31
0.0
  0
LINE
  5
1A1
330
175
100
AcDbEntity
  8
0
100
AcDbLine
 10
-0.3039403194853296
 20
0.0625
 30
0.0
 11
0.303509713563022
 21
0.0625
 31
0.0
  0
LINE
  5
1A2
330
175
100
AcDbEntity
  8
0
100
AcDbLine
 10
0.0497083939686434
 20
-1.830307341021394
 30
0.0
 11
0.0657718628324613
 21
-1.846781384353356
 31
0.0
  0
LINE
  5
1A3
330
175
100
AcDbEntity
  8
0
100
AcDbLine
 10
0.0422488686893967
 20
-1.86463165983539
 30
0.0
 11
0.0657718628324613
 21
-1.846781384353356
 31
0.0
  0
LINE
  5
1A4
330
175
100
AcDbEntity
  8
0
100
AcDbLine
 10
0.0422488686893967
 20
-1.86463165983539
 30
0.0
 11
0.0284373951728299
 21
-1.897975506555629
 31
0.0
  0
LINE
  5
1A5
330
175
100
AcDbEntity
  8
0
100
AcDbLine
 10
0.0621773596203248
 20
-1.802675351121907
 30
0.0
 11
0.0497083939686434
 21
-1.830307341021394
 31
0.0
  0
LINE
  5
1A6
330
175
100
AcDbEntity
  8
0
100
AcDbLine
 10
-0.0337537345876449
 20
-1.887235493726974
 30
0.0
 11
-0.0293050756193178
 21
-1.897975506555629
 31
0.0
  0
LINE
  5
1A7
330
175
100
AcDbEntity
  8
0
100
AcDbLine
 10
-0.0712623513852755
 20
-1.87236065280221
 30
0.0
 11
-0.0538482121973552
 21
-1.859742505888399
 31
0.0
  0
LINE
  5
1A8
330
175
100
AcDbEntity
  8
0
100
AcDbLine
 10
-0.0415053204264329
 20
-1.889540882636582
 30
0.0
 11
-0.0712623513852755
 21
-1.87236065280221
 31
0.0
  0
LINE
  5
1A9
330
175
100
AcDbEntity
  8
0
100
AcDbLine
 10
-0.0415053204264329
 20
-1.889540882636582
 30
0.0
 11
0.0422488686893967
 21
-1.86463165983539
 31
0.0
  0
LINE
  5
1AA
330
175
100
AcDbEntity
  8
0
100
AcDbLine
 10
-0.0712623513852755
 20
-1.87236065280221
 30
0.0
 11
0.0657718628324613
 21
-1.846781384353356
 31
0.0
  0
LINE
  5
1AB
330
175
100
AcDbEntity
  8
0
100
AcDbLine
 10
0.0497083939686434
 20
-1.830307341021394
 30
0.0
 11
-0.0538482121973552
 21
-1.859742505888399
 31
0.0
  0
LINE
  5
1AC
330
175
100
AcDbEntity
  8
0
100
AcDbLine
 10
-0.062774718413019
 20
-1.83819201349196
 30
0.0
 11
-0.0538482121973552
 21
-1.859742505888399
 31
0.0
  0
LINE
  5
1AD
330
175
100
AcDbEntity
  8
0
100
AcDbLine
 10
0.0994690188352117
 20
-0.0629377916114784
 30
0.0
 11
0.0994690188352117
 21
0.0000024174339757
 31
0.0
  0
LINE
  5
1AE
330
175
100
AcDbEntity
  8
2
100
AcDbLine
 10
0.0
 20
-1.69306689390373
 30
0.0
 11
0.0
 21
0.3668767342373318
 31
0.0
  0
CIRCLE
  5
1B1
330
175
100
AcDbEntity
  8
2
100
AcDbCircle
 10
0.0
 20
0.0000000000000053
 30
0.0
 40
0.053398346037536
  0
LINE
  5
1B2
330
175
100
AcDbEntity
  8
0
100
AcDbLine
 10
-0.0994593600000009
 20
-0.0984561785532012
 30
0.0
 11
-0.0994593600000009
 21
0.0
 31
0.0
  0
LINE
  5
1B3
330
175
100
AcDbEntity
  8
0
100
AcDbLine
 10
0.0994690188352117
 20
-0.062933939652039
 30
0.0
 11
0.062476039016671
 21
-0.084291846508398
 31
0.0
  0
LINE
  5
1B4
330
175
100
AcDbEntity
  8
0
100
AcDbLine
 10
0.0994690188352117
 20
-0.0629377916114784
 30
0.0
 11
-0.0994593600000009
 21
-0.0984561785532012
 31
0.0
  0
LINE
  5
1B5
330
175
100
AcDbEntity
  8
0
100
AcDbLine
 10
0.0994593599999991
 20
-0.1345495161831494
 30
0.0
 11
0.062476039016671
 21
-0.1559018465083994
 31
0.0
  0
LINE
  5
1B6
330
175
100
AcDbEntity
  8
0
100
AcDbLine
 10
0.062476039016671
 20
-0.1131971858579011
 30
0.0
 11
0.0994593599999991
 21
-0.1345495161831494
 31
0.0
  0
LINE
  5
1B7
330
175
100
AcDbEntity
  8
0
100
AcDbLine
 10
0.062476039016671
 20
-0.0837151712484996
 30
0.0
 11
0.062476039016671
 21
-0.1131971858579028
 31
0.0
  0
LINE
  5
1B8
330
175
100
AcDbEntity
  8
0
100
AcDbLine
 10
0.062476039016671
 20
-0.1131971858579011
 30
0.0
 11
-0.0624760390166745
 21
-0.1487138482279526
 31
0.0
  0
LINE
  5
1B9
330
175
100
AcDbEntity
  8
0
100
AcDbLine
 10
-0.0624760390166728
 20
-0.1198085088784513
 30
0.0
 11
-0.0994593600000009
 21
-0.0984561785532012
 31
0.0
  0
LINE
  5
1BA
330
175
100
AcDbEntity
  8
0
100
AcDbLine
 10
0.062476039016671
 20
-0.084291846508398
 30
0.0
 11
-0.0624760390166728
 21
-0.1198085088784513
 31
0.0
  0
LINE
  5
1BB
330
175
100
AcDbEntity
  8
0
100
AcDbLine
 10
-0.0624760390166745
 20
-0.149290523487851
 30
0.0
 11
-0.0624760390166728
 21
-0.1198085088784513
 31
0.0
  0
LINE
  5
1BC
330
175
100
AcDbEntity
  8
0
100
AcDbLine
 10
-0.0994593600000009
 20
-0.1700661785532009
 30
0.0
 11
-0.0624760390166728
 21
-0.1487138482279526
 31
0.0
  0
LINE
  5
1BD
330
175
100
AcDbEntity
  8
0
100
AcDbLine
 10
0.0994593599999991
 20
-0.1345495161831494
 30
0.0
 11
-0.0994593600000009
 21
-0.1700661785532009
 31
0.0
  0
LINE
  5
1BE
330
175
100
AcDbEntity
  8
0
100
AcDbLine
 10
0.0994593599999991
 20
-0.2061595161831509
 30
0.0
 11
0.062476039016671
 21
-0.2275118465084009
 31
0.0
  0
LINE
  5
1BF
330
175
100
AcDbEntity
  8
0
100
AcDbLine
 10
0.062476039016671
 20
-0.1848071858579008
 30
0.0
 11
0.0994593599999991
 21
-0.2061595161831509
 31
0.0
  0
LINE
  5
1C0
330
175
100
AcDbEntity
  8
0
100
AcDbLine
 10
0.062476039016671
 20
-0.1553251712485011
 30
0.0
 11
0.062476039016671
 21
-0.1848071858579043
 31
0.0
  0
LINE
  5
1C1
330
175
100
AcDbEntity
  8
0
100
AcDbLine
 10
0.062476039016671
 20
-0.1848071858579008
 30
0.0
 11
-0.0624760390166745
 21
-0.2203238482279524
 31
0.0
  0
LINE
  5
1C2
330
175
100
AcDbEntity
  8
0
100
AcDbLine
 10
-0.0624760390166728
 20
-0.1914185088784528
 30
0.0
 11
-0.0994593600000009
 21
-0.1700661785532009
 31
0.0
  0
LINE
  5
1C3
330
175
100
AcDbEntity
  8
0
100
AcDbLine
 10
0.062476039016671
 20
-0.1559018465083994
 30
0.0
 11
-0.0624760390166728
 21
-0.1914185088784528
 31
0.0
  0
LINE
  5
1C4
330
175
100
AcDbEntity
  8
0
100
AcDbLine
 10
-0.0624760390166745
 20
-0.2209005234878525
 30
0.0
 11
-0.0624760390166728
 21
-0.191418508878451
 31
0.0
  0
LINE
  5
1C5
330
175
100
AcDbEntity
  8
0
100
AcDbLine
 10
-0.0994593600000009
 20
-0.2416761785532024
 30
0.0
 11
-0.0624760390166728
 21
-0.2203238482279524
 31
0.0
  0
LINE
  5
1C6
330
175
100
AcDbEntity
  8
0
100
AcDbLine
 10
0.0994593599999991
 20
-0.2061595161831509
 30
0.0
 11
-0.0994593600000009
 21
-0.2416761785532024
 31
0.0
  0
LINE
  5
1C7
330
175
100
AcDbEntity
  8
0
100
AcDbLine
 10
0.0994593599999991
 20
-0.2777695161831524
 30
0.0
 11
0.062476039016671
 21
-0.2991218465084024
 31
0.0
  0
LINE
  5
1C8
330
175
100
AcDbEntity
  8
0
100
AcDbLine
 10
0.062476039016671
 20
-0.2564171858579023
 30
0.0
 11
0.0994593599999991
 21
-0.2777695161831524
 31
0.0
  0
LINE
  5
1C9
330
175
100
AcDbEntity
  8
0
100
AcDbLine
 10
0.062476039016671
 20
-0.2269351712485026
 30
0.0
 11
0.062476039016671
 21
-0.2564171858579041
 31
0.0
  0
LINE
  5
1CA
330
175
100
AcDbEntity
  8
0
100
AcDbLine
 10
0.062476039016671
 20
-0.2564171858579023
 30
0.0
 11
-0.0624760390166745
 21
-0.2919338482279539
 31
0.0
  0
LINE
  5
1CB
330
175
100
AcDbEntity
  8
0
100
AcDbLine
 10
-0.0624760390166728
 20
-0.2630285088784543
 30
0.0
 11
-0.0994593600000009
 21
-0.2416761785532024
 31
0.0
  0
LINE
  5
1CC
330
175
100
AcDbEntity
  8
0
100
AcDbLine
 10
0.062476039016671
 20
-0.2275118465084009
 30
0.0
 11
-0.0624760390166728
 21
-0.2630285088784543
 31
0.0
  0
LINE
  5
1CD
330
175
100
AcDbEntity
  8
0
100
AcDbLine
 10
-0.0624760390166745
 20
-0.292510523487854
 30
0.0
 11
-0.0624760390166728
 21
-0.2630285088784525
 31
0.0
  0
LINE
  5
1CE
330
175
100
AcDbEntity
  8
0
100
AcDbLine
 10
-0.0994593600000009
 20
-0.3132861785532039
 30
0.0
 11
-0.0624760390166728
 21
-0.2919338482279539
 31
0.0
  0
LINE
  5
1CF
330
175
100
AcDbEntity
  8
0
100
AcDbLine
 10
0.0994593599999991
 20
-0.2777695161831524
 30
0.0
 11
-0.0994593600000009
 21
-0.3132861785532039
 31
0.0
  0
LINE
  5
1D0
330
175
100
AcDbEntity
  8
0
100
AcDbLine
 10
0.0994593599999991
 20
-0.3493795161831539
 30
0.0
 11
0.062476039016671
 21
-0.370731846508404
 31
0.0
  0
LINE
  5
1D1
330
175
100
AcDbEntity
  8
0
100
AcDbLine
 10
0.062476039016671
 20
-0.3280271858579038
 30
0.0
 11
0.0994593599999991
 21
-0.3493795161831539
 31
0.0
  0
LINE
  5
1D2
330
175
100
AcDbEntity
  8
0
100
AcDbLine
 10
0.062476039016671
 20
-0.2985451712485041
 30
0.0
 11
0.062476039016671
 21
-0.3280271858579056
 31
0.0
  0
LINE
  5
1D3
330
175
100
AcDbEntity
  8
0
100
AcDbLine
 10
0.062476039016671
 20
-0.3280271858579038
 30
0.0
 11
-0.0624760390166745
 21
-0.3635438482279554
 31
0.0
  0
LINE
  5
1D4
330
175
100
AcDbEntity
  8
0
100
AcDbLine
 10
-0.0624760390166728
 20
-0.3346385088784558
 30
0.0
 11
-0.0994593600000009
 21
-0.3132861785532039
 31
0.0
  0
LINE
  5
1D5
330
175
100
AcDbEntity
  8
0
100
AcDbLine
 10
0.062476039016671
 20
-0.2991218465084024
 30
0.0
 11
-0.0624760390166728
 21
-0.3346385088784558
 31
0.0
  0
LINE
  5
1D6
330
175
100
AcDbEntity
  8
0
100
AcDbLine
 10
-0.0624760390166745
 20
-0.3641205234878555
 30
0.0
 11
-0.0624760390166728
 21
-0.334638508878454
 31
0.0
  0
LINE
  5
1D7
330
175
100
AcDbEntity
  8
0
100
AcDbLine
 10
-0.0994593600000009
 20
-0.3848961785532054
 30
0.0
 11
-0.0624760390166728
 21
-0.3635438482279554
 31
0.0
  0
LINE
  5
1D8
330
175
100
AcDbEntity
  8
0
100
AcDbLine
 10
0.0994593599999991
 20
-0.3493795161831539
 30
0.0
 11
-0.0994593600000009
 21
-0.3848961785532054
 31
0.0
  0
LINE
  5
1D9
330
175
100
AcDbEntity
  8
0
100
AcDbLine
 10
0.0994593599999991
 20
-0.4209895161831554
 30
0.0
 11
0.062476039016671
 21
-0.4423418465084055
 31
0.0
  0
LINE
  5
1DA
330
175
100
AcDbEntity
  8
0
100
AcDbLine
 10
0.062476039016671
 20
-0.3996371858579053
 30
0.0
 11
0.0994593599999991
 21
-0.4209895161831554
 31
0.0
  0
LINE
  5
1DB
330
175
100
AcDbEntity
  8
0
100
AcDbLine
 10
0.062476039016671
 20
-0.3701551712485056
 30
0.0
 11
0.062476039016671
 21
-0.3996371858579071
 31
0.0
  0
LINE
  5
1DC
330
175
100
AcDbEntity
  8
0
100
AcDbLine
 10
0.062476039016671
 20
-0.3996371858579053
 30
0.0
 11
-0.0624760390166745
 21
-0.4351538482279569
 31
0.0
  0
LINE
  5
1DD
330
175
100
AcDbEntity
  8
0
100
AcDbLine
 10
-0.0624760390166728
 20
-0.4062485088784574
 30
0.0
 11
-0.0994593600000009
 21
-0.3848961785532054
 31
0.0
  0
LINE
  5
1DE
330
175
100
AcDbEntity
  8
0
100
AcDbLine
 10
0.062476039016671
 20
-0.370731846508404
 30
0.0
 11
-0.0624760390166728
 21
-0.4062485088784574
 31
0.0
  0
LINE
  5
1DF
330
175
100
AcDbEntity
  8
0
100
AcDbLine
 10
-0.0624760390166745
 20
-0.4357305234878571
 30
0.0
 11
-0.0624760390166728
 21
-0.4062485088784556
 31
0.0
  0
LINE
  5
1E0
330
175
100
AcDbEntity
  8
0
100
AcDbLine
 10
-0.0994593600000009
 20
-0.456506178553207
 30
0.0
 11
-0.0624760390166728
 21
-0.4351538482279569
 31
0.0
  0
LINE
  5
1E1
330
175
100
AcDbEntity
  8
0
100
AcDbLine
 10
0.0994593599999991
 20
-0.4209895161831554
 30
0.0
 11
-0.0994593600000009
 21
-0.456506178553207
 31
0.0
  0
LINE
  5
1E2
330
175
100
AcDbEntity
  8
0
100
AcDbLine
 10
0.0994593599999991
 20
-0.4925995161831569
 30
0.0
 11
0.062476039016671
 21
-0.513951846508407
 31
0.0
  0
LINE
  5
1E3
330
175
100
AcDbEntity
  8
0
100
AcDbLine
 10
0.062476039016671
 20
-0.4712471858579069
 30
0.0
 11
0.0994593599999991
 21
-0.4925995161831569
 31
0.0
  0
LINE
  5
1E4
330
175
100
AcDbEntity
  8
0
100
AcDbLine
 10
0.062476039016671
 20
-0.4417651712485072
 30
0.0
 11
0.062476039016671
 21
-0.4712471858579086
 31
0.0
  0
LINE
  5
1E5
330
175
100
AcDbEntity
  8
0
100
AcDbLine
 10
0.062476039016671
 20
-0.4712471858579069
 30
0.0
 11
-0.0624760390166745
 21
-0.5067638482279584
 31
0.0
  0
LINE
  5
1E6
330
175
100
AcDbEntity
  8
0
100
AcDbLine
 10
-0.0624760390166728
 20
-0.4778585088784589
 30
0.0
 11
-0.0994593600000009
 21
-0.456506178553207
 31
0.0
  0
LINE
  5
1E7
330
175
100
AcDbEntity
  8
0
100
AcDbLine
 10
0.062476039016671
 20
-0.4423418465084055
 30
0.0
 11
-0.0624760390166728
 21
-0.4778585088784589
 31
0.0
  0
LINE
  5
1E8
330
175
100
AcDbEntity
  8
0
100
AcDbLine
 10
-0.0624760390166745
 20
-0.5073405234878586
 30
0.0
 11
-0.0624760390166728
 21
-0.4778585088784571
 31
0.0
  0
LINE
  5
1E9
330
175
100
AcDbEntity
  8
0
100
AcDbLine
 10
-0.0994593600000009
 20
-0.5281161785532085
 30
0.0
 11
-0.0624760390166728
 21
-0.5067638482279584
 31
0.0
  0
LINE
  5
1EA
330
175
100
AcDbEntity
  8
0
100
AcDbLine
 10
0.0994593599999991
 20
-0.4925995161831569
 30
0.0
 11
-0.0994593600000009
 21
-0.5281161785532085
 31
0.0
  0
LINE
  5
1EB
330
175
100
AcDbEntity
  8
0
100
AcDbLine
 10
0.0994593599999991
 20
-0.5642095161831576
 30
0.0
 11
0.062476039016671
 21
-0.5855618465084076
 31
0.0
  0
LINE
  5
1EC
330
175
100
AcDbEntity
  8
0
100
AcDbLine
 10
0.062476039016671
 20
-0.5428571858579084
 30
0.0
 11
0.0994593599999991
 21
-0.5642095161831576
 31
0.0
  0
LINE
  5
1ED
330
175
100
AcDbEntity
  8
0
100
AcDbLine
 10
0.062476039016671
 20
-0.5133751712485087
 30
0.0
 11
0.062476039016671
 21
-0.5428571858579101
 31
0.0
  0
LINE
  5
1EE
330
175
100
AcDbEntity
  8
0
100
AcDbLine
 10
0.062476039016671
 20
-0.5428571858579084
 30
0.0
 11
-0.0624760390166745
 21
-0.5783738482279599
 31
0.0
  0
LINE
  5
1EF
330
175
100
AcDbEntity
  8
0
100
AcDbLine
 10
-0.0624760390166728
 20
-0.5494685088784604
 30
0.0
 11
-0.0994593600000009
 21
-0.5281161785532085
 31
0.0
  0
LINE
  5
1F0
330
175
100
AcDbEntity
  8
0
100
AcDbLine
 10
0.062476039016671
 20
-0.513951846508407
 30
0.0
 11
-0.0624760390166728
 21
-0.5494685088784604
 31
0.0
  0
LINE
  5
1F1
330
175
100
AcDbEntity
  8
0
100
AcDbLine
 10
-0.0624760390166745
 20
-0.5789505234878601
 30
0.0
 11
-0.0624760390166728
 21
-0.5494685088784586
 31
0.0
  0
LINE
  5
1F2
330
175
100
AcDbEntity
  8
0
100
AcDbLine
 10
-0.0994593600000009
 20
-0.59972617855321
 30
0.0
 11
-0.0624760390166728
 21
-0.5783738482279599
 31
0.0
  0
LINE
  5
1F3
330
175
100
AcDbEntity
  8
0
100
AcDbLine
 10
0.0994593599999991
 20
-0.5642095161831576
 30
0.0
 11
-0.0994593600000009
 21
-0.59972617855321
 31
0.0
  0
LINE
  5
1F4
330
175
100
AcDbEntity
  8
0
100
AcDbLine
 10
0.0994593599999991
 20
-0.6358195161831591
 30
0.0
 11
0.062476039016671
 21
-0.6571718465084082
 31
0.0
  0
LINE
  5
1F5
330
175
100
AcDbEntity
  8
0
100
AcDbLine
 10
0.062476039016671
 20
-0.6144671858579099
 30
0.0
 11
0.0994593599999991
 21
-0.6358195161831591
 31
0.0
  0
LINE
  5
1F6
330
175
100
AcDbEntity
  8
0
100
AcDbLine
 10
0.062476039016671
 20
-0.5849851712485102
 30
0.0
 11
0.062476039016671
 21
-0.6144671858579116
 31
0.0
  0
LINE
  5
1F7
330
175
100
AcDbEntity
  8
0
100
AcDbLine
 10
0.062476039016671
 20
-0.6144671858579099
 30
0.0
 11
-0.0624760390166745
 21
-0.6499838482279614
 31
0.0
  0
LINE
  5
1F8
330
175
100
AcDbEntity
  8
0
100
AcDbLine
 10
-0.0624760390166728
 20
-0.6210785088784619
 30
0.0
 11
-0.0994593600000009
 21
-0.59972617855321
 31
0.0
  0
LINE
  5
1F9
330
175
100
AcDbEntity
  8
0
100
AcDbLine
 10
0.062476039016671
 20
-0.5855618465084076
 30
0.0
 11
-0.0624760390166728
 21
-0.6210785088784619
 31
0.0
  0
LINE
  5
1FA
330
175
100
AcDbEntity
  8
0
100
AcDbLine
 10
-0.0624760390166745
 20
-0.6505605234878616
 30
0.0
 11
-0.0624760390166728
 21
-0.6210785088784592
 31
0.0
  0
LINE
  5
1FB
330
175
100
AcDbEntity
  8
0
100
AcDbLine
 10
-0.0994593600000009
 20
-0.6713361785532106
 30
0.0
 11
-0.0624760390166728
 21
-0.6499838482279614
 31
0.0
  0
LINE
  5
1FC
330
175
100
AcDbEntity
  8
0
100
AcDbLine
 10
0.0994593599999991
 20
-0.6358195161831591
 30
0.0
 11
-0.0994593600000009
 21
-0.6713361785532106
 31
0.0
  0
LINE
  5
1FD
330
175
100
AcDbEntity
  8
0
100
AcDbLine
 10
0.0994593599999991
 20
-0.7074295161831606
 30
0.0
 11
0.062476039016671
 21
-0.7287818465084098
 31
0.0
  0
LINE
  5
1FE
330
175
100
AcDbEntity
  8
0
100
AcDbLine
 10
0.062476039016671
 20
-0.6860771858579105
 30
0.0
 11
0.0994593599999991
 21
-0.7074295161831606
 31
0.0
  0
LINE
  5
1FF
330
175
100
AcDbEntity
  8
0
100
AcDbLine
 10
0.062476039016671
 20
-0.6565951712485108
 30
0.0
 11
0.062476039016671
 21
-0.6860771858579131
 31
0.0
  0
LINE
  5
200
330
175
100
AcDbEntity
  8
0
100
AcDbLine
 10
0.062476039016671
 20
-0.6860771858579105
 30
0.0
 11
-0.0624760390166745
 21
-0.7215938482279629
 31
0.0
  0
LINE
  5
201
330
175
100
AcDbEntity
  8
0
100
AcDbLine
 10
-0.0624760390166728
 20
-0.6926885088784625
 30
0.0
 11
-0.0994593600000009
 21
-0.6713361785532106
 31
0.0
  0
LINE
  5
202
330
175
100
AcDbEntity
  8
0
100
AcDbLine
 10
0.062476039016671
 20
-0.6571718465084082
 30
0.0
 11
-0.0624760390166728
 21
-0.6926885088784625
 31
0.0
  0
LINE
  5
203
330
175
100
AcDbEntity
  8
0
100
AcDbLine
 10
-0.0624760390166745
 20
-0.7221705234878622
 30
0.0
 11
-0.0624760390166728
 21
-0.6926885088784607
 31
0.0
  0
LINE
  5
204
330
175
100
AcDbEntity
  8
0
100
AcDbLine
 10
-0.0994593600000009
 20
-0.7429461785532121
 30
0.0
 11
-0.0624760390166728
 21
-0.7215938482279629
 31
0.0
  0
LINE
  5
205
330
175
100
AcDbEntity
  8
0
100
AcDbLine
 10
0.0994593599999991
 20
-0.7074295161831606
 30
0.0
 11
-0.0994593600000009
 21
-0.7429461785532121
 31
0.0
  0
LINE
  5
206
330
175
100
AcDbEntity
  8
0
100
AcDbLine
 10
0.0994593599999991
 20
-0.7790395161831621
 30
0.0
 11
0.062476039016671
 21
-0.8003918465084112
 31
0.0
  0
LINE
  5
207
330
175
100
AcDbEntity
  8
0
100
AcDbLine
 10
0.062476039016671
 20
-0.757687185857912
 30
0.0
 11
0.0994593599999991
 21
-0.7790395161831621
 31
0.0
  0
LINE
  5
208
330
175
100
AcDbEntity
  8
0
100
AcDbLine
 10
0.062476039016671
 20
-0.7282051712485123
 30
0.0
 11
0.062476039016671
 21
-0.7576871858579147
 31
0.0
  0
LINE
  5
209
330
175
100
AcDbEntity
  8
0
100
AcDbLine
 10
0.062476039016671
 20
-0.757687185857912
 30
0.0
 11
-0.0624760390166745
 21
-0.7932038482279636
 31
0.0
  0
LINE
  5
20A
330
175
100
AcDbEntity
  8
0
100
AcDbLine
 10
-0.0624760390166728
 20
-0.764298508878464
 30
0.0
 11
-0.0994593600000009
 21
-0.7429461785532121
 31
0.0
  0
LINE
  5
20B
330
175
100
AcDbEntity
  8
0
100
AcDbLine
 10
0.062476039016671
 20
-0.7287818465084098
 30
0.0
 11
-0.0624760390166728
 21
-0.764298508878464
 31
0.0
  0
LINE
  5
20C
330
175
100
AcDbEntity
  8
0
100
AcDbLine
 10
-0.0624760390166745
 20
-0.7937805234878637
 30
0.0
 11
-0.0624760390166728
 21
-0.7642985088784613
 31
0.0
  0
LINE
  5
20D
330
175
100
AcDbEntity
  8
0
100
AcDbLine
 10
-0.0994593600000009
 20
-0.8145561785532136
 30
0.0
 11
-0.0624760390166728
 21
-0.7932038482279636
 31
0.0
  0
LINE
  5
20E
330
175
100
AcDbEntity
  8
0
100
AcDbLine
 10
0.0994593599999991
 20
-0.7790395161831621
 30
0.0
 11
-0.0994593600000009
 21
-0.8145561785532136
 31
0.0
  0
LINE
  5
20F
330
175
100
AcDbEntity
  8
0
100
AcDbLine
 10
0.0994593599999991
 20
-0.8506495161831626
 30
0.0
 11
0.062476039016671
 21
-0.8720018465084127
 31
0.0
  0
LINE
  5
210
330
175
100
AcDbEntity
  8
0
100
AcDbLine
 10
0.062476039016671
 20
-0.8292971858579134
 30
0.0
 11
0.0994593599999991
 21
-0.8506495161831626
 31
0.0
  0
LINE
  5
211
330
175
100
AcDbEntity
  8
0
100
AcDbLine
 10
0.062476039016671
 20
-0.7998151712485138
 30
0.0
 11
0.062476039016671
 21
-0.8292971858579152
 31
0.0
  0
LINE
  5
212
330
175
100
AcDbEntity
  8
0
100
AcDbLine
 10
0.062476039016671
 20
-0.8292971858579134
 30
0.0
 11
-0.0624760390166745
 21
-0.864813848227965
 31
0.0
  0
LINE
  5
213
330
175
100
AcDbEntity
  8
0
100
AcDbLine
 10
-0.0624760390166728
 20
-0.8359085088784654
 30
0.0
 11
-0.0994593600000009
 21
-0.8145561785532136
 31
0.0
  0
LINE
  5
214
330
175
100
AcDbEntity
  8
0
100
AcDbLine
 10
0.062476039016671
 20
-0.8003918465084112
 30
0.0
 11
-0.0624760390166728
 21
-0.8359085088784654
 31
0.0
  0
LINE
  5
215
330
175
100
AcDbEntity
  8
0
100
AcDbLine
 10
-0.0624760390166745
 20
-0.8653905234878651
 30
0.0
 11
-0.0624760390166728
 21
-0.8359085088784627
 31
0.0
  0
LINE
  5
216
330
175
100
AcDbEntity
  8
0
100
AcDbLine
 10
-0.0994593600000009
 20
-0.8861661785532151
 30
0.0
 11
-0.0624760390166728
 21
-0.864813848227965
 31
0.0
  0
LINE
  5
217
330
175
100
AcDbEntity
  8
0
100
AcDbLine
 10
0.0994593599999991
 20
-0.8506495161831626
 30
0.0
 11
-0.0994593600000009
 21
-0.8861661785532151
 31
0.0
  0
LINE
  5
218
330
175
100
AcDbEntity
  8
0
100
AcDbLine
 10
0.0994593599999991
 20
-0.922259516183165
 30
0.0
 11
0.062476039016671
 21
-0.9436118465084142
 31
0.0
  0
LINE
  5
219
330
175
100
AcDbEntity
  8
0
100
AcDbLine
 10
0.062476039016671
 20
-0.9009071858579149
 30
0.0
 11
0.0994593599999991
 21
-0.922259516183165
 31
0.0
  0
LINE
  5
21A
330
175
100
AcDbEntity
  8
0
100
AcDbLine
 10
0.062476039016671
 20
-0.8714251712485143
 30
0.0
 11
0.062476039016671
 21
-0.9009071858579176
 31
0.0
  0
LINE
  5
21B
330
175
100
AcDbEntity
  8
0
100
AcDbLine
 10
0.062476039016671
 20
-0.9009071858579149
 30
0.0
 11
-0.0624760390166745
 21
-0.9364238482279665
 31
0.0
  0
LINE
  5
21C
330
175
100
AcDbEntity
  8
0
100
AcDbLine
 10
-0.0624760390166728
 20
-0.907518508878466
 30
0.0
 11
-0.0994593600000009
 21
-0.8861661785532151
 31
0.0
  0
LINE
  5
21D
330
175
100
AcDbEntity
  8
0
100
AcDbLine
 10
0.062476039016671
 20
-0.8720018465084127
 30
0.0
 11
-0.0624760390166728
 21
-0.907518508878466
 31
0.0
  0
LINE
  5
21E
330
175
100
AcDbEntity
  8
0
100
AcDbLine
 10
-0.0624760390166745
 20
-0.9370005234878666
 30
0.0
 11
-0.0624760390166728
 21
-0.9075185088784643
 31
0.0
  0
LINE
  5
21F
330
175
100
AcDbEntity
  8
0
100
AcDbLine
 10
-0.0994593600000009
 20
-0.9577761785532166
 30
0.0
 11
-0.0624760390166728
 21
-0.9364238482279665
 31
0.0
  0
LINE
  5
220
330
175
100
AcDbEntity
  8
0
100
AcDbLine
 10
0.0994593599999991
 20
-0.922259516183165
 30
0.0
 11
-0.0994593600000009
 21
-0.9577761785532166
 31
0.0
  0
LINE
  5
221
330
175
100
AcDbEntity
  8
0
100
AcDbLine
 10
0.0994593599999991
 20
-0.9938695161831656
 30
0.0
 11
0.062476039016671
 21
-1.015221846508415
 31
0.0
  0
LINE
  5
222
330
175
100
AcDbEntity
  8
0
100
AcDbLine
 10
0.062476039016671
 20
-0.9725171858579164
 30
0.0
 11
0.0994593599999991
 21
-0.9938695161831656
 31
0.0
  0
LINE
  5
223
330
175
100
AcDbEntity
  8
0
100
AcDbLine
 10
0.062476039016671
 20
-0.9430351712485158
 30
0.0
 11
0.062476039016671
 21
-0.9725171858579182
 31
0.0
  0
LINE
  5
224
330
175
100
AcDbEntity
  8
0
100
AcDbLine
 10
0.062476039016671
 20
-0.9725171858579164
 30
0.0
 11
-0.0624760390166745
 21
-1.008033848227968
 31
0.0
  0
LINE
  5
225
330
175
100
AcDbEntity
  8
0
100
AcDbLine
 10
-0.0624760390166728
 20
-0.9791285088784675
 30
0.0
 11
-0.0994593600000009
 21
-0.9577761785532166
 31
0.0
  0
LINE
  5
226
330
175
100
AcDbEntity
  8
0
100
AcDbLine
 10
0.062476039016671
 20
-0.9436118465084142
 30
0.0
 11
-0.0624760390166728
 21
-0.9791285088784675
 31
0.0
  0
LINE
  5
227
330
175
100
AcDbEntity
  8
0
100
AcDbLine
 10
-0.0624760390166745
 20
-1.008610523487868
 30
0.0
 11
-0.0624760390166728
 21
-0.9791285088784658
 31
0.0
  0
LINE
  5
228
330
175
100
AcDbEntity
  8
0
100
AcDbLine
 10
-0.0994593600000009
 20
-1.029386178553217
 30
0.0
 11
-0.0624760390166728
 21
-1.008033848227968
 31
0.0
  0
LINE
  5
229
330
175
100
AcDbEntity
  8
0
100
AcDbLine
 10
0.0994593599999991
 20
-0.9938695161831656
 30
0.0
 11
-0.0994593600000009
 21
-1.029386178553217
 31
0.0
  0
LINE
  5
22A
330
175
100
AcDbEntity
  8
0
100
AcDbLine
 10
0.0994593599999991
 20
-1.065479516183167
 30
0.0
 11
0.062476039016671
 21
-1.086831846508417
 31
0.0
  0
LINE
  5
22B
330
175
100
AcDbEntity
  8
0
100
AcDbLine
 10
0.062476039016671
 20
-1.044127185857917
 30
0.0
 11
0.0994593599999991
 21
-1.065479516183167
 31
0.0
  0
LINE
  5
22C
330
175
100
AcDbEntity
  8
0
100
AcDbLine
 10
0.062476039016671
 20
-1.014645171248517
 30
0.0
 11
0.062476039016671
 21
-1.044127185857919
 31
0.0
  0
LINE
  5
22D
330
175
100
AcDbEntity
  8
0
100
AcDbLine
 10
0.062476039016671
 20
-1.044127185857917
 30
0.0
 11
-0.0624760390166745
 21
-1.079643848227968
 31
0.0
  0
LINE
  5
22E
330
175
100
AcDbEntity
  8
0
100
AcDbLine
 10
-0.0624760390166728
 20
-1.050738508878469
 30
0.0
 11
-0.0994593600000009
 21
-1.029386178553217
 31
0.0
  0
LINE
  5
22F
330
175
100
AcDbEntity
  8
0
100
AcDbLine
 10
0.062476039016671
 20
-1.015221846508415
 30
0.0
 11
-0.0624760390166728
 21
-1.050738508878469
 31
0.0
  0
LINE
  5
230
330
175
100
AcDbEntity
  8
0
100
AcDbLine
 10
-0.0624760390166745
 20
-1.080220523487868
 30
0.0
 11
-0.0624760390166728
 21
-1.050738508878467
 31
0.0
  0
LINE
  5
231
330
175
100
AcDbEntity
  8
0
100
AcDbLine
 10
-0.0994593600000009
 20
-1.100996178553218
 30
0.0
 11
-0.0624760390166728
 21
-1.079643848227968
 31
0.0
  0
LINE
  5
232
330
175
100
AcDbEntity
  8
0
100
AcDbLine
 10
0.0994593599999991
 20
-1.065479516183167
 30
0.0
 11
-0.0994593600000009
 21
-1.100996178553218
 31
0.0
  0
LINE
  5
233
330
175
100
AcDbEntity
  8
0
100
AcDbLine
 10
0.0994593599999991
 20
-1.137089516183168
 30
0.0
 11
0.062476039016671
 21
-1.158441846508418
 31
0.0
  0
LINE
  5
234
330
175
100
AcDbEntity
  8
0
100
AcDbLine
 10
0.062476039016671
 20
-1.115737185857918
 30
0.0
 11
0.0994593599999991
 21
-1.137089516183168
 31
0.0
  0
LINE
  5
235
330
175
100
AcDbEntity
  8
0
100
AcDbLine
 10
0.062476039016671
 20
-1.086255171248518
 30
0.0
 11
0.062476039016671
 21
-1.11573718585792
 31
0.0
  0
LINE
  5
236
330
175
100
AcDbEntity
  8
0
100
AcDbLine
 10
0.062476039016671
 20
-1.115737185857918
 30
0.0
 11
-0.0624760390166745
 21
-1.15125384822797
 31
0.0
  0
LINE
  5
237
330
175
100
AcDbEntity
  8
0
100
AcDbLine
 10
-0.0624760390166728
 20
-1.12234850887847
 30
0.0
 11
-0.0994593600000009
 21
-1.100996178553218
 31
0.0
  0
LINE
  5
238
330
175
100
AcDbEntity
  8
0
100
AcDbLine
 10
0.062476039016671
 20
-1.086831846508417
 30
0.0
 11
-0.0624760390166728
 21
-1.12234850887847
 31
0.0
  0
LINE
  5
239
330
175
100
AcDbEntity
  8
0
100
AcDbLine
 10
-0.0624760390166745
 20
-1.15183052348787
 30
0.0
 11
-0.0624760390166728
 21
-1.122348508878468
 31
0.0
  0
LINE
  5
23A
330
175
100
AcDbEntity
  8
0
100
AcDbLine
 10
-0.0994593600000009
 20
-1.17260617855322
 30
0.0
 11
-0.0624760390166728
 21
-1.15125384822797
 31
0.0
  0
LINE
  5
23B
330
175
100
AcDbEntity
  8
0
100
AcDbLine
 10
0.0994593599999991
 20
-1.137089516183168
 30
0.0
 11
-0.0994593600000009
 21
-1.17260617855322
 31
0.0
  0
LINE
  5
23C
330
175
100
AcDbEntity
  8
0
100
AcDbLine
 10
0.0994593599999991
 20
-1.20869951618317
 30
0.0
 11
0.062476039016671
 21
-1.230051846508419
 31
0.0
  0
LINE
  5
23D
330
175
100
AcDbEntity
  8
0
100
AcDbLine
 10
0.062476039016671
 20
-1.18734718585792
 30
0.0
 11
0.0994593599999991
 21
-1.20869951618317
 31
0.0
  0
LINE
  5
23E
330
175
100
AcDbEntity
  8
0
100
AcDbLine
 10
0.062476039016671
 20
-1.15786517124852
 30
0.0
 11
0.062476039016671
 21
-1.187347185857921
 31
0.0
  0
LINE
  5
23F
330
175
100
AcDbEntity
  8
0
100
AcDbLine
 10
0.062476039016671
 20
-1.18734718585792
 30
0.0
 11
-0.0624760390166745
 21
-1.222863848227971
 31
0.0
  0
LINE
  5
240
330
175
100
AcDbEntity
  8
0
100
AcDbLine
 10
-0.0624760390166728
 20
-1.193958508878472
 30
0.0
 11
-0.0994593600000009
 21
-1.17260617855322
 31
0.0
  0
LINE
  5
241
330
175
100
AcDbEntity
  8
0
100
AcDbLine
 10
0.062476039016671
 20
-1.158441846508418
 30
0.0
 11
-0.0624760390166728
 21
-1.193958508878472
 31
0.0
  0
LINE
  5
242
330
175
100
AcDbEntity
  8
0
100
AcDbLine
 10
-0.0624760390166745
 20
-1.223440523487872
 30
0.0
 11
-0.0624760390166728
 21
-1.19395850887847
 31
0.0
  0
LINE
  5
243
330
175
100
AcDbEntity
  8
0
100
AcDbLine
 10
-0.0994593600000009
 20
-1.244216178553221
 30
0.0
 11
-0.0624760390166728
 21
-1.222863848227971
 31
0.0
  0
LINE
  5
244
330
175
100
AcDbEntity
  8
0
100
AcDbLine
 10
0.0994593599999991
 20
-1.20869951618317
 30
0.0
 11
-0.0994593600000009
 21
-1.244216178553221
 31
0.0
  0
LINE
  5
245
330
175
100
AcDbEntity
  8
0
100
AcDbLine
 10
0.0994593599999991
 20
-1.566749516183176
 30
0.0
 11
0.062476039016671
 21
-1.588101846508426
 31
0.0
  0
LINE
  5
246
330
175
100
AcDbEntity
  8
0
100
AcDbLine
 10
0.062476039016671
 20
-1.545397185857927
 30
0.0
 11
0.0994593599999991
 21
-1.566749516183176
 31
0.0
  0
LINE
  5
247
330
175
100
AcDbEntity
  8
0
100
AcDbLine
 10
0.062476039016671
 20
-1.515915171248527
 30
0.0
 11
0.062476039016671
 21
-1.545397185857928
 31
0.0
  0
LINE
  5
248
330
175
100
AcDbEntity
  8
0
100
AcDbLine
 10
0.062476039016671
 20
-1.545397185857927
 30
0.0
 11
-0.0624760390166745
 21
-1.580913848227979
 31
0.0
  0
LINE
  5
249
330
175
100
AcDbEntity
  8
0
100
AcDbLine
 10
-0.0624760390166728
 20
-1.552008508878479
 30
0.0
 11
-0.0994593600000009
 21
-1.530656178553227
 31
0.0
  0
LINE
  5
24A
330
175
100
AcDbEntity
  8
0
100
AcDbLine
 10
0.062476039016671
 20
-1.516491846508425
 30
0.0
 11
-0.0624760390166728
 21
-1.552008508878479
 31
0.0
  0
LINE
  5
24B
330
175
100
AcDbEntity
  8
0
100
AcDbLine
 10
-0.0624760390166745
 20
-1.581490523487878
 30
0.0
 11
-0.0624760390166728
 21
-1.552008508878476
 31
0.0
  0
LINE
  5
24C
330
175
100
AcDbEntity
  8
0
100
AcDbLine
 10
-0.0994593600000009
 20
-1.602266178553228
 30
0.0
 11
-0.0624760390166728
 21
-1.580913848227979
 31
0.0
  0
LINE
  5
24D
330
175
100
AcDbEntity
  8
0
100
AcDbLine
 10
0.0994593599999991
 20
-1.566749516183176
 30
0.0
 11
-0.0994593600000009
 21
-1.602266178553228
 31
0.0
  0
LINE
  5
24E
330
175
100
AcDbEntity
  8
0
100
AcDbLine
 10
0.0994593599999991
 20
-1.638359516183178
 30
0.0
 11
0.062476039016671
 21
-1.659711846508428
 31
0.0
  0
LINE
  5
24F
330
175
100
AcDbEntity
  8
0
100
AcDbLine
 10
0.062476039016671
 20
-1.617007185857928
 30
0.0
 11
0.0994593599999991
 21
-1.638359516183178
 31
0.0
  0
LINE
  5
250
330
175
100
AcDbEntity
  8
0
100
AcDbLine
 10
0.062476039016671
 20
-1.587525171248528
 30
0.0
 11
0.062476039016671
 21
-1.61700718585793
 31
0.0
  0
LINE
  5
251
330
175
100
AcDbEntity
  8
0
100
AcDbLine
 10
0.062476039016671
 20
-1.617007185857928
 30
0.0
 11
-0.0624760390166745
 21
-1.652523848227979
 31
0.0
  0
LINE
  5
252
330
175
100
AcDbEntity
  8
0
100
AcDbLine
 10
-0.0624760390166728
 20
-1.62361850887848
 30
0.0
 11
-0.0994593600000009
 21
-1.602266178553228
 31
0.0
  0
LINE
  5
253
330
175
100
AcDbEntity
  8
0
100
AcDbLine
 10
0.062476039016671
 20
-1.588101846508426
 30
0.0
 11
-0.0624760390166728
 21
-1.62361850887848
 31
0.0
  0
LINE
  5
254
330
175
100
AcDbEntity
  8
0
100
AcDbLine
 10
-0.0624760390166745
 20
-1.65310052348788
 30
0.0
 11
-0.0624760390166728
 21
-1.623618508878478
 31
0.0
  0
LINE
  5
255
330
175
100
AcDbEntity
  8
0
100
AcDbLine
 10
-0.0994593600000009
 20
-1.673876178553229
 30
0.0
 11
-0.0624760390166728
 21
-1.652523848227979
 31
0.0
  0
LINE
  5
256
330
175
100
AcDbEntity
  8
0
100
AcDbLine
 10
0.0994593599999991
 20
-1.638359516183178
 30
0.0
 11
-0.0994593600000009
 21
-1.673876178553229
 31
0.0
  0
LINE
  5
257
330
175
100
AcDbEntity
  8
0
100
AcDbLine
 10
0.0991606806036529
 20
-1.781323020796657
 30
0.0
 11
0.0621773596203248
 21
-1.802675351121906
 31
0.0
  0
LINE
  5
258
330
175
100
AcDbEntity
  8
0
100
AcDbLine
 10
0.062476039016671
 20
-1.68861718585793
 30
0.0
 11
0.0994593599999991
 21
-1.709969516183179
 31
0.0
  0
LINE
  5
259
330
175
100
AcDbEntity
  8
0
100
AcDbLine
 10
0.062476039016671
 20
-1.65913517124853
 30
0.0
 11
0.062476039016671
 21
-1.688617185857931
 31
0.0
  0
LINE
  5
25A
330
175
100
AcDbEntity
  8
0
100
AcDbLine
 10
0.062476039016671
 20
-1.68861718585793
 30
0.0
 11
-0.0624760390166745
 21
-1.724133848227981
 31
0.0
  0
LINE
  5
25B
330
175
100
AcDbEntity
  8
0
100
AcDbLine
 10
-0.0624760390166728
 20
-1.695228508878481
 30
0.0
 11
-0.0994593600000009
 21
-1.673876178553229
 31
0.0
  0
LINE
  5
25C
330
175
100
AcDbEntity
  8
0
100
AcDbLine
 10
0.062476039016671
 20
-1.659711846508428
 30
0.0
 11
-0.0624760390166728
 21
-1.695228508878481
 31
0.0
  0
LINE
  5
25D
330
175
100
AcDbEntity
  8
0
100
AcDbLine
 10
-0.0624760390166745
 20
-1.724710523487881
 30
0.0
 11
-0.0624760390166728
 21
-1.695228508878479
 31
0.0
  0
LINE
  5
25E
330
175
100
AcDbEntity
  8
0
100
AcDbLine
 10
-0.0994593600000009
 20
-1.745486178553231
 30
0.0
 11
-0.0624760390166728
 21
-1.724133848227981
 31
0.0
  0
LINE
  5
25F
330
175
100
AcDbEntity
  8
0
100
AcDbLine
 10
0.0991606806036529
 20
-1.781323020796657
 30
0.0
 11
-0.0997580393963471
 21
-1.816839683166708
 31
0.0
  0
LINE
  5
260
330
175
100
AcDbEntity
  8
0
100
AcDbLine
 10
-0.062774718413019
 20
-1.83819201349196
 30
0.0
 11
-0.0997580393963471
 21
-1.816839683166708
 31
0.0
  0
LINE
  5
261
330
175
100
AcDbEntity
  8
0
100
AcDbLine
 10
0.0621773596203248
 20
-1.802675351121906
 30
0.0
 11
-0.062774718413019
 21
-1.83819201349196
 31
0.0
  0
LINE
  5
262
330
175
100
AcDbEntity
  8
0
100
AcDbLine
 10
-0.1434376223577907
 20
0.2324251306114302
 30
0.0
 11
0.1438992351422099
 21
0.2324251306114267
 31
0.0
  0
LINE
  5
263
330
175
100
AcDbEntity
  8
1
100
AcDbLine
 10
-0.0656249807727516
 20
0.0
 30
0.0
 11
-0.0656249807727516
 21
0.0
 31
0.0
  0
LINE
  5
266
330
175
100
AcDbEntity
  8
0
100
AcDbLine
 10
0.2159062663922082
 20
0.125
 30
0.0
 11
0.2159062663922082
 21
0.1604180993614257
 31
0.0
  0
LINE
  5
267
330
175
100
AcDbEntity
  8
0
100
AcDbLine
 10
-0.2154446536077899
 20
0.125
 30
0.0
 11
-0.2154446536077899
 21
0.1604180993614275
 31
0.0
  0
LINE
  5
268
330
175
100
AcDbEntity
  8
0
100
AcDbLine
 10
-0.0000000000000018
 20
0.0
 30
0.0
 11
-0.0994593600000009
 21
0.0
 31
0.0
  0
LINE
  5
269
330
175
100
AcDbEntity
  8
0
100
AcDbLine
 10
-0.3039403194853296
 20
0.125
 30
0.0
 11
0.303509713563022
 21
0.125
 31
0.0
  0
ARC
  5
26A
330
175
100
AcDbEntity
  8
0
100
AcDbCircle
 10
-0.1434376223577907
 20
0.1604180993614275
 30
0.0
 40
0.07200703125
100
AcDbArc
 50
89.99999999999973
 51
180.0
  0
ARC
  5
26B
330
175
100
AcDbEntity
  8
0
100
AcDbCircle
 10
0.1438992351422099
 20
0.1604180993614275
 30
0.0
 40
0.07200703125
100
AcDbArc
 50
359.9999999999992
 51
89.99999999999968
  0
LINE
  5
26C
330
175
100
AcDbEntity
  8
0
100
AcDbLine
 10
0.303509713563022
 20
0.0
 30
0.0
 11
0.303509713563022
 21
0.125
 31
0.0
  0
LINE
  5
26D
330
175
100
AcDbEntity
  8
0
100
AcDbLine
 10
-0.3039403194853296
 20
0.0
 30
0.0
 11
-0.3039403194853296
 21
0.125
 31
0.0
  0
LINE
  5
26E
330
175
100
AcDbEntity
  8
0
100
AcDbLine
 10
-0.0997580393963471
 20
-1.816839683166708
 30
0.0
 11
-0.062774718413019
 21
-1.795487352841458
 31
0.0
  0
LINE
  5
26F
330
175
100
AcDbEntity
  8
0
100
AcDbLine
 10
0.0621773596203248
 20
-1.759970690471407
 30
0.0
 11
-0.0627747184130207
 21
-1.795487352841458
 31
0.0
  0
LINE
  5
270
330
175
100
AcDbEntity
  8
0
100
AcDbLine
 10
0.0621773596203248
 20
-1.759970690471407
 30
0.0
 11
0.0991606806036529
 21
-1.781323020796657
 31
0.0
  0
LINE
  5
271
330
175
100
AcDbEntity
  8
0
100
AcDbLine
 10
-0.0627747184130207
 20
-1.796064028101359
 30
0.0
 11
-0.062774718413019
 21
-1.766582013491957
 31
0.0
  0
LINE
  5
272
330
175
100
AcDbEntity
  8
0
100
AcDbLine
 10
-0.062774718413019
 20
-1.766582013491959
 30
0.0
 11
-0.0997580393963471
 21
-1.745229683166707
 31
0.0
  0
LINE
  5
273
330
175
100
AcDbEntity
  8
0
100
AcDbLine
 10
0.0621773596203248
 20
-1.731065351121905
 30
0.0
 11
-0.062774718413019
 21
-1.766582013491959
 31
0.0
  0
LINE
  5
274
330
175
100
AcDbEntity
  8
0
100
AcDbLine
 10
0.0991606806036529
 20
-1.709713020796656
 30
0.0
 11
0.0621773596203248
 21
-1.731065351121905
 31
0.0
  0
LINE
  5
275
330
175
100
AcDbEntity
  8
0
100
AcDbLine
 10
0.0621773596203248
 20
-1.730488675862007
 30
0.0
 11
0.0621773596203248
 21
-1.759970690471408
 31
0.0
  0
ENDBLK
  5
276
330
175
100
AcDbEntity
  8
5
100
AcDbBlockEnd
  0
BLOCK
  5
6E
330
6D
100
AcDbEntity
  8
0
 62
     0
100
AcDbBlockBegin
  2
purlin fin
 70
     0
 10
0.0
 20
0.0
 30
0.0
  3
purlin fin
  1

  0
LINE
  5
6F
330
6D
100
AcDbEntity
  8
0
  6
Continuous
 62
     0
100
AcDbLine
 10
4.887215926865481
 20
-49.52591724314613
 30
0.0
 11
4.887215926865481
 21
-49.94291724314613
 31
0.0
  0
LINE
  5
70
330
6D
100
AcDbEntity
  8
0
  6
Continuous
 62
     0
100
AcDbLine
 10
2.887215926865481
 20
-49.52591724314613
 30
0.0
 11
2.887215926865481
 21
-49.94291724314613
 31
0.0
  0
LINE
  5
71
330
6D
100
AcDbEntity
  8
0
  6
Continuous
 62
     0
100
AcDbLine
 10
3.012215926865481
 20
-48.33991724314614
 30
0.0
 11
3.012215926865481
 21
-49.64091724314613
 31
0.0
  0
LINE
  5
72
330
6D
100
AcDbEntity
  8
0
  6
Continuous
 62
     0
100
AcDbLine
 10
4.762215926865481
 20
-48.33991724314614
 30
0.0
 11
4.762215926865481
 21
-49.64091724314613
 31
0.0
  0
ARC
  5
73
330
6D
100
AcDbEntity
  8
0
  6
Continuous
 62
     0
100
AcDbCircle
 10
3.012215926865481
 20
-49.70291724314613
 30
0.0
 40
0.062
100
AcDbArc
 50
90.00000000000019
 51
269.0605377690504
  0
ARC
  5
74
330
6D
100
AcDbEntity
  8
0
  6
Continuous
 62
     0
100
AcDbCircle
 10
2.897215926865481
 20
-49.94291724314613
 30
0.0
 40
0.01
100
AcDbArc
 50
180.0
 51
270.0000000000135
  0
ARC
  5
75
330
6D
100
AcDbEntity
  8
0
  6
Continuous
 62
     0
100
AcDbCircle
 10
2.911034977793034
 20
-49.94291724314614
 30
0.0
 40
0.01
100
AcDbArc
 50
270.0
 51
333.439999999999
  0
LINE
  5
76
330
6D
100
AcDbEntity
  8
0
  6
Continuous
 62
     0
100
AcDbLine
 10
2.911034977793034
 20
-49.95291724314613
 30
0.0
 11
2.897215926865484
 21
-49.95291724314612
 31
0.0
  0
LINE
  5
77
330
6D
100
AcDbEntity
  8
0
  6
Continuous
 62
     0
100
AcDbLine
 10
2.919979643930309
 20
-49.94738859055968
 30
0.0
 11
3.011199376451242
 21
-49.76490890891867
 31
0.0
  0
LINE
  5
78
330
6D
100
AcDbEntity
  8
0
  6
Continuous
 62
     0
100
AcDbLine
 10
4.854452209800653
 20
-49.94738859055968
 30
0.0
 11
4.76323247727972
 21
-49.76490890891867
 31
0.0
  0
LINE
  5
79
330
6D
100
AcDbEntity
  8
0
  6
Continuous
 62
     0
100
AcDbLine
 10
4.863396875937928
 20
-49.95291724314613
 30
0.0
 11
4.877215926865479
 21
-49.95291724314612
 31
0.0
  0
ARC
  5
7A
330
6D
100
AcDbEntity
  8
0
  6
Continuous
 62
     0
100
AcDbCircle
 10
4.863396875937928
 20
-49.94291724314614
 30
0.0
 40
0.01
100
AcDbArc
 50
206.560000000001
 51
270.0
  0
ARC
  5
7B
330
6D
100
AcDbEntity
  8
0
  6
Continuous
 62
     0
100
AcDbCircle
 10
4.877215926865481
 20
-49.94291724314613
 30
0.0
 40
0.01
100
AcDbArc
 50
269.9999999999865
 51
0.0000000000000064
  0
ARC
  5
7C
330
6D
100
AcDbEntity
  8
0
  6
Continuous
 62
     0
100
AcDbCircle
 10
4.762215926865481
 20
-49.70291724314613
 30
0.0
 40
0.062
100
AcDbArc
 50
270.9394622309496
 51
89.9999999999998
  0
LINE
  5
7D
330
6D
100
AcDbEntity
  8
0
  6
Continuous
 62
     0
100
AcDbLine
 10
3.397215926865481
 20
-48.20491724314614
 30
0.0
 11
3.814715926865481
 21
-48.20491724314615
 31
0.0
  0
LINE
  5
7E
330
6D
100
AcDbEntity
  8
0
  6
Continuous
 62
     0
100
AcDbLine
 10
3.022215926865481
 20
-48.32991724314614
 30
0.0
 11
4.752215926865481
 21
-48.32991724314616
 31
0.0
  0
LINE
  5
7F
330
6D
100
AcDbEntity
  8
0
  6
Continuous
 62
     0
100
AcDbLine
 10
3.037215926865481
 20
-48.12991724314614
 30
0.0
 11
3.074715926865481
 21
-48.12991724314614
 31
0.0
  0
LINE
  5
80
330
6D
100
AcDbEntity
  8
0
  6
Continuous
 62
     0
100
AcDbLine
 10
3.199715926865481
 20
-48.12991724314614
 30
0.0
 11
3.237215926865481
 21
-48.12991724314615
 31
0.0
  0
ARC
  5
81
330
6D
100
AcDbEntity
  8
0
  6
Continuous
 62
     0
100
AcDbCircle
 10
3.137215926865481
 20
-48.04791724314614
 30
0.0
 40
0.188
100
AcDbArc
 50
237.8650719958524
 51
302.1349280041475
  0
LINE
  5
82
330
6D
100
AcDbEntity
  8
0
  6
Continuous
 62
     0
100
AcDbLine
 10
3.037215926865481
 20
-48.12991724314614
 30
0.0
 11
3.037215926865481
 21
-48.2071152330832
 31
0.0
  0
LINE
  5
83
330
6D
100
AcDbEntity
  8
0
  6
Continuous
 62
     0
100
AcDbLine
 10
3.237215926865481
 20
-48.12991724314615
 30
0.0
 11
3.237215926865481
 21
-48.2071152330832
 31
0.0
  0
ARC
  5
84
330
6D
100
AcDbEntity
  8
0
  6
Continuous
 62
     0
100
AcDbCircle
 10
3.231715926865481
 20
-48.11191724314614
 30
0.0
 40
0.032
100
AcDbArc
 50
90.0
 51
180.0
  0
LINE
  5
85
330
6D
100
AcDbEntity
  8
0
  6
Continuous
 62
     0
100
AcDbLine
 10
3.199715926865481
 20
-48.11191724314614
 30
0.0
 11
3.199715926865481
 21
-48.12991724314614
 31
0.0
  0
ARC
  5
86
330
6D
100
AcDbEntity
  8
0
  6
Continuous
 62
     0
100
AcDbCircle
 10
3.042715926865481
 20
-48.11191724314613
 30
0.0
 40
0.032
100
AcDbArc
 50
0.0
 51
90.0
  0
LINE
  5
87
330
6D
100
AcDbEntity
  8
0
  6
Continuous
 62
     0
100
AcDbLine
 10
3.074715926865481
 20
-48.11191724314613
 30
0.0
 11
3.074715926865481
 21
-48.12991724314614
 31
0.0
  0
ARC
  5
88
330
6D
100
AcDbEntity
  8
0
  6
Continuous
 62
     0
100
AcDbCircle
 10
3.022215926865481
 20
-48.33991724314614
 30
0.0
 40
0.01
100
AcDbArc
 50
89.99999999999934
 51
180.0
  0
ARC
  5
89
330
6D
100
AcDbEntity
  8
0
  6
Continuous
 62
     0
100
AcDbCircle
 10
3.397215926865481
 20
-48.19491724314613
 30
0.0
 40
0.01
100
AcDbArc
 50
180.0
 51
269.9999999999989
  0
ARC
  5
8A
330
6D
100
AcDbEntity
  8
0
  6
Continuous
 62
     0
100
AcDbCircle
 10
2.897215926865481
 20
-48.08991724314614
 30
0.0
 40
0.01
100
AcDbArc
 50
90.00000000000261
 51
180.0
  0
LINE
  5
8B
330
6D
100
AcDbEntity
  8
0
  6
Continuous
 62
     0
100
AcDbLine
 10
2.897215926865481
 20
-48.07991724314614
 30
0.0
 11
3.042715926865481
 21
-48.07991724314613
 31
0.0
  0
ARC
  5
8C
330
6D
100
AcDbEntity
  8
0
  6
Continuous
 62
     0
100
AcDbCircle
 10
3.377215926865481
 20
-48.08991724314615
 30
0.0
 40
0.01
100
AcDbArc
 50
0.0
 51
90.0
  0
LINE
  5
8D
330
6D
100
AcDbEntity
  8
0
  6
Continuous
 62
     0
100
AcDbLine
 10
3.387215926865481
 20
-48.08991724314615
 30
0.0
 11
3.387215926865481
 21
-48.19491724314613
 31
0.0
  0
LINE
  5
8E
330
6D
100
AcDbEntity
  8
0
  6
Continuous
 62
     0
100
AcDbLine
 10
3.231715926865481
 20
-48.07991724314614
 30
0.0
 11
3.377215926865481
 21
-48.07991724314614
 31
0.0
  0
LINE
  5
8F
330
6D
100
AcDbEntity
  8
0
  6
Continuous
 62
     0
100
AcDbLine
 10
2.897215926865481
 20
-49.51591724314614
 30
0.0
 11
2.887215926865481
 21
-49.52591724314613
 31
0.0
  0
LINE
  5
90
330
6D
100
AcDbEntity
  8
0
  6
Continuous
 62
     0
100
AcDbLine
 10
2.897215926865481
 20
-49.51591724314614
 30
0.0
 11
2.887215926865481
 21
-49.50591724314615
 31
0.0
  0
LINE
  5
91
330
6D
100
AcDbEntity
  8
0
  6
Continuous
 62
     0
100
AcDbLine
 10
2.887215926865481
 20
-48.08991724314614
 30
0.0
 11
2.887215926865481
 21
-49.50591724314615
 31
0.0
  0
LINE
  5
92
330
6D
100
AcDbEntity
  8
0
  6
Continuous
 62
     0
100
AcDbLine
 10
3.949715926865481
 20
-47.44491724314617
 30
0.0
 11
3.949715926865481
 21
-47.09191724314614
 31
0.0
  0
LINE
  5
93
330
6D
100
AcDbEntity
  8
0
  6
Continuous
 62
     0
100
AcDbLine
 10
3.834715926865481
 20
-47.08191724314613
 30
0.0
 11
3.939715926865481
 21
-47.08191724314614
 31
0.0
  0
ARC
  5
94
330
6D
100
AcDbEntity
  8
0
  6
Continuous
 62
     0
100
AcDbCircle
 10
3.939715926865481
 20
-47.09191724314614
 30
0.0
 40
0.01
100
AcDbArc
 50
0.0
 51
89.99999999999646
  0
LINE
  5
95
330
6D
100
AcDbEntity
  8
0
  6
Continuous
 62
     0
100
AcDbLine
 10
3.824715926865481
 20
-47.44491724314618
 30
0.0
 11
3.824715926865481
 21
-47.09191724314613
 31
0.0
  0
ARC
  5
96
330
6D
100
AcDbEntity
  8
0
  6
Continuous
 62
     0
100
AcDbCircle
 10
3.834715926865481
 20
-47.09191724314613
 30
0.0
 40
0.01
100
AcDbArc
 50
90.0
 51
180.0
  0
LINE
  5
97
330
6D
100
AcDbEntity
  8
0
  6
Continuous
 62
     0
100
AcDbLine
 10
3.95971592686548
 20
-48.20491724314614
 30
0.0
 11
4.377215926865481
 21
-48.20491724314615
 31
0.0
  0
LINE
  5
98
330
6D
100
AcDbEntity
  8
0
  6
Continuous
 62
     0
100
AcDbLine
 10
3.94971592686548
 20
-48.19491724314614
 30
0.0
 11
3.949715926865481
 21
-47.77731274101898
 31
0.0
  0
ARC
  5
99
330
6D
100
AcDbEntity
  8
0
  6
Continuous
 62
     0
100
AcDbCircle
 10
3.95971592686548
 20
-48.19491724314614
 30
0.0
 40
0.01
100
AcDbArc
 50
180.0
 51
269.999999999999
  0
LINE
  5
9A
330
6D
100
AcDbEntity
  8
0
  6
Continuous
 62
     0
100
AcDbLine
 10
3.824715926865481
 20
-48.19491724314615
 30
0.0
 11
3.824715926865481
 21
-47.77731274101895
 31
0.0
  0
ARC
  5
9B
330
6D
100
AcDbEntity
  8
0
  6
Continuous
 62
     0
100
AcDbCircle
 10
3.814715926865481
 20
-48.19491724314615
 30
0.0
 40
0.01
100
AcDbArc
 50
269.9999999999991
 51
360.0
  0
LINE
  5
9C
330
6D
100
AcDbEntity
  8
0
  6
Continuous
 62
     0
100
AcDbLine
 10
3.824715926865481
 20
-47.75731274101898
 30
0.0
 11
3.824715926865481
 21
-47.46491724314618
 31
0.0
  0
LINE
  5
9D
330
6D
100
AcDbEntity
  8
0
  6
Continuous
 62
     0
100
AcDbLine
 10
3.834715926865471
 20
-47.45491724314617
 30
0.0
 11
3.824715926865472
 21
-47.44491724314617
 31
0.0
  0
LINE
  5
9E
330
6D
100
AcDbEntity
  8
0
  6
Continuous
 62
     0
100
AcDbLine
 10
3.834715926865471
 20
-47.45491724314617
 30
0.0
 11
3.824715926865486
 21
-47.46491724314618
 31
0.0
  0
LINE
  5
9F
330
6D
100
AcDbEntity
  8
0
  6
Continuous
 62
     0
100
AcDbLine
 10
3.834715926865451
 20
-47.76731274101896
 30
0.0
 11
3.824715926865465
 21
-47.77731274101897
 31
0.0
  0
LINE
  5
A0
330
6D
100
AcDbEntity
  8
0
  6
Continuous
 62
     0
100
AcDbLine
 10
3.834715926865451
 20
-47.76731274101895
 30
0.0
 11
3.824715926865451
 21
-47.75731274101896
 31
0.0
  0
LINE
  5
A1
330
6D
100
AcDbEntity
  8
0
  6
Continuous
 62
     0
100
AcDbLine
 10
3.824715926865464
 20
-47.75731274101898
 30
0.0
 11
3.824715926865471
 21
-47.4649172431462
 31
0.0
  0
LINE
  5
A2
330
6D
100
AcDbEntity
  8
0
  6
Continuous
 62
     0
100
AcDbLine
 10
3.949715926865481
 20
-47.75731274101898
 30
0.0
 11
3.949715926865481
 21
-47.4649172431462
 31
0.0
  0
LINE
  5
A3
330
6D
100
AcDbEntity
  8
0
  6
Continuous
 62
     0
100
AcDbLine
 10
3.939715926865494
 20
-47.76731274101895
 30
0.0
 11
3.949715926865493
 21
-47.75731274101896
 31
0.0
  0
LINE
  5
A4
330
6D
100
AcDbEntity
  8
0
  6
Continuous
 62
     0
100
AcDbLine
 10
3.939715926865494
 20
-47.76731274101896
 30
0.0
 11
3.949715926865479
 21
-47.77731274101897
 31
0.0
  0
LINE
  5
A5
330
6D
100
AcDbEntity
  8
0
  6
Continuous
 62
     0
100
AcDbLine
 10
3.939715926865481
 20
-47.45491724314617
 30
0.0
 11
3.949715926865467
 21
-47.46491724314618
 31
0.0
  0
LINE
  5
A6
330
6D
100
AcDbEntity
  8
0
  6
Continuous
 62
     0
100
AcDbLine
 10
3.939715926865481
 20
-47.45491724314617
 30
0.0
 11
3.949715926865481
 21
-47.44491724314617
 31
0.0
  0
LINE
  5
A7
330
6D
100
AcDbEntity
  8
0
  6
Continuous
 62
     0
100
AcDbLine
 10
4.699715926865481
 20
-48.11191724314613
 30
0.0
 11
4.699715926865481
 21
-48.12991724314614
 31
0.0
  0
ARC
  5
A8
330
6D
100
AcDbEntity
  8
0
  6
Continuous
 62
     0
100
AcDbCircle
 10
4.731715926865481
 20
-48.11191724314613
 30
0.0
 40
0.032
100
AcDbArc
 50
90.0
 51
180.0
  0
LINE
  5
A9
330
6D
100
AcDbEntity
  8
0
  6
Continuous
 62
     0
100
AcDbLine
 10
4.574715926865481
 20
-48.11191724314614
 30
0.0
 11
4.574715926865481
 21
-48.12991724314614
 31
0.0
  0
ARC
  5
AA
330
6D
100
AcDbEntity
  8
0
  6
Continuous
 62
     0
100
AcDbCircle
 10
4.542715926865481
 20
-48.11191724314614
 30
0.0
 40
0.032
100
AcDbArc
 50
0.0000000000000064
 51
90.0
  0
LINE
  5
AB
330
6D
100
AcDbEntity
  8
0
  6
Continuous
 62
     0
100
AcDbLine
 10
4.537215926865481
 20
-48.12991724314615
 30
0.0
 11
4.537215926865481
 21
-48.2071152330832
 31
0.0
  0
LINE
  5
AC
330
6D
100
AcDbEntity
  8
0
  6
Continuous
 62
     0
100
AcDbLine
 10
4.737215926865481
 20
-48.12991724314614
 30
0.0
 11
4.737215926865481
 21
-48.2071152330832
 31
0.0
  0
ARC
  5
AD
330
6D
100
AcDbEntity
  8
0
  6
Continuous
 62
     0
100
AcDbCircle
 10
4.637215926865481
 20
-48.04791724314614
 30
0.0
 40
0.188
100
AcDbArc
 50
237.8650719958525
 51
302.1349280041476
  0
LINE
  5
AE
330
6D
100
AcDbEntity
  8
0
  6
Continuous
 62
     0
100
AcDbLine
 10
4.574715926865481
 20
-48.12991724314614
 30
0.0
 11
4.537215926865481
 21
-48.12991724314615
 31
0.0
  0
LINE
  5
AF
330
6D
100
AcDbEntity
  8
0
  6
Continuous
 62
     0
100
AcDbLine
 10
4.737215926865481
 20
-48.12991724314614
 30
0.0
 11
4.699715926865481
 21
-48.12991724314614
 31
0.0
  0
ARC
  5
B0
330
6D
100
AcDbEntity
  8
0
  6
Continuous
 62
     0
100
AcDbCircle
 10
4.752215926865481
 20
-48.33991724314614
 30
0.0
 40
0.01
100
AcDbArc
 50
0.0
 51
90.00000000000133
  0
ARC
  5
B1
330
6D
100
AcDbEntity
  8
0
  6
Continuous
 62
     0
100
AcDbCircle
 10
4.377215926865481
 20
-48.19491724314615
 30
0.0
 40
0.01
100
AcDbArc
 50
270.0
 51
0.0
  0
ARC
  5
B2
330
6D
100
AcDbEntity
  8
0
  6
Continuous
 62
     0
100
AcDbCircle
 10
4.397215926865481
 20
-48.08991724314615
 30
0.0
 40
0.01
100
AcDbArc
 50
90.0
 51
180.0
  0
LINE
  5
B3
330
6D
100
AcDbEntity
  8
0
  6
Continuous
 62
     0
100
AcDbLine
 10
4.542715926865481
 20
-48.07991724314614
 30
0.0
 11
4.397215926865481
 21
-48.07991724314614
 31
0.0
  0
LINE
  5
B4
330
6D
100
AcDbEntity
  8
0
  6
Continuous
 62
     0
100
AcDbLine
 10
4.387215926865481
 20
-48.08991724314615
 30
0.0
 11
4.387215926865481
 21
-48.19491724314615
 31
0.0
  0
ARC
  5
B5
330
6D
100
AcDbEntity
  8
0
  6
Continuous
 62
     0
100
AcDbCircle
 10
4.877215926865481
 20
-48.08991724314615
 30
0.0
 40
0.01
100
AcDbArc
 50
0.0
 51
89.99999999999735
  0
LINE
  5
B6
330
6D
100
AcDbEntity
  8
0
  6
Continuous
 62
     0
100
AcDbLine
 10
4.877215926865481
 20
-48.07991724314614
 30
0.0
 11
4.731715926865481
 21
-48.07991724314613
 31
0.0
  0
LINE
  5
B7
330
6D
100
AcDbEntity
  8
0
  6
Continuous
 62
     0
100
AcDbLine
 10
4.877215926865481
 20
-49.51591724314614
 30
0.0
 11
4.887215926865481
 21
-49.50591724314615
 31
0.0
  0
LINE
  5
B8
330
6D
100
AcDbEntity
  8
0
  6
Continuous
 62
     0
100
AcDbLine
 10
4.877215926865481
 20
-49.51591724314614
 30
0.0
 11
4.887215926865481
 21
-49.52591724314613
 31
0.0
  0
LINE
  5
B9
330
6D
100
AcDbEntity
  8
0
  6
Continuous
 62
     0
100
AcDbLine
 10
4.887215926865481
 20
-48.08991724314615
 30
0.0
 11
4.887215926865481
 21
-49.50591724314615
 31
0.0
  0
ENDBLK
  5
BA
330
6D
100
AcDbEntity
  8
0
 62
     0
100
AcDbBlockEnd
  0
BLOCK
  5
BD
330
BC
100
AcDbEntity
  8
0
 62
     0
100
AcDbBlockBegin
  2
snap bottom
 70
     0
 10
0.0
 20
0.0
 30
0.0
  3
snap bottom
  1

  0
ARC
  5
BE
330
BC
100
AcDbEntity
  8
0
  6
Continuous
 62
     0
100
AcDbCircle
 10
8.146588015093087
 20
-55.6325175405397
 30
0.0
 40
0.054
100
AcDbArc
 50
270.0000000000009
 51
89.99999999999909
  0
LINE
  5
BF
330
BC
100
AcDbEntity
  8
0
  6
Continuous
 62
     0
100
AcDbLine
 10
8.084588015093085
 20
-55.26751754053969
 30
0.0
 11
8.084588015093089
 21
-55.87251754053971
 31
0.0
  0
ARC
  5
C0
330
BC
100
AcDbEntity
  8
0
  6
Continuous
 62
     0
100
AcDbCircle
 10
6.396588015093087
 20
-55.6325175405397
 30
0.0
 40
0.054
100
AcDbArc
 50
90.0000000000009
 51
269.9999999999991
  0
LINE
  5
C1
330
BC
100
AcDbEntity
  8
0
  6
Continuous
 62
     0
100
AcDbLine
 10
6.458588015093087
 20
-55.26751754053969
 30
0.0
 11
6.458588015093085
 21
-55.87251754053971
 31
0.0
  0
LINE
  5
C2
330
BC
100
AcDbEntity
  8
0
  6
Continuous
 62
     0
100
AcDbLine
 10
6.031588015093086
 20
-56.00751754053971
 30
0.0
 11
8.511588015093087
 21
-56.0075175405397
 31
0.0
  0
LINE
  5
C3
330
BC
100
AcDbEntity
  8
0
  6
Continuous
 62
     0
100
AcDbLine
 10
6.468588015093085
 20
-55.8825175405397
 30
0.0
 11
8.074588015093087
 21
-55.8825175405397
 31
0.0
  0
ARC
  5
C4
330
BC
100
AcDbEntity
  8
0
  6
Continuous
 62
     0
100
AcDbCircle
 10
6.386588015093088
 20
-55.87251754053969
 30
0.0
 40
0.01
100
AcDbArc
 50
270.0
 51
0.0000000000002685
  0
LINE
  5
C5
330
BC
100
AcDbEntity
  8
0
  6
Continuous
 62
     0
100
AcDbLine
 10
6.396588015093086
 20
-55.6865175405397
 30
0.0
 11
6.396588015093088
 21
-55.87251754053969
 31
0.0
  0
ARC
  5
C6
330
BC
100
AcDbEntity
  8
0
  6
Continuous
 62
     0
100
AcDbCircle
 10
6.468588015093085
 20
-55.87251754053971
 30
0.0
 40
0.01
100
AcDbArc
 50
179.9999999999999
 51
270.0000000000005
  0
ARC
  5
C7
330
BC
100
AcDbEntity
  8
0
  6
Continuous
 62
     0
100
AcDbCircle
 10
6.093588015093087
 20
-55.8725175405397
 30
0.0
 40
0.01
100
AcDbArc
 50
180.0000000000002
 51
270.0000000000013
  0
LINE
  5
C8
330
BC
100
AcDbEntity
  8
0
  6
Continuous
 62
     0
100
AcDbLine
 10
6.093588015093087
 20
-55.8825175405397
 30
0.0
 11
6.386588015093088
 21
-55.8825175405397
 31
0.0
  0
ARC
  5
C9
330
BC
100
AcDbEntity
  8
0
  6
Continuous
 62
     0
100
AcDbCircle
 10
6.073588015093087
 20
-55.64251754053969
 30
0.0
 40
0.01
100
AcDbArc
 50
0.0000000000002176
 51
90.00000000000003
  0
LINE
  5
CA
330
BC
100
AcDbEntity
  8
0
  6
Continuous
 62
     0
100
AcDbLine
 10
6.083588015093087
 20
-55.64251754053969
 30
0.0
 11
6.083588015093087
 21
-55.8725175405397
 31
0.0
  0
ARC
  5
CB
330
BC
100
AcDbEntity
  8
0
  6
Continuous
 62
     0
100
AcDbCircle
 10
6.031588015093087
 20
-55.64251754053969
 30
0.0
 40
0.01
100
AcDbArc
 50
90.00000000000785
 51
180.0
  0
LINE
  5
CC
330
BC
100
AcDbEntity
  8
0
  6
Continuous
 62
     0
100
AcDbLine
 10
6.031588015093086
 20
-55.6325175405397
 30
0.0
 11
6.073588015093087
 21
-55.63251754053969
 31
0.0
  0
ARC
  5
CD
330
BC
100
AcDbEntity
  8
0
  6
Continuous
 62
     0
100
AcDbCircle
 10
6.031588015093086
 20
-55.99751754053971
 30
0.0
 40
0.01
100
AcDbArc
 50
179.9999999999998
 51
270.0
  0
LINE
  5
CE
330
BC
100
AcDbEntity
  8
0
  6
Continuous
 62
     0
100
AcDbLine
 10
6.021588015093087
 20
-55.99751754053971
 30
0.0
 11
6.021588015093088
 21
-55.64251754053969
 31
0.0
  0
ARC
  5
CF
330
BC
100
AcDbEntity
  8
0
  6
Continuous
 62
     0
100
AcDbCircle
 10
8.511588015093087
 20
-55.9975175405397
 30
0.0
 40
0.01
100
AcDbArc
 50
270.0000000000002
 51
0.0
  0
ARC
  5
D0
330
BC
100
AcDbEntity
  8
0
  6
Continuous
 62
     0
100
AcDbCircle
 10
8.449588015093087
 20
-55.87251754053971
 30
0.0
 40
0.01
100
AcDbArc
 50
269.9999999999987
 51
0.0
  0
ARC
  5
D1
330
BC
100
AcDbEntity
  8
0
  6
Continuous
 62
     0
100
AcDbCircle
 10
8.511588015093087
 20
-55.6425175405397
 30
0.0
 40
0.01
100
AcDbArc
 50
0.0
 51
90.00000000000003
  0
LINE
  5
D2
330
BC
100
AcDbEntity
  8
0
  6
Continuous
 62
     0
100
AcDbLine
 10
8.521588015093087
 20
-55.9975175405397
 30
0.0
 11
8.521588015093087
 21
-55.6425175405397
 31
0.0
  0
ARC
  5
D3
330
BC
100
AcDbEntity
  8
0
  6
Continuous
 62
     0
100
AcDbCircle
 10
8.469588015093089
 20
-55.64251754053969
 30
0.0
 40
0.01
100
AcDbArc
 50
89.99999999999216
 51
180.0
  0
LINE
  5
D4
330
BC
100
AcDbEntity
  8
0
  6
Continuous
 62
     0
100
AcDbLine
 10
8.511588015093087
 20
-55.63251754053971
 30
0.0
 11
8.469588015093091
 21
-55.63251754053969
 31
0.0
  0
LINE
  5
D5
330
BC
100
AcDbEntity
  8
0
  6
Continuous
 62
     0
100
AcDbLine
 10
8.459588015093089
 20
-55.64251754053969
 30
0.0
 11
8.459588015093087
 21
-55.87251754053971
 31
0.0
  0
ARC
  5
D6
330
BC
100
AcDbEntity
  8
0
  6
Continuous
 62
     0
100
AcDbCircle
 10
8.156588015093085
 20
-55.87251754053969
 30
0.0
 40
0.01
100
AcDbArc
 50
179.9999999999997
 51
270.0
  0
LINE
  5
D7
330
BC
100
AcDbEntity
  8
0
  6
Continuous
 62
     0
100
AcDbLine
 10
8.146588015093087
 20
-55.6865175405397
 30
0.0
 11
8.146588015093087
 21
-55.87251754053969
 31
0.0
  0
ARC
  5
D8
330
BC
100
AcDbEntity
  8
0
  6
Continuous
 62
     0
100
AcDbCircle
 10
8.074588015093087
 20
-55.87251754053971
 30
0.0
 40
0.01
100
AcDbArc
 50
269.9999999999995
 51
0.0000000000000649
  0
LINE
  5
D9
330
BC
100
AcDbEntity
  8
0
  6
Continuous
 62
     0
100
AcDbLine
 10
8.156588015093085
 20
-55.8825175405397
 30
0.0
 11
8.449588015093087
 21
-55.8825175405397
 31
0.0
  0
ARC
  5
DA
330
BC
100
AcDbEntity
  8
0
  6
Continuous
 62
     0
100
AcDbCircle
 10
6.406588015093085
 20
-55.31389060749866
 30
0.0
 40
0.01
100
AcDbArc
 50
149.9999999999993
 51
180.0
  0
LINE
  5
DB
330
BC
100
AcDbEntity
  8
0
  6
Continuous
 62
     0
100
AcDbLine
 10
6.396588015093085
 20
-55.31389060749866
 30
0.0
 11
6.396588015093086
 21
-55.5785175405397
 31
0.0
  0
ARC
  5
DC
330
BC
100
AcDbEntity
  8
0
  6
Continuous
 62
     0
100
AcDbCircle
 10
6.433361517784994
 20
-55.26751754053969
 30
0.0
 40
0.01
100
AcDbArc
 50
90.00000000000003
 51
150.0000000000011
  0
LINE
  5
DD
330
BC
100
AcDbEntity
  8
0
  6
Continuous
 62
     0
100
AcDbLine
 10
6.424701263747149
 20
-55.26251754053969
 30
0.0
 11
6.397927761055241
 21
-55.30889060749866
 31
0.0
  0
ARC
  5
DE
330
BC
100
AcDbEntity
  8
0
  6
Continuous
 62
     0
100
AcDbCircle
 10
6.448588015093087
 20
-55.26751754053969
 30
0.0
 40
0.01
100
AcDbArc
 50
0.0
 51
90.00000000000003
  0
LINE
  5
DF
330
BC
100
AcDbEntity
  8
0
  6
Continuous
 62
     0
100
AcDbLine
 10
6.433361517784994
 20
-55.2575175405397
 30
0.0
 11
6.448588015093087
 21
-55.2575175405397
 31
0.0
  0
ARC
  5
E0
330
BC
100
AcDbEntity
  8
0
  6
Continuous
 62
     0
100
AcDbCircle
 10
8.136588015093089
 20
-55.31389060749866
 30
0.0
 40
0.01
100
AcDbArc
 50
0.0
 51
30.00000000000071
  0
LINE
  5
E1
330
BC
100
AcDbEntity
  8
0
  6
Continuous
 62
     0
100
AcDbLine
 10
8.146588015093088
 20
-55.31389060749866
 30
0.0
 11
8.146588015093087
 21
-55.5785175405397
 31
0.0
  0
ARC
  5
E2
330
BC
100
AcDbEntity
  8
0
  6
Continuous
 62
     0
100
AcDbCircle
 10
8.109814512401179
 20
-55.26751754053969
 30
0.0
 40
0.01
100
AcDbArc
 50
29.99999999999893
 51
90.00000000000003
  0
LINE
  5
E3
330
BC
100
AcDbEntity
  8
0
  6
Continuous
 62
     0
100
AcDbLine
 10
8.118474766439025
 20
-55.26251754053969
 30
0.0
 11
8.145248269130933
 21
-55.30889060749866
 31
0.0
  0
ARC
  5
E4
330
BC
100
AcDbEntity
  8
0
  6
Continuous
 62
     0
100
AcDbCircle
 10
8.094588015093087
 20
-55.26751754053969
 30
0.0
 40
0.01
100
AcDbArc
 50
90.00000000000003
 51
180.0
  0
LINE
  5
E5
330
BC
100
AcDbEntity
  8
0
  6
Continuous
 62
     0
100
AcDbLine
 10
8.109814512401179
 20
-55.2575175405397
 30
0.0
 11
8.094588015093087
 21
-55.2575175405397
 31
0.0
  0
ENDBLK
  5
E6
330
BC
100
AcDbEntity
  8
0
 62
     0
100
AcDbBlockEnd
  0
BLOCK
  5
13F
330
13E
100
AcDbEntity
  8
0
100
AcDbBlockBegin
  2
*X4
 70
     1
 10
0.0
 20
0.0
 30
0.0
  3
*X4
  1

  0
LINE
  5
140
330
13E
100
AcDbEntity
  8
0
 62
     0
100
AcDbLine
 10
6.455653718588217
 20
3.485805237604717
 30
0.0
 11
6.482008789598947
 21
3.512160308615448
 31
0.0
  0
LINE
  5
141
330
13E
100
AcDbEntity
  8
0
 62
     0
100
AcDbLine
 10
6.420298379528889
 20
3.485805237604717
 30
0.0
 11
6.482008789598947
 21
3.547515647674775
 31
0.0
  0
LINE
  5
142
330
13E
100
AcDbEntity
  8
0
 62
     0
100
AcDbLine
 10
6.384943040469562
 20
3.485805237604717
 30
0.0
 11
6.482008789598947
 21
3.582870986734103
 31
0.0
  0
LINE
  5
143
330
13E
100
AcDbEntity
  8
0
 62
     0
100
AcDbLine
 10
6.349587701410235
 20
3.485805237604717
 30
0.0
 11
6.482008789598947
 21
3.61822632579343
 31
0.0
  0
LINE
  5
144
330
13E
100
AcDbEntity
  8
0
 62
     0
100
AcDbLine
 10
6.314232362350908
 20
3.485805237604717
 30
0.0
 11
6.482008789598947
 21
3.653581664852757
 31
0.0
  0
LINE
  5
145
330
13E
100
AcDbEntity
  8
0
 62
     0
100
AcDbLine
 10
6.27887702329158
 20
3.485805237604717
 30
0.0
 11
6.482008789598947
 21
3.688937003912085
 31
0.0
  0
LINE
  5
146
330
13E
100
AcDbEntity
  8
0
 62
     0
100
AcDbLine
 10
6.243521684232253
 20
3.485805237604717
 30
0.0
 11
6.482008789598947
 21
3.724292342971412
 31
0.0
  0
LINE
  5
147
330
13E
100
AcDbEntity
  8
0
 62
     0
100
AcDbLine
 10
6.208166345172926
 20
3.485805237604717
 30
0.0
 11
6.482008789598947
 21
3.75964768203074
 31
0.0
  0
LINE
  5
148
330
13E
100
AcDbEntity
  8
0
 62
     0
100
AcDbLine
 10
6.172811006113598
 20
3.485805237604717
 30
0.0
 11
6.482008789598947
 21
3.795003021090066
 31
0.0
  0
LINE
  5
149
330
13E
100
AcDbEntity
  8
0
 62
     0
100
AcDbLine
 10
6.13745566705427
 20
3.485805237604717
 30
0.0
 11
6.482008789598947
 21
3.830358360149394
 31
0.0
  0
LINE
  5
14A
330
13E
100
AcDbEntity
  8
0
 62
     0
100
AcDbLine
 10
6.107041342511141
 20
3.490746252120915
 30
0.0
 11
6.477067775082751
 21
3.860772684692525
 31
0.0
  0
LINE
  5
14B
330
13E
100
AcDbEntity
  8
0
 62
     0
100
AcDbLine
 10
6.10944813505911
 20
3.528508383728212
 30
0.0
 11
6.439305643475454
 21
3.858365892144556
 31
0.0
  0
LINE
  5
14C
330
13E
100
AcDbEntity
  8
0
 62
     0
100
AcDbLine
 10
6.116884707869568
 20
3.571300295597997
 30
0.0
 11
6.396513731605669
 21
3.850929319334097
 31
0.0
  0
LINE
  5
14D
330
13E
100
AcDbEntity
  8
0
 62
     0
100
AcDbLine
 10
6.132862699926207
 20
3.622633626713963
 30
0.0
 11
6.345180400489703
 21
3.834951327277459
 31
0.0
  0
LINE
  5
14E
330
13E
100
AcDbEntity
  8
0
 62
     0
100
AcDbLine
 10
6.172699196925758
 20
3.697825462772842
 30
0.0
 11
6.269988564430825
 21
3.795114830277908
 31
0.0
  0
LINE
  5
14F
330
13E
100
AcDbEntity
  8
0
 62
     0
100
AcDbLine
 10
6.482008789598947
 20
3.47680496955612
 30
0.0
 11
6.491009057647545
 21
3.485805237604717
 31
0.0
  0
LINE
  5
150
330
13E
100
AcDbEntity
  8
0
 62
     0
100
AcDbLine
 10
6.482008789598947
 20
3.441449630496793
 30
0.0
 11
6.526364396706872
 21
3.485805237604717
 31
0.0
  0
LINE
  5
151
330
13E
100
AcDbEntity
  8
0
 62
     0
100
AcDbLine
 10
6.482008789598947
 20
3.406094291437466
 30
0.0
 11
6.5617197357662
 21
3.485805237604717
 31
0.0
  0
LINE
  5
152
330
13E
100
AcDbEntity
  8
0
 62
     0
100
AcDbLine
 10
6.482008789598947
 20
3.370738952378138
 30
0.0
 11
6.597075074825526
 21
3.485805237604717
 31
0.0
  0
LINE
  5
153
330
13E
100
AcDbEntity
  8
0
 62
     0
100
AcDbLine
 10
6.482008789598947
 20
3.335383613318811
 30
0.0
 11
6.632430413884853
 21
3.485805237604717
 31
0.0
  0
LINE
  5
154
330
13E
100
AcDbEntity
  8
0
 62
     0
100
AcDbLine
 10
6.482008789598947
 20
3.300028274259484
 30
0.0
 11
6.667785752944181
 21
3.485805237604717
 31
0.0
  0
LINE
  5
155
330
13E
100
AcDbEntity
  8
0
 62
     0
100
AcDbLine
 10
6.482008789598947
 20
3.264672935200156
 30
0.0
 11
6.703141092003509
 21
3.485805237604717
 31
0.0
  0
LINE
  5
156
330
13E
100
AcDbEntity
  8
0
 62
     0
100
AcDbLine
 10
6.482008789598947
 20
3.229317596140829
 30
0.0
 11
6.738496431062836
 21
3.485805237604717
 31
0.0
  0
LINE
  5
157
330
13E
100
AcDbEntity
  8
0
 62
     0
100
AcDbLine
 10
6.482008789598947
 20
3.193962257081501
 30
0.0
 11
6.773851770122163
 21
3.485805237604717
 31
0.0
  0
LINE
  5
158
330
13E
100
AcDbEntity
  8
0
 62
     0
100
AcDbLine
 10
6.482008789598947
 20
3.158606918022174
 30
0.0
 11
6.809207109181491
 21
3.485805237604717
 31
0.0
  0
LINE
  5
159
330
13E
100
AcDbEntity
  8
0
 62
     0
100
AcDbLine
 10
6.482008789598947
 20
3.123251578962847
 30
0.0
 11
6.844562448240818
 21
3.485805237604717
 31
0.0
  0
LINE
  5
15A
330
13E
100
AcDbEntity
  8
0
 62
     0
100
AcDbLine
 10
6.505664664989164
 20
3.111552115293735
 30
0.0
 11
6.85626191190993
 21
3.462149362214502
 31
0.0
  0
LINE
  5
15B
330
13E
100
AcDbEntity
  8
0
 62
     0
100
AcDbLine
 10
6.545725937059539
 20
3.116258048304783
 30
0.0
 11
6.851555978898883
 21
3.422088090144127
 31
0.0
  0
LINE
  5
15C
330
13E
100
AcDbEntity
  8
0
 62
     0
100
AcDbLine
 10
6.592175968206674
 20
3.127352740392591
 30
0.0
 11
6.840461286811075
 21
3.375638058996992
 31
0.0
  0
LINE
  5
15D
330
13E
100
AcDbEntity
  8
0
 62
     0
100
AcDbLine
 10
6.651444518775554
 20
3.151265951902144
 30
0.0
 11
6.816548075301522
 21
3.316369508428111
 31
0.0
  0
ENDBLK
  5
15E
330
13E
100
AcDbEntity
  8
0
100
AcDbBlockEnd
  0
BLOCK
  5
13B
330
13A
100
AcDbEntity
  8
0
100
AcDbBlockBegin
  2
work point
 70
     0
 10
0.0
 20
0.0
 30
0.0
  3
work point
  1

  0
LINE
  5
13C
330
13A
100
AcDbEntity
  8
0
100
AcDbLine
 10
0.6056250806605572
 20
-88.19980482706348
 30
0.0
 11
1.070572365767889
 21
-88.19980482706348
 31
0.0
  0
INSERT
  5
13D
330
13A
100
AcDbEntity
  8
0
100
AcDbBlockReference
  2
*X4
 10
-0.7831360848958014
 20
-89.07165010974274
 30
0.0
 41
0.2501130221717222
 42
0.2501130221716889
 43
0.2501130221716889
  0
CIRCLE
  5
15F
330
13A
100
AcDbEntity
  8
0
100
AcDbCircle
 10
0.8380987232142231
 20
-88.19980482706348
 30
0.0
 40
0.0937923833143834
  0
LINE
  5
160
330
13A
100
AcDbEntity
  8
0
100
AcDbLine
 10
0.8380987232142231
 20
-87.96733118450983
 30
0.0
 11
0.8380987232142231
 21
-88.43227846961726
 31
0.0
  0
ENDBLK
  5
161
330
13A
100
AcDbEntity
  8
0
100
AcDbBlockEnd
  0
BLOCK
  5
52F
330
52E
100
AcDbEntity
  8
0
100
AcDbBlockBegin
  2
ANCHOR
 70
     0
 10
0.0
 20
0.0
 30
0.0
  3
ANCHOR
  1

  0
LINE
  5
530
330
52E
100
AcDbEntity
  8
0
100
AcDbLine
 10
36.61486367758931
 20
-20.49970755084456
 30
0.0
 11
36.6773636775893
 21
-20.56178279941014
 31
0.0
  0
LINE
  5
531
330
52E
100
AcDbEntity
  8
0
100
AcDbLine
 10
36.6773636775893
 20
-20.56178279941014
 30
0.0
 11
36.61486367758931
 21
-20.62427482391687
 31
0.0
  0
LINE
  5
532
330
52E
100
AcDbEntity
  8
0
100
AcDbLine
 10
36.6773636775893
 20
-20.81178279941015
 30
0.0
 11
36.61486367758931
 21
-20.87427482391688
 31
0.0
  0
LINE
  5
533
330
52E
100
AcDbEntity
  8
0
100
AcDbLine
 10
36.61486367758931
 20
-20.74970755084457
 30
0.0
 11
36.6773636775893
 21
-20.81178279941015
 31
0.0
  0
LINE
  5
534
330
52E
100
AcDbEntity
  8
0
100
AcDbLine
 10
36.6773636775893
 20
-21.06178279941016
 30
0.0
 11
36.61486367758931
 21
-21.12427482391689
 31
0.0
  0
LINE
  5
535
330
52E
100
AcDbEntity
  8
0
100
AcDbLine
 10
36.61486367758931
 20
-20.99970755084457
 30
0.0
 11
36.6773636775893
 21
-21.06178279941016
 31
0.0
  0
LINE
  5
536
330
52E
100
AcDbEntity
  8
0
100
AcDbLine
 10
36.6773636775893
 20
-20.42115779941013
 30
0.0
 11
36.61486367758931
 21
-20.48364982391687
 31
0.0
  0
LINE
  5
537
330
52E
100
AcDbEntity
  8
0
100
AcDbLine
 10
36.6773636775893
 20
-21.31178279941016
 30
0.0
 11
36.61486367758931
 21
-21.37427482391689
 31
0.0
  0
LINE
  5
538
330
52E
100
AcDbEntity
  8
0
100
AcDbLine
 10
36.61486367758931
 20
-21.24970755084458
 30
0.0
 11
36.6773636775893
 21
-21.31178279941016
 31
0.0
  0
LINE
  5
539
330
52E
100
AcDbEntity
  8
0
100
AcDbLine
 10
36.6773636775893
 20
-21.56178279941016
 30
0.0
 11
36.61486367758931
 21
-21.6242748239169
 31
0.0
  0
LINE
  5
53A
330
52E
100
AcDbEntity
  8
0
100
AcDbLine
 10
36.61486367758931
 20
-21.49970755084459
 30
0.0
 11
36.6773636775893
 21
-21.56178279941016
 31
0.0
  0
LINE
  5
53B
330
52E
100
AcDbEntity
  8
0
100
AcDbLine
 10
36.6773636775893
 20
-21.81178279941017
 30
0.0
 11
36.61486367758931
 21
-21.87427482391691
 31
0.0
  0
LINE
  5
53C
330
52E
100
AcDbEntity
  8
0
100
AcDbLine
 10
36.61486367758931
 20
-21.74970755084459
 30
0.0
 11
36.6773636775893
 21
-21.81178279941017
 31
0.0
  0
LINE
  5
53D
330
52E
100
AcDbEntity
  8
0
100
AcDbLine
 10
36.3023636775893
 20
-21.37428279941016
 30
0.0
 11
36.6773636775893
 21
-21.31178279941016
 31
0.0
  0
LINE
  5
53E
330
52E
100
AcDbEntity
  8
0
100
AcDbLine
 10
36.3023636775893
 20
-21.62428279941017
 30
0.0
 11
36.6773636775893
 21
-21.56178279941016
 31
0.0
  0
LINE
  5
53F
330
52E
100
AcDbEntity
  8
0
100
AcDbLine
 10
36.3023636775893
 20
-21.87428279941018
 30
0.0
 11
36.6773636775893
 21
-21.81178279941017
 31
0.0
  0
LINE
  5
540
330
52E
100
AcDbEntity
  8
0
100
AcDbLine
 10
36.11486367758929
 20
-19.53095755084453
 30
0.0
 11
36.86486367758931
 21
-19.53095755084453
 31
0.0
  0
LINE
  5
541
330
52E
100
AcDbEntity
  8
0
100
AcDbLine
 10
36.86486367758931
 20
-19.26533255084453
 30
0.0
 11
36.11486367758929
 21
-19.26533255084453
 31
0.0
  0
LINE
  5
542
330
52E
100
AcDbEntity
  8
0
100
AcDbLine
 10
36.3023636775893
 20
-19.53095755084453
 30
0.0
 11
36.6773636775893
 21
-19.53095755084453
 31
0.0
  0
LINE
  5
543
330
52E
100
AcDbEntity
  8
0
100
AcDbLine
 10
36.3023636775893
 20
-20.62428279941014
 30
0.0
 11
36.6773636775893
 21
-20.56178279941014
 31
0.0
  0
LINE
  5
544
330
52E
100
AcDbEntity
  8
0
100
AcDbLine
 10
36.3023636775893
 20
-20.87428279941015
 30
0.0
 11
36.6773636775893
 21
-20.81178279941015
 31
0.0
  0
LINE
  5
545
330
52E
100
AcDbEntity
  8
0
100
AcDbLine
 10
36.3023636775893
 20
-21.12428279941016
 30
0.0
 11
36.6773636775893
 21
-21.06178279941016
 31
0.0
  0
LINE
  5
546
330
52E
100
AcDbEntity
  8
0
100
AcDbLine
 10
36.4898636775893
 20
-19.26533255084453
 30
0.0
 11
36.4898636775893
 21
-19.53095755084453
 31
0.0
  0
LINE
  5
547
330
52E
100
AcDbEntity
  8
0
100
AcDbLine
 10
36.61486367758931
 20
-20.49970755084456
 30
0.0
 11
36.61486367758931
 21
-20.48364982391687
 31
0.0
  0
LINE
  5
548
330
52E
100
AcDbEntity
  8
0
100
AcDbLine
 10
36.61486367758931
 20
-20.74970755084457
 30
0.0
 11
36.61486367758931
 21
-20.62427482391687
 31
0.0
  0
LINE
  5
549
330
52E
100
AcDbEntity
  8
0
100
AcDbLine
 10
36.61486367758931
 20
-20.99970755084457
 30
0.0
 11
36.61486367758931
 21
-20.87427482391688
 31
0.0
  0
LINE
  5
54A
330
52E
100
AcDbEntity
  8
0
100
AcDbLine
 10
36.61486367758931
 20
-21.49970755084459
 30
0.0
 11
36.61486367758931
 21
-21.37427482391689
 31
0.0
  0
LINE
  5
54B
330
52E
100
AcDbEntity
  8
0
100
AcDbLine
 10
36.61486367758931
 20
-21.74970755084459
 30
0.0
 11
36.61486367758931
 21
-21.6242748239169
 31
0.0
  0
LINE
  5
54C
330
52E
100
AcDbEntity
  8
0
100
AcDbLine
 10
36.61486367758931
 20
-21.87427482391691
 30
0.0
 11
36.57223315183905
 21
-21.97034108586645
 31
0.0
  0
LINE
  5
54D
330
52E
100
AcDbEntity
  8
0
100
AcDbLine
 10
36.57223315183905
 20
-21.97034108586645
 30
0.0
 11
36.61806416308243
 21
-22.01651795053903
 31
0.0
  0
LINE
  5
54E
330
52E
100
AcDbEntity
  8
0
100
AcDbLine
 10
36.61806416308243
 20
-22.01651795053903
 30
0.0
 11
36.54154245815251
 21
-22.03950139217786
 31
0.0
  0
LINE
  5
54F
330
52E
100
AcDbEntity
  8
0
100
AcDbLine
 10
36.45266116609978
 20
-22.09072436750993
 30
0.0
 11
36.54154245815251
 21
-22.03950139217786
 31
0.0
  0
LINE
  5
550
330
52E
100
AcDbEntity
  8
0
100
AcDbLine
 10
36.45266116609978
 20
-22.09072436750993
 30
0.0
 11
36.4898636775893
 21
-22.15595755084461
 31
0.0
  0
LINE
  5
551
330
52E
100
AcDbEntity
  8
0
100
AcDbLine
 10
36.54154245815251
 20
-22.03950139217786
 30
0.0
 11
36.4898636775893
 21
-22.15595755084461
 31
0.0
  0
LINE
  5
552
330
52E
100
AcDbEntity
  8
0
100
AcDbLine
 10
36.61486367758931
 20
-21.24970755084458
 30
0.0
 11
36.61486367758931
 21
-21.12427482391689
 31
0.0
  0
LINE
  5
553
330
52E
100
AcDbEntity
  8
0
100
AcDbLine
 10
36.11486367758929
 20
-19.26533255084453
 30
0.0
 11
36.11486367758929
 21
-19.53095755084453
 31
0.0
  0
LINE
  5
554
330
52E
100
AcDbEntity
  8
0
100
AcDbLine
 10
36.3023636775893
 20
-20.42115779941013
 30
0.0
 11
36.3023636775893
 21
-19.53095755084453
 31
0.0
  0
LINE
  5
555
330
52E
100
AcDbEntity
  8
0
100
AcDbLine
 10
36.3648636775893
 20
-21.06220755084458
 30
0.0
 11
36.3023636775893
 21
-21.12428279941016
 31
0.0
  0
LINE
  5
556
330
52E
100
AcDbEntity
  8
0
100
AcDbLine
 10
36.3648636775893
 20
-20.81220755084457
 30
0.0
 11
36.3023636775893
 21
-20.87428279941015
 31
0.0
  0
LINE
  5
557
330
52E
100
AcDbEntity
  8
0
100
AcDbLine
 10
36.3023636775893
 20
-20.87428279941015
 30
0.0
 11
36.3648636775893
 21
-20.93677482391688
 31
0.0
  0
LINE
  5
558
330
52E
100
AcDbEntity
  8
0
100
AcDbLine
 10
36.3023636775893
 20
-20.62428279941014
 30
0.0
 11
36.3648636775893
 21
-20.68677482391688
 31
0.0
  0
LINE
  5
559
330
52E
100
AcDbEntity
  8
0
100
AcDbLine
 10
36.3648636775893
 20
-20.56220755084456
 30
0.0
 11
36.3023636775893
 21
-20.62428279941014
 31
0.0
  0
LINE
  5
55A
330
52E
100
AcDbEntity
  8
0
100
AcDbLine
 10
36.3648636775893
 20
-20.56220755084456
 30
0.0
 11
36.3648636775893
 21
-20.48364982391687
 31
0.0
  0
LINE
  5
55B
330
52E
100
AcDbEntity
  8
0
100
AcDbLine
 10
36.3648636775893
 20
-20.81220755084457
 30
0.0
 11
36.3648636775893
 21
-20.68677482391688
 31
0.0
  0
LINE
  5
55C
330
52E
100
AcDbEntity
  8
0
100
AcDbLine
 10
36.3648636775893
 20
-21.06220755084458
 30
0.0
 11
36.3648636775893
 21
-20.93677482391688
 31
0.0
  0
LINE
  5
55D
330
52E
100
AcDbEntity
  8
0
100
AcDbLine
 10
36.3023636775893
 20
-20.42115779941013
 30
0.0
 11
36.3648636775893
 21
-20.48364982391687
 31
0.0
  0
LINE
  5
55E
330
52E
100
AcDbEntity
  8
0
100
AcDbLine
 10
36.3648636775893
 20
-21.8122075508446
 30
0.0
 11
36.3023636775893
 21
-21.87428279941018
 31
0.0
  0
LINE
  5
55F
330
52E
100
AcDbEntity
  8
0
100
AcDbLine
 10
36.3023636775893
 20
-21.87428279941018
 30
0.0
 11
36.3648636775893
 21
-21.93677482391692
 31
0.0
  0
LINE
  5
560
330
52E
100
AcDbEntity
  8
0
100
AcDbLine
 10
36.3648636775893
 20
-21.56220755084459
 30
0.0
 11
36.3023636775893
 21
-21.62428279941017
 31
0.0
  0
LINE
  5
561
330
52E
100
AcDbEntity
  8
0
100
AcDbLine
 10
36.3023636775893
 20
-21.62428279941017
 30
0.0
 11
36.3648636775893
 21
-21.68677482391691
 31
0.0
  0
LINE
  5
562
330
52E
100
AcDbEntity
  8
0
100
AcDbLine
 10
36.3648636775893
 20
-21.31220755084458
 30
0.0
 11
36.3023636775893
 21
-21.37428279941016
 31
0.0
  0
LINE
  5
563
330
52E
100
AcDbEntity
  8
0
100
AcDbLine
 10
36.3023636775893
 20
-21.37428279941016
 30
0.0
 11
36.3648636775893
 21
-21.4367748239169
 31
0.0
  0
LINE
  5
564
330
52E
100
AcDbEntity
  8
0
100
AcDbLine
 10
36.3648636775893
 20
-21.31220755084458
 30
0.0
 11
36.3648636775893
 21
-21.18677482391689
 31
0.0
  0
LINE
  5
565
330
52E
100
AcDbEntity
  8
0
100
AcDbLine
 10
36.3648636775893
 20
-21.56220755084459
 30
0.0
 11
36.3648636775893
 21
-21.4367748239169
 31
0.0
  0
LINE
  5
566
330
52E
100
AcDbEntity
  8
0
100
AcDbLine
 10
36.3648636775893
 20
-21.8122075508446
 30
0.0
 11
36.3648636775893
 21
-21.68677482391691
 31
0.0
  0
LINE
  5
567
330
52E
100
AcDbEntity
  8
0
100
AcDbLine
 10
36.3648636775893
 20
-21.93677482391692
 30
0.0
 11
36.40955514002938
 21
-22.01513959678094
 31
0.0
  0
LINE
  5
568
330
52E
100
AcDbEntity
  8
0
100
AcDbLine
 10
36.40955514002938
 20
-22.01513959678094
 30
0.0
 11
36.36166319209618
 21
-22.06339295053903
 31
0.0
  0
LINE
  5
569
330
52E
100
AcDbEntity
  8
0
100
AcDbLine
 10
36.3023636775893
 20
-21.12428279941016
 30
0.0
 11
36.3648636775893
 21
-21.18677482391689
 31
0.0
  0
LINE
  5
56A
330
52E
100
AcDbEntity
  8
0
100
AcDbLine
 10
36.3648636775893
 20
-21.18677482391689
 30
0.0
 11
36.61486367758931
 21
-21.12427482391689
 31
0.0
  0
LINE
  5
56B
330
52E
100
AcDbEntity
  8
0
100
AcDbLine
 10
36.3648636775893
 20
-21.31220755084458
 30
0.0
 11
36.61486367758931
 21
-21.24970755084458
 31
0.0
  0
LINE
  5
56C
330
52E
100
AcDbEntity
  8
0
100
AcDbLine
 10
36.3648636775893
 20
-21.4367748239169
 30
0.0
 11
36.61486367758931
 21
-21.37427482391689
 31
0.0
  0
LINE
  5
56D
330
52E
100
AcDbEntity
  8
0
100
AcDbLine
 10
36.3648636775893
 20
-21.56220755084459
 30
0.0
 11
36.61486367758931
 21
-21.49970755084459
 31
0.0
  0
LINE
  5
56E
330
52E
100
AcDbEntity
  8
0
100
AcDbLine
 10
36.3648636775893
 20
-21.68677482391691
 30
0.0
 11
36.61486367758931
 21
-21.6242748239169
 31
0.0
  0
LINE
  5
56F
330
52E
100
AcDbEntity
  8
0
100
AcDbLine
 10
36.3648636775893
 20
-21.8122075508446
 30
0.0
 11
36.61486367758931
 21
-21.74970755084459
 31
0.0
  0
LINE
  5
570
330
52E
100
AcDbEntity
  8
0
100
AcDbLine
 10
36.3648636775893
 20
-21.93677482391692
 30
0.0
 11
36.61486367758931
 21
-21.87427482391691
 31
0.0
  0
LINE
  5
571
330
52E
100
AcDbEntity
  8
0
100
AcDbLine
 10
36.36166319209618
 20
-22.06339295053903
 30
0.0
 11
36.45266116609978
 21
-22.09072436750993
 31
0.0
  0
LINE
  5
572
330
52E
100
AcDbEntity
  8
0
100
AcDbLine
 10
36.40955514002938
 20
-22.01513959678094
 30
0.0
 11
36.57223315183905
 21
-21.97034108586645
 31
0.0
  0
LINE
  5
573
330
52E
100
AcDbEntity
  8
0
100
AcDbLine
 10
36.36166319209618
 20
-22.06339295053903
 30
0.0
 11
36.61806416308243
 21
-22.01651795053903
 31
0.0
  0
LINE
  5
574
330
52E
100
AcDbEntity
  8
0
100
AcDbLine
 10
36.3648636775893
 20
-20.56220755084456
 30
0.0
 11
36.61486367758931
 21
-20.49970755084456
 31
0.0
  0
LINE
  5
575
330
52E
100
AcDbEntity
  8
0
100
AcDbLine
 10
36.3648636775893
 20
-20.68677482391688
 30
0.0
 11
36.61486367758931
 21
-20.62427482391687
 31
0.0
  0
LINE
  5
576
330
52E
100
AcDbEntity
  8
0
100
AcDbLine
 10
36.3648636775893
 20
-20.81220755084457
 30
0.0
 11
36.61486367758931
 21
-20.74970755084457
 31
0.0
  0
LINE
  5
577
330
52E
100
AcDbEntity
  8
0
100
AcDbLine
 10
36.3648636775893
 20
-20.93677482391688
 30
0.0
 11
36.61486367758931
 21
-20.87427482391688
 31
0.0
  0
LINE
  5
578
330
52E
100
AcDbEntity
  8
0
100
AcDbLine
 10
36.3648636775893
 20
-21.06220755084458
 30
0.0
 11
36.61486367758931
 21
-20.99970755084457
 31
0.0
  0
LINE
  5
579
330
52E
100
AcDbEntity
  8
0
100
AcDbLine
 10
36.3648636775893
 20
-20.48364982391687
 30
0.0
 11
36.61486367758931
 21
-20.48364982391687
 31
0.0
  0
LINE
  5
57A
330
52E
100
AcDbEntity
  8
0
100
AcDbLine
 10
36.6773636775893
 20
-20.42115779941013
 30
0.0
 11
36.6773636775893
 21
-19.53095755084453
 31
0.0
  0
LINE
  5
57B
330
52E
100
AcDbEntity
  8
0
100
AcDbLine
 10
36.86486367758931
 20
-19.53095755084453
 30
0.0
 11
36.86486367758931
 21
-19.26533255084453
 31
0.0
  0
ENDBLK
  5
57C
330
52E
100
AcDbEntity
  8
0
100
AcDbBlockEnd
  0
ENDSEC
  0
SECTION
  2
ENTITIES
  0
LINE
  5
32
330
2
100
AcDbEntity
  8
0
  6
Continuous
100
AcDbLine
 10
140.38940408766
 20
-44.30672036033654
 30
0.0
 11
140.13940408766
 21
-44.30672036033654
 31
0.0
  0
LINE
  5
33
330
2
100
AcDbEntity
  8
0
  6
Continuous
100
AcDbLine
 10
139.88940408766
 20
-43.97121590334291
 30
0.0
 11
140.38940408766
 21
-44.30672036033654
 31
0.0
  0
MTEXT
  5
35
102
{ACAD_REACTORS
330
57
102
}
330
2
100
AcDbEntity
  8
0
  6
Continuous
100
AcDbMText
 10
133.6779565442659
 20
-46.66721939923994
 30
0.0
 40
0.1875
 41
4.4125
 71
     3
 72
     1
  1
SILICONE SEAL
 73
     1
 44
1.0
1001
ACAD
1000
MTEXTBEGIN
1070
    73
1070
     1
1070
    44
1040
1.0
1070
    74
1070
     0
1000
MTEXTEND
  0
MTEXT
  5
37
102
{ACAD_REACTORS
330
FB
102
}
330
2
100
AcDbEntity
  8
0
  6
Continuous
100
AcDbMText
 10
133.6779565442659
 20
-45.51344799975121
 30
0.0
 40
0.1875
 41
4.4125
 71
     3
 72
     1
  1
{\fArial|b0|i0|c0|p34;ALUMINUM SNAP BOTTOM}
 73
     1
 44
1.0
1001
ACAD
1000
MTEXTBEGIN
1070
    73
1070
     1
1070
    44
1040
1.0
1070
    74
1070
     0
1000
MTEXTEND
  0
MTEXT
  5
38
102
{ACAD_REACTORS
330
FC
102
}
330
2
100
AcDbEntity
  8
0
  6
Continuous
100
AcDbMText
 10
133.6779565442659
 20
-44.23714131147008
 30
0.0
 40
0.1875
 41
4.4125
 71
     3
 72
     1
  1
TEK SCREW
 73
     1
 44
1.0
1001
ACAD
1000
MTEXTBEGIN
1070
    73
1070
     1
1070
    44
1040
1.0
1070
    74
1070
     0
1000
MTEXTEND
  0
MTEXT
  5
39
102
{ACAD_REACTORS
330
58
102
}
330
2
100
AcDbEntity
  8
0
  6
Continuous
100
AcDbMText
 10
133.6779565442659
 20
-43.22064645544602
 30
0.0
 40
0.1875
 41
4.4125
 71
     3
 72
     1
  1
{\fArial|b0|i0|c0|p34;EPDM GLAZING GASKET}
 73
     1
 44
1.0
1001
ACAD
1000
MTEXTBEGIN
1070
    73
1070
     1
1070
    44
1040
1.0
1070
    74
1070
     0
1000
MTEXTEND
  0
MTEXT
  5
3A
102
{ACAD_REACTORS
330
59
102
}
330
2
100
AcDbEntity
  8
0
  6
Continuous
100
AcDbMText
 10
133.6779565442659
 20
-44.58667170202798
 30
0.0
 40
0.1875
 41
4.4125
 71
     3
 72
     1
  1
{\fArial|b0|i0|c0|p34;ALUMINUM PURLIN CLIP}
 73
     1
 44
1.0
1001
ACAD
1000
MTEXTBEGIN
1070
    73
1070
     1
1070
    44
1040
1.0
1070
    74
1070
     0
1000
MTEXTEND
  0
MTEXT
  5
3B
102
{ACAD_REACTORS
330
5A
102
}
330
2
100
AcDbEntity
  8
0
  6
Continuous
100
AcDbMText
 10
133.6779565442659
 20
-42.67475940649084
 30
0.0
 40
0.1875
 41
4.4125
 71
     3
 72
     1
  1
EPDM SETTING BLOCK
 73
     1
 44
1.0
1001
ACAD
1000
MTEXTBEGIN
1070
    73
1070
     1
1070
    44
1040
1.0
1070
    74
1070
     0
1000
MTEXTEND
  0
MTEXT
  5
3C
102
{ACAD_REACTORS
330
5B
102
}
330
2
100
AcDbEntity
  8
0
  6
Continuous
100
AcDbMText
 10
133.6779565442659
 20
-41.90014780591852
 30
0.0
 40
0.1875
 41
4.4125
 71
     3
 72
     1
  1
SILICONE SEAL
 73
     1
 44
1.0
1001
ACAD
1000
MTEXTBEGIN
1070
    73
1070
     1
1070
    44
1040
1.0
1070
    74
1070
     0
1000
MTEXTEND
  0
MTEXT
  5
3D
102
{ACAD_REACTORS
330
3FF
102
}
330
2
100
AcDbEntity
  8
0
  6
Continuous
100
AcDbMText
 10
133.6779565442659
 20
-41.3625929887032
 30
0.0
 40
0.1875
 41
4.4125
 71
     3
 72
     1
  1
ALUMINUM SNAP CAP BEYOND
 73
     1
 44
1.0
1001
ACAD
1000
MTEXTBEGIN
1070
    73
1070
     1
1070
    44
1040
1.0
1070
    74
1070
     0
1000
MTEXTEND
  0
MTEXT
  5
3E
102
{ACAD_REACTORS
330
FD
102
}
330
2
100
AcDbEntity
  8
0
  6
Continuous
100
AcDbMText
 10
133.6779565442659
 20
-45.05502766369559
 30
0.0
 40
0.1875
 41
4.4125
 71
     3
 72
     1
  1
 INTER-SKY PURLIN W/ FIN
 73
     1
 44
1.0
1001
ACAD
1000
MTEXTBEGIN
1070
    73
1070
     1
1070
    44
1040
1.0
1070
    74
1070
     0
1000
MTEXTEND
  0
MTEXT
  5
3F
102
{ACAD_REACTORS
330
5C
102
}
330
2
100
AcDbEntity
  8
0
  6
Continuous
100
AcDbMText
 10
133.6779565442659
 20
-47.75708863869508
 30
0.0
 40
0.1875
 41
4.4125
 71
     3
 72
     1
  1
ANCHOR
 73
     1
 44
1.0
1001
ACAD
1000
MTEXTBEGIN
1070
    73
1070
     1
1070
    44
1040
1.0
1070
    74
1070
     0
1000
MTEXTEND
  0
MTEXT
  5
40
102
{ACAD_REACTORS
330
FE
102
}
330
2
100
AcDbEntity
  8
0
  6
Continuous
100
AcDbMText
 10
133.6779565442659
 20
-47.39123581504137
 30
0.0
 40
0.1875
 41
4.4125
 71
     3
 72
     1
  1
WORKPOINT
 73
     1
 44
1.0
1001
ACAD
1000
MTEXTBEGIN
1070
    73
1070
     1
1070
    44
1040
1.0
1070
    74
1070
     0
1000
MTEXTEND
  0
MTEXT
  5
41
102
{ACAD_REACTORS
330
5D
102
}
330
2
100
AcDbEntity
  8
0
  6
Continuous
100
AcDbMText
 10
133.6779565442659
 20
-47.0879124274675
 30
0.0
 40
0.1875
 41
4.4125
 71
     3
 72
     1
  1
ALUMINUM PLATE
 73
     1
 44
1.0
1001
ACAD
1000
MTEXTBEGIN
1070
    73
1070
     1
1070
    44
1040
1.0
1070
    74
1070
     0
1000
MTEXTEND
  0
MTEXT
  5
42
102
{ACAD_REACTORS
330
5E
102
}
330
2
100
AcDbEntity
  8
0
  6
Continuous
100
AcDbMText
 10
133.6779565442659
 20
-45.95804680446915
 30
0.0
 40
0.1875
 41
4.4125
 71
     3
 72
     1
  1
INTER-SKY RAFTER BEYOND
 73
     1
 44
1.0
1001
ACAD
1000
MTEXTBEGIN
1070
    73
1070
     1
1070
    44
1040
1.0
1070
    74
1070
     0
1000
MTEXTEND
  0
MTEXT
  5
43
102
{ACAD_REACTORS
330
FF
102
}
330
2
100
AcDbEntity
  8
0
  6
Continuous
100
AcDbMText
 10
133.6779565442659
 20
-48.79718025310936
 30
0.0
 40
0.1875
 41
4.4125
 71
     3
 72
     1
  1
SILL FLASHING
 73
     1
 44
1.0
1001
ACAD
1000
MTEXTBEGIN
1070
    73
1070
     1
1070
    44
1040
1.0
1070
    74
1070
     0
1000
MTEXTEND
  0
MTEXT
  5
44
102
{ACAD_REACTORS
330
100
102
}
330
2
100
AcDbEntity
  8
0
  6
Continuous
100
AcDbMText
 10
133.6779565442659
 20
-49.54804256352722
 30
0.0
 40
0.1875
 41
4.4125
 71
     3
 72
     1
  1
CURB BY OTHERS
 73
     1
 44
1.0
1001
ACAD
1000
MTEXTBEGIN
1070
    73
1070
     1
1070
    44
1040
1.0
1070
    74
1070
     0
1000
MTEXTEND
  0
TEXT
  5
45
330
2
100
AcDbEntity
  8
0
  6
Continuous
100
AcDbText
 10
130.1986822175651
 20
-46.30185035504328
 30
0.0
 40
0.1082863998362349
  1
-800-972-9112-
100
AcDbText
  0
ARC
  5
46
330
2
100
AcDbEntity
  8
Glazing
  6
Continuous
100
AcDbCircle
 10
136.3883616955077
 20
-41.59820204593979
 30
0.0
 40
0.6619852288355128
100
AcDbArc
 50
291.6903945394901
 51
329.3510908333413
  0
ARC
  5
48
330
2
100
AcDbEntity
  8
Glazing
  6
Continuous
100
AcDbCircle
 10
136.3883616955077
 20
-41.59820204593979
 30
0.0
 40
0.6419852288355128
100
AcDbArc
 50
291.9302247820661
 51
331.1855344801961
  0
ARC
  5
49
330
2
100
AcDbEntity
  8
Glazing
  6
Continuous
100
AcDbCircle
 10
136.3883616955077
 20
-41.59820204593979
 30
0.0
 40
0.6219852288355128
100
AcDbArc
 50
292.1856315874265
 51
333.2102816688193
  0
ARC
  5
4A
330
2
100
AcDbEntity
  8
Glazing
  6
Continuous
100
AcDbCircle
 10
136.3883616955077
 20
-41.59820204593979
 30
0.0
 40
0.6019852288355128
100
AcDbArc
 50
292.4581891723537
 51
335.4651938953772
  0
ARC
  5
4B
330
2
100
AcDbEntity
  8
Glazing
  6
Continuous
100
AcDbCircle
 10
136.3883616955077
 20
-41.59820204593979
 30
0.0
 40
0.5819852288355128
100
AcDbArc
 50
292.7496921467925
 51
338.0053332048172
  0
ARC
  5
4C
330
2
100
AcDbEntity
  8
Glazing
  6
Continuous
100
AcDbCircle
 10
136.3883616955077
 20
-41.59820204593979
 30
0.0
 40
0.5619852288355128
100
AcDbArc
 50
293.0621956535253
 51
340.9107630726646
  0
LINE
  5
50
330
2
100
AcDbEntity
  8
Glazing
  6
Continuous
100
AcDbLine
 10
137.5196783814193
 20
-42.13328690200454
 30
0.0
 11
137.640977996817
 21
-42.6183502002496
 31
0.0
  0
LINE
  5
51
330
2
100
AcDbEntity
  8
0
  6
Continuous
100
AcDbLine
 10
140.13940408766
 20
-43.97121590334289
 30
0.0
 11
140.13940408766
 21
-40.39065341842728
 31
0.0
  0
LINE
  5
52
330
2
100
AcDbEntity
  8
0
  6
Continuous
100
AcDbLine
 10
137.5196783814193
 20
-42.13328690200454
 30
0.0
 11
137.155914698572
 21
-42.73964981564748
 31
0.0
  0
LINE
  5
53
330
2
100
AcDbEntity
  8
0
  6
Continuous
100
AcDbLine
 10
137.0346150831744
 20
-42.2545865174024
 30
0.0
 11
137.640977996817
 21
-42.6183502002496
 31
0.0
  0
LINE
  5
54
330
2
100
AcDbEntity
  8
Glazing
  6
Continuous
100
AcDbLine
 10
137.2917702678176
 20
-43.28292070968188
 30
0.0
 11
136.9739652754756
 21
-42.01205486827984
 31
0.0
  0
LINE
  5
55
330
2
100
AcDbEntity
  8
Glazing
  6
Continuous
100
AcDbLine
 10
140.1394040876603
 20
-41.99356963034095
 30
0.0
 11
137.1559146985719
 21
-42.73964981564749
 31
0.0
  0
LINE
  5
56
330
2
100
AcDbEntity
  8
Glazing
  6
Continuous
100
AcDbLine
 10
140.1394040876603
 20
-42.25126795641974
 30
0.0
 11
137.2165645062708
 21
-42.98218146477
 31
0.0
  0
LEADER
  5
57
330
2
100
AcDbEntity
  8
0
  6
Continuous
100
AcDbLeader
  3
STANDARD
 73
     0
 40
0.1940228512960437
 41
1.94419338335607
 76
     2
 10
137.066109972646
 20
-46.76096939923994
 30
0.0
 10
133.7679565442659
 20
-46.76096939923994
 30
0.0
340
35
213
0.0
223
-0.09375
233
0.0
1001
ACAD
1000
DSTYLE
1002
{
1070
   147
1040
0.09
1070
    77
1070
     0
1002
}
  0
LEADER
  5
58
330
2
100
AcDbEntity
  8
0
  6
Continuous
100
AcDbLeader
  3
STANDARD
 73
     0
 40
0.1938949522510232
 41
3.088761937244202
 76
     2
 10
137.5517106990841
 20
-43.31439645544603
 30
0.0
 10
133.7679565442659
 20
-43.31439645544603
 30
0.0
340
39
213
0.0
223
-0.09375
233
0.0
1001
ACAD
1000
DSTYLE
1002
{
1070
   147
1040
0.09
1070
    77
1070
     0
1002
}
  0
LEADER
  5
59
330
2
100
AcDbEntity
  8
0
  6
Continuous
100
AcDbLeader
  3
STANDARD
 73
     0
 40
0.1938949522510232
 41
3.074948840381991
 76
     2
 10
136.315939764088
 20
-44.68042170202799
 30
0.0
 10
133.7679565442659
 20
-44.68042170202799
 30
0.0
340
3A
213
0.0
223
-0.09375
233
0.0
1001
ACAD
1000
DSTYLE
1002
{
1070
   147
1040
0.09
1070
    77
1070
     0
1002
}
  0
LEADER
  5
5A
330
2
100
AcDbEntity
  8
0
  6
Continuous
100
AcDbLeader
  3
STANDARD
 73
     0
 40
0.1940228512960437
 41
2.904203615279672
 76
     2
 10
136.8760883853424
 20
-42.76850940649083
 30
0.0
 10
133.7679565442659
 20
-42.76850940649083
 30
0.0
340
3B
213
0.0
223
-0.09375
233
0.0
1001
ACAD
1000
DSTYLE
1002
{
1070
   147
1040
0.09
1070
    77
1070
     0
1002
}
  0
LEADER
  5
5B
330
2
100
AcDbEntity
  8
0
  6
Continuous
100
AcDbLeader
  3
STANDARD
 73
     0
 40
0.1940228512960437
 41
1.94419338335607
 76
     2
 10
136.8760883853424
 20
-41.99389780591852
 30
0.0
 10
133.7679565442659
 20
-41.99389780591852
 30
0.0
340
3C
213
0.0
223
-0.09375
233
0.0
1001
ACAD
1000
DSTYLE
1002
{
1070
   147
1040
0.09
1070
    77
1070
     0
1002
}
  0
LEADER
  5
5C
330
2
100
AcDbEntity
  8
0
  6
Continuous
100
AcDbLeader
  3
STANDARD
 73
     0
 40
0.1940228512960437
 41
1.132546043656207
 76
     2
 10
137.366442212072
 20
-47.85083863869509
 30
0.0
 10
133.7679565442659
 20
-47.85083863869508
 30
0.0
340
3F
213
0.0
223
-0.09375
233
0.0
1001
ACAD
1000
DSTYLE
1002
{
1070
   147
1040
0.09
1070
    77
1070
     0
1002
}
  0
LEADER
  5
5D
330
2
100
AcDbEntity
  8
0
  6
Continuous
100
AcDbLeader
  3
STANDARD
 73
     0
 40
0.1938949522510232
 41
2.786920190995907
 76
     2
 10
136.4946944230094
 20
-47.18166242746749
 30
0.0
 10
133.7679565442659
 20
-47.18166242746749
 30
0.0
340
41
213
0.0
223
-0.09375
233
0.0
1001
ACAD
1000
DSTYLE
1002
{
1070
   147
1040
0.09
1070
    77
1070
     0
1002
}
  0
LEADER
  5
5E
330
2
100
AcDbEntity
  8
0
  6
Continuous
100
AcDbLeader
  3
STANDARD
 73
     0
 40
0.1940228512960437
 41
3.658296384720327
 76
     2
 10
136.4946944230094
 20
-46.05179680446915
 30
0.0
 10
133.7679565442659
 20
-46.05179680446915
 30
0.0
340
42
213
0.0
223
-0.09375
233
0.0
1001
ACAD
1000
DSTYLE
1002
{
1070
   147
1040
0.09
1070
    77
1070
     0
1002
}
  0
LINE
  5
5F
330
2
100
AcDbEntity
  8
.050 Flashing
  6
Continuous
100
AcDbLine
 10
139.3657051372033
 20
-47.43625038788283
 30
0.0
 11
135.3757051372033
 21
-47.43625038788283
 31
0.0
  0
LINE
  5
61
330
2
100
AcDbEntity
  8
.050 Flashing
  6
Continuous
100
AcDbLine
 10
139.3057051372033
 20
-47.38625038788284
 30
0.0
 11
135.3257051372033
 21
-47.38625038788284
 31
0.0
  0
LINE
  5
62
330
2
100
AcDbEntity
  8
.050 Flashing
  6
Continuous
100
AcDbLine
 10
135.2232791448952
 20
-42.44618477961573
 30
0.0
 11
136.5923283558576
 21
-42.10382710516118
 31
0.0
  0
LINE
  5
63
330
2
100
AcDbEntity
  8
.050 Flashing
  6
Continuous
100
AcDbLine
 10
135.2732791448953
 20
-42.48522096169465
 30
0.0
 11
136.5559519875729
 21
-42.1644633965255
 31
0.0
  0
LINE
  5
64
330
2
100
AcDbEntity
  8
0
  6
Continuous
100
AcDbLine
 10
136.3125829818897
 20
-45.55029958459719
 30
0.0
 11
135.8657051372035
 21
-43.76328615883004
 31
0.0
  0
LINE
  5
65
330
2
100
AcDbEntity
  8
0
  6
Continuous
 62
     0
100
AcDbLine
 10
135.8657051372035
 20
-43.7632861588302
 30
0.0
 11
136.775198821413
 21
-43.5358493799594
 31
0.0
  0
LINE
  5
66
330
2
100
AcDbEntity
  8
0
  6
Continuous
 62
     0
100
AcDbLine
 10
136.2531481891309
 20
-44.42185323011985
 30
0.0
 11
136.2814427338398
 21
-44.45142142127783
 31
0.0
  0
LINE
  5
67
330
2
100
AcDbEntity
  8
0
  6
Continuous
 62
     0
100
AcDbLine
 10
136.2692287102154
 20
-44.25816126687904
 30
0.0
 11
136.2577699886842
 21
-44.29744901797748
 31
0.0
  0
LINE
  5
68
330
2
100
AcDbEntity
  8
0
  6
Continuous
 62
     0
100
AcDbLine
 10
136.2764030028783
 20
-44.85815224340008
 30
0.0
 11
136.1808812364011
 21
-44.4761717446102
 31
0.0
  0
LINE
  5
69
330
2
100
AcDbEntity
  8
0
  6
Continuous
 62
     0
100
AcDbLine
 10
136.2531481891309
 20
-44.42185323011985
 30
0.0
 11
136.2814427338398
 21
-44.45142142127783
 31
0.0
  0
LINE
  5
6A
330
2
100
AcDbEntity
  8
0
  6
Continuous
 62
     0
100
AcDbLine
 10
136.2692287102154
 20
-44.25816126687904
 30
0.0
 11
136.2577699886842
 21
-44.29744901797748
 31
0.0
  0
LINE
  5
6B
330
2
100
AcDbEntity
  8
0
  6
Continuous
 62
     0
100
AcDbLine
 10
136.2764030028783
 20
-44.85815224340008
 30
0.0
 11
136.1808812364011
 21
-44.4761717446102
 31
0.0
  0
INSERT
  5
6C
330
2
100
AcDbEntity
  8
0
  6
Continuous
 62
     0
100
AcDbBlockReference
  2
purlin fin
 10
121.4005892368474
 20
2.17988395279147
 30
0.0
 50
14.04
  0
INSERT
  5
BB
330
2
100
AcDbEntity
  8
0
  6
Continuous
 62
     0
100
AcDbBlockReference
  2
snap bottom
 10
116.6788033905672
 20
7.11130084251917
 30
0.0
 50
14.04
  0
HATCH
  5
E7
330
2
100
AcDbEntity
  8
HIDDEN
  6
Continuous
100
AcDbHatch
 10
0.0
 20
0.0
 30
0.0
210
0.0
220
0.0
230
1.0
  2
ANSI31
 70
     0
 71
     0
 91
        4
 92
        7
 72
     0
 73
     1
 93
       10
 10
136.1764683007202
 20
-43.94327204941513
 10
136.0552021818006
 20
-43.97359702754793
 10
136.1345970596266
 20
-44.2910874051733
 10
136.1359036288107
 20
-44.29076067854071
 10
136.1641990928896
 20
-44.32032847409412
 10
136.1911076371256
 20
-44.31374922175531
 10
136.2025659690648
 20
-44.27446051352389
 10
136.2308618340401
 20
-44.30402922744926
 10
136.2577696581731
 20
-44.29745015117866
 10
136.261682683577
 20
-44.28403382304004
 97
        0
 92
        7
 72
     0
 73
     1
 93
       11
 10
136.2936693731096
 20
-44.41194485865413
 10
136.2929019315054
 20
-44.41213250136617
 10
136.2814427338398
 20
-44.4514214212778
 10
136.253148189131
 20
-44.42185323011985
 10
136.226239905374
 20
-44.42843158943889
 10
136.2147799935329
 20
-44.46772066738565
 10
136.1864852169655
 20
-44.43815223393236
 10
136.1851118390527
 20
-44.47511382086993
 10
136.1808812364011
 20
-44.47617174461017
 10
136.2764030028523
 20
-44.85815224329629
 10
136.3976691072125
 20
-44.82782726948561
 97
        0
 92
        7
 72
     0
 73
     1
 93
       10
 10
137.7017080553808
 20
-43.92392716398194
 10
137.7114756017735
 20
-43.93392239614532
 10
137.7383129359991
 20
-43.92706143879151
 10
137.7493600194975
 20
-43.8876542470103
 10
137.7779629546913
 20
-43.91692484768102
 10
137.8048010071334
 20
-43.91006370671528
 10
137.8158481692057
 20
-43.87065751390913
 10
137.8171547352442
 20
-43.87033077469786
 10
137.7377601680025
 20
-43.55284031006291
 10
137.6164940490828
 20
-43.58316528819575
 97
        0
 92
        7
 72
     0
 73
     1
 93
       11
 10
137.8634385385085
 20
-44.05541520753835
 10
137.859207946042
 20
-44.05647317200767
 10
137.8405982624483
 20
-44.0245087425214
 10
137.8295520072234
 20
-44.06391517452668
 10
137.8009475040696
 20
-44.03464499132543
 10
137.7741101017938
 20
-44.0415067975861
 10
137.7630639370862
 20
-44.08091290667965
 10
137.7344601384309
 20
-44.05164252674616
 10
137.7336947072744
 20
-44.05183820900839
 10
137.8376941404428
 20
-44.4677206951888
 10
137.958960244803
 20
-44.4373957213781
 97
        0
 75
     0
 76
     1
 52
14.04
 41
0.25
 77
     0
 78
     1
 53
59.03999999999999
 43
109.0059361375715
 44
-13.65401612933758
 45
-0.0267977080060516
 46
0.0160762354306721
 79
     0
 47
0.0029273141127875
 98
        4
 10
136.1669160457569
 20
-44.15115372523572
 10
136.2890657687851
 20
-44.57926134671718
 10
137.695333568327
 20
-43.74480320971424
 10
137.8444708002536
 20
-44.20840633239255
  0
LINE
  5
EA
330
2
100
AcDbEntity
  8
0
  6
Continuous
 62
     0
100
AcDbLine
 10
136.0552029147825
 20
-43.97359684425139
 30
0.0
 11
137.7377601680025
 21
-43.55284031006291
 31
0.0
  0
HATCH
  5
EB
330
2
100
AcDbEntity
  8
0
  6
Continuous
100
AcDbHatch
 10
0.0
 20
0.0
 30
0.0
210
0.0
220
0.0
230
1.0
  2
ANSI31
 70
     0
 71
     0
 91
        1
 92
        7
 72
     0
 73
     1
 93
        4
 10
135.8657051372033
 20
-47.13625038788278
 10
135.8657051372033
 20
-47.38625038788278
 10
138.8657051372032
 20
-47.38625038788277
 10
138.8657051372032
 20
-47.13625038788276
 97
        0
 75
     0
 76
     1
 52
0.0
 41
0.5
 77
     0
 78
     1
 53
45.0
 43
-20.20578729937711
 44
71.02103945106434
 45
-0.0441941738241592
 46
0.0441941738241592
 79
     0
 47
0.0089387369589001
 98
        1
 10
136.9907645035546
 20
-47.20407960458182
  0
LINE
  5
EC
330
2
100
AcDbEntity
  8
0
  6
Continuous
100
AcDbLine
 10
138.8657051372032
 20
-47.13625038788276
 30
0.0
 11
135.8657051372032
 21
-47.13625038788278
 31
0.0
  0
LINE
  5
ED
330
2
100
AcDbEntity
  8
0
  6
Continuous
100
AcDbLine
 10
138.8657051372032
 20
-47.38625038788277
 30
0.0
 11
135.8657051372033
 21
-47.3862503878828
 31
0.0
  0
LINE
  5
EE
330
2
100
AcDbEntity
  8
0
  6
Continuous
100
AcDbLine
 10
135.8657051372033
 20
-48.93625038788283
 30
0.0
 11
139.3657051372033
 21
-47.43625038788283
 31
0.0
  0
LINE
  5
EF
330
2
100
AcDbEntity
  8
0
  6
Continuous
100
AcDbLine
 10
135.8657051372033
 20
-47.43625038788283
 30
0.0
 11
139.3657051372033
 21
-48.93625038788283
 31
0.0
  0
LINE
  5
F0
330
2
100
AcDbEntity
  8
Curb
  6
DASHED2
370
    25
100
AcDbLine
 10
135.8657051372033
 20
-50.43625038788284
 30
0.0
 11
139.3657051372033
 21
-50.43625038788284
 31
0.0
  0
LINE
  5
F3
330
2
100
AcDbEntity
  8
Curb
  6
DASHED2
370
    25
100
AcDbLine
 10
135.8657051372033
 20
-48.93625038788283
 30
0.0
 11
139.3657051372033
 21
-48.93625038788283
 31
0.0
  0
LINE
  5
F4
330
2
100
AcDbEntity
  8
0
  6
Continuous
100
AcDbLine
 10
139.3657051372033
 20
-50.43625038788284
 30
0.0
 11
135.8657051372033
 21
-48.93625038788283
 31
0.0
  0
LINE
  5
F5
330
2
100
AcDbEntity
  8
0
  6
Continuous
100
AcDbLine
 10
139.3657051372033
 20
-48.93625038788283
 30
0.0
 11
135.8657051372033
 21
-50.43625038788284
 31
0.0
  0
LINE
  5
F6
330
2
100
AcDbEntity
  8
Curb
  6
DASHED2
370
    25
100
AcDbLine
 10
135.8657051372033
 20
-47.43625038788283
 30
0.0
 11
139.3657051372033
 21
-47.43625038788283
 31
0.0
  0
LEADER
  5
FB
330
2
100
AcDbEntity
  8
0
  6
Continuous
100
AcDbLeader
  3
STANDARD
 73
     0
 40
0.1940228512960437
 41
3.357222032742155
 76
     2
 10
136.0800065479493
 20
-45.6071979997512
 30
0.0
 10
133.7679565442659
 20
-45.6071979997512
 30
0.0
340
37
213
0.0
223
-0.09375
233
0.0
1001
ACAD
1000
DSTYLE
1002
{
1070
   147
1040
0.09
1070
    77
1070
     0
1002
}
  0
LEADER
  5
FC
330
2
100
AcDbEntity
  8
0
  6
Continuous
100
AcDbLeader
  3
STANDARD
 73
     0
 40
0.1938949522510232
 41
2.061348908594815
 76
     2
 10
135.9413018287613
 20
-44.33089131147008
 30
0.0
 10
133.7679565442659
 20
-44.33089131147008
 30
0.0
340
38
213
0.0
223
-0.09375
233
0.0
1001
ACAD
1000
DSTYLE
1002
{
1070
   147
1040
0.09
1070
    77
1070
     0
1002
}
  0
LEADER
  5
FD
330
2
100
AcDbEntity
  8
0
  6
Continuous
100
AcDbLeader
  3
STANDARD
 73
     0
 40
0.1938949522510232
 41
3.417718281036834
 76
     2
 10
136.1957160536934
 20
-45.1487776636956
 30
0.0
 10
133.7679565442659
 20
-45.1487776636956
 30
0.0
340
3E
213
0.0
223
-0.09375
233
0.0
1001
ACAD
1000
DSTYLE
1002
{
1070
   147
1040
0.09
1070
    77
1070
     0
1002
}
  0
LEADER
  5
FE
330
2
100
AcDbEntity
  8
0
  6
Continuous
100
AcDbLeader
  3
STANDARD
 73
     0
 40
0.1940228512960437
 41
1.606795702592087
 76
     2
 10
135.8657051372033
 20
-47.48498581504138
 30
0.0
 10
133.7679565442659
 20
-47.48498581504136
 30
0.0
340
40
213
0.0
223
-0.09375
233
0.0
1001
ACAD
1000
DSTYLE
1002
{
1070
   147
1040
0.09
1070
    77
1070
     0
1002
}
  0
LEADER
  5
FF
330
2
100
AcDbEntity
  8
0
  6
Continuous
100
AcDbLeader
  3
STANDARD
 73
     0
 40
0.1938949522510232
 41
2.463975102319235
 76
     2
 10
135.3157051372033
 20
-48.89093025310936
 30
0.0
 10
133.7679565442659
 20
-48.89093025310936
 30
0.0
340
43
213
0.0
223
-0.09375
233
0.0
1001
ACAD
1000
DSTYLE
1002
{
1070
   147
1040
0.09
1070
    77
1070
     0
1002
}
  0
LEADER
  5
100
330
2
100
AcDbEntity
  8
0
  6
Continuous
100
AcDbLeader
  3
STANDARD
 73
     0
 40
0.1940228512960437
 41
2.301927012278308
 76
     2
 10
135.8657051372033
 20
-49.64179256352721
 30
0.0
 10
133.7679565442659
 20
-49.64179256352721
 30
0.0
340
44
213
0.0
223
-0.09375
233
0.0
1001
ACAD
1000
DSTYLE
1002
{
1070
   147
1040
0.09
1070
    77
1070
     0
1002
}
  0
LINE
  5
101
330
2
100
AcDbEntity
  8
.050 Flashing
  6
Continuous
100
AcDbLine
 10
135.3657051372033
 20
-47.44625038788283
 30
0.0
 11
135.3657051372033
 21
-49.19068689602178
 31
0.0
  0
LINE
  5
102
330
2
100
AcDbEntity
  8
.050 Flashing
  6
Continuous
100
AcDbLine
 10
135.3157051372033
 20
-47.39625038788283
 30
0.0
 11
135.3157051372033
 21
-49.16997621790312
 31
0.0
  0
LINE
  5
103
330
2
100
AcDbEntity
  8
.050 Flashing
  6
Continuous
100
AcDbLine
 10
135.1389284419066
 20
-49.3508950488235
 30
0.0
 11
135.3127762050151
 21
-49.17704728571499
 31
0.0
  0
LINE
  5
104
330
2
100
AcDbEntity
  8
.050 Flashing
  6
Continuous
100
AcDbLine
 10
135.1742837809659
 20
-49.38625038788282
 30
0.0
 11
135.3627762050152
 21
-49.19775796383365
 31
0.0
  0
LINE
  5
105
330
2
100
AcDbEntity
  8
.050 Flashing
  6
Continuous
100
AcDbLine
 10
135.1389284419066
 20
-49.3508950488235
 30
0.0
 11
135.1742837809659
 21
-49.38625038788282
 31
0.0
  0
LINE
  5
106
330
2
100
AcDbEntity
  8
.050 Flashing
  6
Continuous
100
AcDbLine
 10
135.2657051372032
 20
-42.49492222765955
 30
0.0
 11
135.2657051372032
 21
-49.14926553978455
 31
0.0
  0
LINE
  5
107
330
2
100
AcDbEntity
  8
.050 Flashing
  6
Continuous
100
AcDbLine
 10
135.2157051372032
 20
-42.45588604558063
 30
0.0
 11
135.2157051372032
 21
-49.12855486166582
 31
0.0
  0
LINE
  5
108
330
2
100
AcDbEntity
  8
.050 Flashing
  6
Continuous
100
AcDbLine
 10
135.0389284419066
 20
-49.30947369258622
 30
0.0
 11
135.2127762050151
 21
-49.13562592947768
 31
0.0
  0
LINE
  5
109
330
2
100
AcDbEntity
  8
.050 Flashing
  6
Continuous
100
AcDbLine
 10
135.0742837809659
 20
-49.34482903164554
 30
0.0
 11
135.2627762050151
 21
-49.15633660759642
 31
0.0
  0
LINE
  5
10A
330
2
100
AcDbEntity
  8
.050 Flashing
  6
Continuous
100
AcDbLine
 10
135.0389284419066
 20
-49.30947369258622
 30
0.0
 11
135.0742837809659
 21
-49.34482903164554
 31
0.0
  0
ARC
  5
10B
330
2
100
AcDbEntity
  8
0
  6
Continuous
 62
     0
100
AcDbCircle
 10
136.04310046687
 20
-44.47267217702469
 30
0.0
 40
0.1302118990505079
100
AcDbArc
 50
194.0399999999999
 51
284.04
  0
ARC
  5
10C
330
2
100
AcDbEntity
  8
0
  6
Continuous
 62
     0
100
AcDbCircle
 10
136.0153043684219
 20
-44.36151875623767
 30
0.0
 40
0.1302118990505079
100
AcDbArc
 50
104.040000000003
 51
194.0400000000032
  0
LINE
  5
10D
330
2
100
AcDbEntity
  8
0
  6
Continuous
 62
     0
100
AcDbLine
 10
135.9167784404217
 20
-44.50426148357474
 30
0.0
 11
135.8889823419735
 21
-44.39310806278773
 31
0.0
  0
LINE
  5
10E
330
2
100
AcDbEntity
  8
0
  6
Continuous
 62
     0
100
AcDbLine
 10
136.1764682914867
 20
-43.94327201249156
 30
0.0
 11
136.2616826835771
 21
-44.28403382304007
 31
0.0
  0
LINE
  5
10F
330
2
100
AcDbEntity
  8
0
  6
Continuous
 62
     0
100
AcDbLine
 10
136.134600481589
 20
-44.29110108918162
 30
0.0
 11
136.0552021796019
 21
-43.97359701875585
 31
0.0
  0
LINE
  5
110
330
2
100
AcDbEntity
  8
0
  6
Continuous
 62
     0
100
AcDbLine
 10
136.1916439215892
 20
-44.31361809794646
 30
0.0
 11
136.1641990928896
 21
-44.32032847409412
 31
0.0
  0
LINE
  5
111
330
2
100
AcDbEntity
  8
0
  6
Continuous
 62
     0
100
AcDbLine
 10
136.1641990928896
 20
-44.32032847409412
 30
0.0
 11
136.1614957088805
 21
-44.39309985282538
 31
0.0
  0
LINE
  5
112
330
2
100
AcDbEntity
  8
0
  6
Continuous
 62
     0
100
AcDbLine
 10
136.186485448824
 20
-44.4381524762277
 30
0.0
 11
136.2147799935329
 21
-44.46772066738565
 31
0.0
  0
LINE
  5
113
330
2
100
AcDbEntity
  8
0
  6
Continuous
 62
     0
100
AcDbLine
 10
136.2147799935329
 20
-44.46772066738565
 30
0.0
 11
136.2262396335904
 21
-44.42843252121969
 31
0.0
  0
LINE
  5
114
330
2
100
AcDbEntity
  8
0
  6
Continuous
 62
     0
100
AcDbLine
 10
136.1851118390527
 20
-44.47511382086995
 30
0.0
 11
136.19110764843
 21
-44.31374918299424
 31
0.0
  0
LINE
  5
115
330
2
100
AcDbEntity
  8
0
  6
Continuous
 62
     0
100
AcDbLine
 10
136.2257020410085
 20
-44.42856308296309
 30
0.0
 11
136.2531481891309
 21
-44.42185323011985
 31
0.0
  0
LINE
  5
116
330
2
100
AcDbEntity
  8
0
  6
Continuous
 62
     0
100
AcDbLine
 10
136.2583066627397
 20
-44.29731885130159
 30
0.0
 11
136.2308618340401
 21
-44.30402922744927
 31
0.0
  0
LINE
  5
117
330
2
100
AcDbEntity
  8
0
  6
Continuous
 62
     0
100
AcDbLine
 10
136.2308618340401
 20
-44.30402922744927
 30
0.0
 11
136.2025659690648
 21
-44.27446051352389
 31
0.0
  0
LINE
  5
118
330
2
100
AcDbEntity
  8
0
  6
Continuous
 62
     0
100
AcDbLine
 10
136.2262396335904
 20
-44.42843252121969
 30
0.0
 11
136.2308618340401
 21
-44.30402922744927
 31
0.0
  0
LINE
  5
119
330
2
100
AcDbEntity
  8
0
  6
Continuous
 62
     0
100
AcDbLine
 10
136.2147799935329
 20
-44.46772066738565
 30
0.0
 11
136.2025659690648
 21
-44.27446051352389
 31
0.0
  0
LINE
  5
11A
330
2
100
AcDbEntity
  8
0
  6
Continuous
 62
     0
100
AcDbLine
 10
136.2025659690648
 20
-44.27446051352389
 30
0.0
 11
136.19110764843
 21
-44.31374918299424
 31
0.0
  0
LINE
  5
11B
330
2
100
AcDbEntity
  8
0
  6
Continuous
 62
     0
100
AcDbLine
 10
136.2531481891309
 20
-44.42185323011985
 30
0.0
 11
136.2577699886842
 21
-44.29744901797748
 31
0.0
  0
LINE
  5
11C
330
2
100
AcDbEntity
  8
0
  6
Continuous
 62
     0
100
AcDbLine
 10
136.1641990928896
 20
-44.32032847409412
 30
0.0
 11
136.1359036288107
 21
-44.29076067854071
 31
0.0
  0
LINE
  5
11D
330
2
100
AcDbEntity
  8
0
  6
Continuous
 62
     0
100
AcDbLine
 10
136.1359036288107
 20
-44.29076067854071
 30
0.0
 11
136.1614957088805
 21
-44.39309985282538
 31
0.0
  0
LINE
  5
11E
330
2
100
AcDbEntity
  8
0
  6
Continuous
 62
     0
100
AcDbLine
 10
135.9837150618718
 20
-44.23519672978928
 30
0.0
 11
136.0746897734201
 21
-44.59899420347305
 31
0.0
  0
LINE
  5
11F
330
2
100
AcDbEntity
  8
0
  6
Continuous
 62
     0
100
AcDbLine
 10
136.1808812364011
 20
-44.47617174461017
 30
0.0
 11
136.1851118390527
 21
-44.47511382086995
 31
0.0
  0
LINE
  5
120
330
2
100
AcDbEntity
  8
0
  6
Continuous
 62
     0
100
AcDbLine
 10
136.1345970596266
 20
-44.2910874051733
 30
0.0
 11
136.1359036288107
 21
-44.29076067854071
 31
0.0
  0
ARC
  5
121
330
2
100
AcDbEntity
  8
0
  6
Continuous
 62
     0
100
AcDbCircle
 10
136.04310046687
 20
-44.47267217702469
 30
0.0
 40
0.1302118990505079
100
AcDbArc
 50
194.0399999999999
 51
284.04
  0
ARC
  5
122
330
2
100
AcDbEntity
  8
0
  6
Continuous
 62
     0
100
AcDbCircle
 10
136.0153043684219
 20
-44.36151875623767
 30
0.0
 40
0.1302118990505079
100
AcDbArc
 50
104.040000000003
 51
194.0400000000032
  0
LINE
  5
123
330
2
100
AcDbEntity
  8
0
  6
Continuous
 62
     0
100
AcDbLine
 10
135.9167784404217
 20
-44.50426148357474
 30
0.0
 11
135.8889823419735
 21
-44.39310806278773
 31
0.0
  0
LINE
  5
124
330
2
100
AcDbEntity
  8
0
  6
Continuous
 62
     0
100
AcDbLine
 10
136.1764682914867
 20
-43.94327201249156
 30
0.0
 11
136.2616826835771
 21
-44.28403382304007
 31
0.0
  0
LINE
  5
125
330
2
100
AcDbEntity
  8
0
  6
Continuous
 62
     0
100
AcDbLine
 10
136.134600481589
 20
-44.29110108918162
 30
0.0
 11
136.0552021796019
 21
-43.97359701875585
 31
0.0
  0
LINE
  5
126
330
2
100
AcDbEntity
  8
0
  6
Continuous
 62
     0
100
AcDbLine
 10
136.1916439215892
 20
-44.31361809794646
 30
0.0
 11
136.1641990928896
 21
-44.32032847409412
 31
0.0
  0
LINE
  5
127
330
2
100
AcDbEntity
  8
0
  6
Continuous
 62
     0
100
AcDbLine
 10
136.1641990928896
 20
-44.32032847409412
 30
0.0
 11
136.1614957088805
 21
-44.39309985282538
 31
0.0
  0
LINE
  5
128
330
2
100
AcDbEntity
  8
0
  6
Continuous
 62
     0
100
AcDbLine
 10
136.186485448824
 20
-44.4381524762277
 30
0.0
 11
136.2147799935329
 21
-44.46772066738565
 31
0.0
  0
LINE
  5
129
330
2
100
AcDbEntity
  8
0
  6
Continuous
 62
     0
100
AcDbLine
 10
136.2147799935329
 20
-44.46772066738565
 30
0.0
 11
136.2262396335904
 21
-44.42843252121969
 31
0.0
  0
LINE
  5
12A
330
2
100
AcDbEntity
  8
0
  6
Continuous
 62
     0
100
AcDbLine
 10
136.1851118390527
 20
-44.47511382086995
 30
0.0
 11
136.19110764843
 21
-44.31374918299424
 31
0.0
  0
LINE
  5
12B
330
2
100
AcDbEntity
  8
0
  6
Continuous
 62
     0
100
AcDbLine
 10
136.2257020410085
 20
-44.42856308296309
 30
0.0
 11
136.2531481891309
 21
-44.42185323011985
 31
0.0
  0
LINE
  5
12C
330
2
100
AcDbEntity
  8
0
  6
Continuous
 62
     0
100
AcDbLine
 10
136.2583066627397
 20
-44.29731885130159
 30
0.0
 11
136.2308618340401
 21
-44.30402922744927
 31
0.0
  0
LINE
  5
12D
330
2
100
AcDbEntity
  8
0
  6
Continuous
 62
     0
100
AcDbLine
 10
136.2308618340401
 20
-44.30402922744927
 30
0.0
 11
136.2025659690648
 21
-44.27446051352389
 31
0.0
  0
LINE
  5
12E
330
2
100
AcDbEntity
  8
0
  6
Continuous
 62
     0
100
AcDbLine
 10
136.2262396335904
 20
-44.42843252121969
 30
0.0
 11
136.2308618340401
 21
-44.30402922744927
 31
0.0
  0
LINE
  5
12F
330
2
100
AcDbEntity
  8
0
  6
Continuous
 62
     0
100
AcDbLine
 10
136.2147799935329
 20
-44.46772066738565
 30
0.0
 11
136.2025659690648
 21
-44.27446051352389
 31
0.0
  0
LINE
  5
130
330
2
100
AcDbEntity
  8
0
  6
Continuous
 62
     0
100
AcDbLine
 10
136.2025659690648
 20
-44.27446051352389
 30
0.0
 11
136.19110764843
 21
-44.31374918299424
 31
0.0
  0
LINE
  5
131
330
2
100
AcDbEntity
  8
0
  6
Continuous
 62
     0
100
AcDbLine
 10
136.2531481891309
 20
-44.42185323011985
 30
0.0
 11
136.2577699886842
 21
-44.29744901797748
 31
0.0
  0
LINE
  5
132
330
2
100
AcDbEntity
  8
0
  6
Continuous
 62
     0
100
AcDbLine
 10
136.1641990928896
 20
-44.32032847409412
 30
0.0
 11
136.1359036288107
 21
-44.29076067854071
 31
0.0
  0
LINE
  5
133
330
2
100
AcDbEntity
  8
0
  6
Continuous
 62
     0
100
AcDbLine
 10
136.1359036288107
 20
-44.29076067854071
 30
0.0
 11
136.1614957088805
 21
-44.39309985282538
 31
0.0
  0
LINE
  5
134
330
2
100
AcDbEntity
  8
0
  6
Continuous
 62
     0
100
AcDbLine
 10
135.9837150618718
 20
-44.23519672978928
 30
0.0
 11
136.0746897734201
 21
-44.59899420347305
 31
0.0
  0
LINE
  5
135
330
2
100
AcDbEntity
  8
0
  6
Continuous
 62
     0
100
AcDbLine
 10
136.1808812364011
 20
-44.47617174461017
 30
0.0
 11
136.1851118390527
 21
-44.47511382086995
 31
0.0
  0
LINE
  5
136
330
2
100
AcDbEntity
  8
0
  6
Continuous
 62
     0
100
AcDbLine
 10
136.1345970596266
 20
-44.2910874051733
 30
0.0
 11
136.1359036288107
 21
-44.29076067854071
 31
0.0
  0
LINE
  5
137
330
2
100
AcDbEntity
  8
0
  6
Continuous
100
AcDbLine
 10
135.8657051372035
 20
-43.7632861588302
 30
0.0
 11
135.8657051372035
 21
-47.13625038788272
 31
0.0
  0
LINE
  5
138
330
2
100
AcDbEntity
  8
Curb
  6
DASHED2
370
    25
100
AcDbLine
 10
135.8657051372033
 20
-47.43625038788283
 30
0.0
 11
135.8657051372033
 21
-50.43625038788284
 31
0.0
  0
INSERT
  5
139
330
2
100
AcDbEntity
  8
0
  6
Continuous
100
AcDbBlockReference
  2
work point
 10
135.027606413989
 20
40.81355443918069
 30
0.0
  0
LINE
  5
277
330
2
100
AcDbEntity
  8
.050 Flashing
  6
Continuous
100
AcDbLine
 10
139.3557051372033
 20
-47.0304347025858
 30
0.0
 11
139.3257051372033
 21
-47.03043470258581
 31
0.0
  0
LINE
  5
278
330
2
100
AcDbEntity
  8
.050 Flashing
  6
Continuous
100
AcDbLine
 10
139.3157051372033
 20
-47.37625038788284
 30
0.0
 11
139.3157051372033
 21
-47.04043470258581
 31
0.0
  0
LINE
  5
279
330
2
100
AcDbEntity
  8
.050 Flashing
  6
Continuous
100
AcDbLine
 10
139.3657051372033
 20
-47.43625038788283
 30
0.0
 11
139.3657051372032
 21
-47.0404347025858
 31
0.0
  0
ARC
  5
27A
330
2
100
AcDbEntity
  8
Glazing
  6
Continuous
100
AcDbCircle
 10
136.3841476133584
 20
-41.59554662076113
 30
0.0
 40
0.841985228835513
100
AcDbArc
 50
315.3076338600699
 51
318.0233155731316
  0
ARC
  5
27B
330
2
100
AcDbEntity
  8
Glazing
  6
Continuous
100
AcDbCircle
 10
136.3841476133584
 20
-41.59554662076113
 30
0.0
 40
0.8219852288355129
100
AcDbArc
 50
312.9299325204561
 51
318.9683421058581
  0
ARC
  5
27C
330
2
100
AcDbEntity
  8
Glazing
  6
Continuous
100
AcDbCircle
 10
136.3883616955077
 20
-41.59820204593979
 30
0.0
 40
0.8019852288355128
100
AcDbArc
 50
310.2236938797953
 51
319.97236652014
  0
ARC
  5
27D
330
2
100
AcDbEntity
  8
Glazing
  6
Continuous
100
AcDbCircle
 10
136.3883616955077
 20
-41.59820204593979
 30
0.0
 40
0.781985228835513
100
AcDbArc
 50
307.0648334068828
 51
321.0416898444766
  0
ARC
  5
27E
330
2
100
AcDbEntity
  8
Glazing
  6
Continuous
100
AcDbCircle
 10
136.3883616955077
 20
-41.59820204593979
 30
0.0
 40
0.7619852288355129
100
AcDbArc
 50
303.2199024995646
 51
322.1836470885587
  0
ARC
  5
27F
330
2
100
AcDbEntity
  8
Glazing
  6
Continuous
100
AcDbCircle
 10
136.3883616955077
 20
-41.59820204593979
 30
0.0
 40
0.7419852288355129
100
AcDbArc
 50
298.1216067829485
 51
323.4068522219669
  0
ARC
  5
280
330
2
100
AcDbEntity
  8
Glazing
  6
Continuous
100
AcDbCircle
 10
136.3883616955077
 20
-41.59820204593979
 30
0.0
 40
0.7219852288355129
100
AcDbArc
 50
291.0512746845192
 51
324.7215232578853
  0
ARC
  5
281
330
2
100
AcDbEntity
  8
Glazing
  6
Continuous
100
AcDbCircle
 10
136.3883616955077
 20
-41.59820204593979
 30
0.0
 40
0.7019852288355129
100
AcDbArc
 50
291.2520770694317
 51
326.1399223473007
  0
ARC
  5
282
330
2
100
AcDbEntity
  8
Glazing
  6
Continuous
100
AcDbCircle
 10
136.3883616955077
 20
-41.59820204593979
 30
0.0
 40
0.6819852288355129
100
AcDbArc
 50
291.4647541165447
 51
327.6769655359186
  0
LINE
  5
283
330
2
100
AcDbEntity
  8
5
  6
Continuous
100
AcDbLine
 10
136.9836537708208
 20
-43.60226235106151
 30
0.0
 11
137.3474512445046
 21
-43.51128763951324
 31
0.0
  0
LINE
  5
284
330
2
100
AcDbEntity
  8
.050 Flashing
  6
Continuous
100
AcDbLine
 10
136.6044556141305
 20
-42.11110237881813
 30
0.0
 11
136.9498216087812
 21
-43.49218151841616
 31
0.0
  0
LINE
  5
285
330
2
100
AcDbEntity
  8
.050 Flashing
  6
Continuous
100
AcDbLine
 10
136.9498216087812
 20
-43.49218151841616
 30
0.0
 11
136.9013152789567
 21
-43.5043114799559
 31
0.0
  0
LINE
  5
286
330
2
100
AcDbEntity
  8
.050 Flashing
  6
Continuous
100
AcDbLine
 10
136.5680792458457
 20
-42.17173867018244
 30
0.0
 11
136.9013152789567
 21
-43.5043114799559
 31
0.0
  0
INSERT
  5
287
330
2
100
AcDbEntity
  8
0
  6
Continuous
 62
     0
100
AcDbBlockReference
  2
epdm
 10
142.5277012353008
 20
-47.44550753322417
 30
0.0
 50
14.04
  0
LINE
  5
2F4
330
2
100
AcDbEntity
  8
5
  6
Continuous
100
AcDbLine
 10
137.3474512445046
 20
-43.51128763951324
 30
0.0
 11
137.0177780787614
 21
-42.19296232913226
 31
0.0
  0
ARC
  5
2F5
330
2
100
AcDbEntity
  8
Glazing
  6
Continuous
 62
     5
100
AcDbCircle
 10
137.4076232861915
 20
-44.07406411580907
 30
0.0
 40
0.156336
100
AcDbArc
 50
37.95620309999928
 51
352.3119830700003
  0
LINE
  5
2F6
330
2
100
AcDbEntity
  8
0
  6
Continuous
 62
     0
100
AcDbLine
 10
137.8171547352443
 20
-43.87033077469787
 30
0.0
 11
137.8158481692057
 21
-43.87065751390913
 31
0.0
  0
LINE
  5
2F7
330
2
100
AcDbEntity
  8
0
  6
Continuous
 62
     0
100
AcDbLine
 10
137.8634385385085
 20
-44.05541520753835
 30
0.0
 11
137.859207946042
 21
-44.05647317200767
 31
0.0
  0
LINE
  5
2F8
330
2
100
AcDbEntity
  8
0
  6
Continuous
 62
     0
100
AcDbLine
 10
137.9239686374156
 20
-43.74999817253092
 30
0.0
 11
138.0149433489638
 21
-44.11379564621471
 31
0.0
  0
LINE
  5
2F9
330
2
100
AcDbEntity
  8
0
  6
Continuous
 62
     0
100
AcDbLine
 10
137.5705976544558
 20
-44.0929227834268
 30
0.0
 11
137.5275379677169
 21
-44.10393105563843
 31
0.0
  0
LINE
  5
2FA
330
2
100
AcDbEntity
  8
0
  6
Continuous
 62
     0
100
AcDbLine
 10
137.5727323813754
 20
-44.10127299607744
 30
0.0
 11
137.5636944939119
 21
-44.065921513941
 31
0.0
  0
LINE
  5
2FB
330
2
100
AcDbEntity
  8
0
  6
Continuous
 62
     0
100
AcDbLine
 10
137.5754182175184
 20
-44.09169030214847
 30
0.0
 11
137.5636944939119
 21
-44.065921513941
 31
0.0
  0
LINE
  5
2FC
330
2
100
AcDbEntity
  8
0
  6
Continuous
 62
     0
100
AcDbLine
 10
137.5383137944361
 20
-43.97819039684839
 30
0.0
 11
137.5493609555113
 21
-43.93878420396548
 31
0.0
  0
LINE
  5
2FD
330
2
100
AcDbEntity
  8
0
  6
Continuous
 62
     0
100
AcDbLine
 10
137.6009490398947
 20
-44.08577464347797
 30
0.0
 11
137.5383137944361
 21
-43.97819039684839
 31
0.0
  0
LINE
  5
2FE
330
2
100
AcDbEntity
  8
2
  6
CENTER
 62
     4
100
AcDbLine
 10
137.392052520292
 20
-44.01180134362614
 30
0.0
 11
137.4231941306649
 21
-44.13632788696711
 31
0.0
  0
LINE
  5
2FF
330
2
100
AcDbEntity
  8
0
  6
Continuous
 62
     0
100
AcDbLine
 10
137.3974401524722
 20
-44.11990410166447
 30
0.0
 11
137.4149162045492
 21
-44.18978797017176
 31
0.0
  0
ARC
  5
300
330
2
100
AcDbEntity
  8
0
  6
Continuous
 62
     0
100
AcDbCircle
 10
137.4381790395241
 20
-44.02312938976757
 30
0.0
 40
0.021
100
AcDbArc
 50
194.040449100001
 51
284.0404490700002
  0
LINE
  5
301
330
2
100
AcDbEntity
  8
2
  6
CENTER
 62
     4
100
AcDbLine
 10
137.345359516184
 20
-44.08963495836506
 30
0.0
 11
137.4698871347729
 21
-44.05849427222809
 31
0.0
  0
ARC
  5
302
330
2
100
AcDbEntity
  8
0
  6
Continuous
 62
     0
100
AcDbCircle
 10
137.3770675310944
 20
-44.12499885174433
 30
0.0
 40
0.021
100
AcDbArc
 50
14.04044910000022
 51
104.040449099999
  0
ARC
  5
303
330
2
100
AcDbEntity
  8
0
  6
Continuous
 62
     0
100
AcDbCircle
 10
137.4116051140571
 20
-44.08998487079419
 30
0.0
 40
0.131782
100
AcDbArc
 50
94.87101309999872
 51
113.2098850999998
  0
LINE
  5
304
330
2
100
AcDbEntity
  8
0
  6
Continuous
 62
     0
100
AcDbLine
 10
137.3596692570555
 20
-43.96886915833441
 30
0.0
 11
137.3770611769256
 21
-44.03841362006611
 31
0.0
  0
LINE
  5
305
330
2
100
AcDbEntity
  8
0
  6
Continuous
 62
     0
100
AcDbLine
 10
137.4004144982762
 20
-43.9586796781158
 30
0.0
 11
137.4178064189138
 21
-44.02822412987691
 31
0.0
  0
ARC
  5
306
330
2
100
AcDbEntity
  8
0
  6
Continuous
 62
     0
100
AcDbCircle
 10
137.3566885563153
 20
-44.04350836017541
 30
0.0
 40
0.021
100
AcDbArc
 50
284.0404490700002
 51
14.04044910000022
  0
ARC
  5
307
330
2
100
AcDbEntity
  8
0
  6
Continuous
 62
     0
100
AcDbCircle
 10
137.4585580150707
 20
-44.10461987136599
 30
0.0
 40
0.021
100
AcDbArc
 50
104.040449099999
 51
194.040449100001
  0
LINE
  5
308
330
2
100
AcDbEntity
  8
0
  6
Continuous
 62
     0
100
AcDbLine
 10
137.4381853944603
 20
-44.10971461147532
 30
0.0
 11
137.4556614465373
 21
-44.17959847998257
 31
0.0
  0
ARC
  5
309
330
2
100
AcDbEntity
  8
0
  6
Continuous
 62
     0
100
AcDbCircle
 10
137.4037265861329
 20
-44.05848269378068
 30
0.0
 40
0.131782
100
AcDbArc
 50
274.8710130709985
 51
293.2098850699999
  0
LINE
  5
30A
330
2
100
AcDbEntity
  8
0
  6
Continuous
 62
     0
100
AcDbLine
 10
137.4976859787932
 20
-43.98639737229906
 30
0.0
 11
137.4796703371376
 21
-44.05436985906049
 31
0.0
  0
LINE
  5
30B
330
2
100
AcDbEntity
  8
0
  6
Continuous
 62
     0
100
AcDbLine
 10
137.4432737834681
 20
-44.04350201267904
 30
0.0
 11
137.4853390811179
 21
-44.03298298718519
 31
0.0
  0
LINE
  5
30C
330
2
100
AcDbEntity
  8
0
  6
Continuous
 62
     0
100
AcDbLine
 10
137.4534632721236
 20
-44.08424724853129
 30
0.0
 11
137.497815477877
 21
-44.07315639611964
 31
0.0
  0
LINE
  5
30D
330
2
100
AcDbEntity
  8
0
  6
Continuous
 62
     0
100
AcDbLine
 10
137.5374727108958
 20
-43.97622682533892
 30
0.0
 11
137.4976859787932
 21
-43.98639737229906
 31
0.0
  0
LINE
  5
30E
330
2
100
AcDbEntity
  8
0
  6
Continuous
 62
     0
100
AcDbLine
 10
137.4796703371376
 20
-44.05436985906049
 30
0.0
 11
137.5275379677169
 21
-44.10393105563843
 31
0.0
  0
LINE
  5
30F
330
2
100
AcDbEntity
  8
0
  6
Continuous
 62
     0
100
AcDbLine
 10
137.958960244803
 20
-44.4373957213781
 30
0.0
 11
137.8634385385085
 21
-44.05541520753837
 31
0.0
  0
LINE
  5
310
330
2
100
AcDbEntity
  8
0
  6
Continuous
 62
     0
100
AcDbLine
 10
137.7336947072744
 20
-44.05183820900832
 30
0.0
 11
137.8376941404428
 21
-44.4677206951888
 31
0.0
  0
LINE
  5
311
330
2
100
AcDbEntity
  8
0
  6
Continuous
 62
     0
100
AcDbLine
 10
137.6163838772289
 20
-43.92164971116274
 30
0.0
 11
137.6449877029946
 21
-43.95091920026833
 31
0.0
  0
LINE
  5
312
330
2
100
AcDbEntity
  8
0
  6
Continuous
 62
     0
100
AcDbLine
 10
137.6053377125213
 20
-43.96105582025625
 30
0.0
 11
137.6163838772289
 21
-43.92164971116274
 31
0.0
  0
LINE
  5
313
330
2
100
AcDbEntity
  8
0
  6
Continuous
 62
     0
100
AcDbLine
 10
137.696575787378
 20
-44.09790963978081
 30
0.0
 11
137.6163838772289
 21
-43.92164971116274
 31
0.0
  0
LINE
  5
314
330
2
100
AcDbEntity
  8
0
  6
Continuous
 62
     0
100
AcDbLine
 10
137.6679729589769
 20
-44.06864006696257
 30
0.0
 11
137.6053377125213
 21
-43.96105582025625
 31
0.0
  0
LINE
  5
315
330
2
100
AcDbEntity
  8
0
  6
Continuous
 62
     0
100
AcDbLine
 10
137.5493609555113
 20
-43.93878420396548
 30
0.0
 11
137.5779637831449
 21
-43.96805378675421
 31
0.0
  0
LINE
  5
316
330
2
100
AcDbEntity
  8
0
  6
Continuous
 62
     0
100
AcDbLine
 10
137.640599030368
 20
-44.07563802349007
 30
0.0
 11
137.5779637831449
 21
-43.96805378675421
 31
0.0
  0
LINE
  5
317
330
2
100
AcDbEntity
  8
0
  6
Continuous
 62
     0
100
AcDbLine
 10
137.5774289325617
 20
-43.96819054748077
 30
0.0
 11
137.604801863806
 21
-43.96119267466597
 31
0.0
  0
LINE
  5
318
330
2
100
AcDbEntity
  8
0
  6
Continuous
 62
     0
100
AcDbLine
 10
137.629552864893
 20
-44.11504414255408
 30
0.0
 11
137.5493609555113
 21
-43.93878420396548
 31
0.0
  0
LINE
  5
319
330
2
100
AcDbEntity
  8
0
  6
Continuous
 62
     0
100
AcDbLine
 10
137.8158481692057
 20
-43.87065751390913
 30
0.0
 11
137.8414399532442
 21
-43.97299676222222
 31
0.0
  0
LINE
  5
31A
330
2
100
AcDbEntity
  8
0
  6
Continuous
 62
     0
100
AcDbLine
 10
137.8048010071334
 20
-43.91006370671528
 30
0.0
 11
137.8158481692057
 21
-43.87065751390913
 31
0.0
  0
LINE
  5
31B
330
2
100
AcDbEntity
  8
0
  6
Continuous
 62
     0
100
AcDbLine
 10
137.7741101017938
 20
-44.0415067975861
 30
0.0
 11
137.7114747767643
 21
-43.93392155190473
 31
0.0
  0
LINE
  5
31C
330
2
100
AcDbEntity
  8
0
  6
Continuous
 62
     0
100
AcDbLine
 10
137.7493600194975
 20
-43.8876542470103
 30
0.0
 11
137.7779629264724
 21
-43.9169248188035
 31
0.0
  0
LINE
  5
31D
330
2
100
AcDbEntity
  8
0
  6
Continuous
 62
     0
100
AcDbLine
 10
137.8295520072234
 20
-44.0639151745267
 30
0.0
 11
137.7493600194975
 21
-43.8876542470103
 31
0.0
  0
LINE
  5
31E
330
2
100
AcDbEntity
  8
0
  6
Continuous
 62
     0
100
AcDbLine
 10
137.8009481824548
 20
-44.03464568549786
 30
0.0
 11
137.7383129359992
 21
-43.92706143879151
 31
0.0
  0
LINE
  5
31F
330
2
100
AcDbEntity
  8
0
  6
Continuous
 62
     0
100
AcDbLine
 10
137.7383129359992
 20
-43.92706143879151
 30
0.0
 11
137.7493600194975
 21
-43.8876542470103
 31
0.0
  0
LINE
  5
320
330
2
100
AcDbEntity
  8
0
  6
Continuous
 62
     0
100
AcDbLine
 10
137.7109400039874
 20
-43.93405932157685
 30
0.0
 11
137.7383129359992
 21
-43.92706143879151
 31
0.0
  0
LINE
  5
321
330
2
100
AcDbEntity
  8
0
  6
Continuous
 62
     0
100
AcDbLine
 10
137.6828719483632
 20
-43.90465197908651
 30
0.0
 11
137.7114747767643
 21
-43.93392155190473
 31
0.0
  0
LINE
  5
322
330
2
100
AcDbEntity
  8
0
  6
Continuous
 62
     0
100
AcDbLine
 10
137.8014839515991
 20
-44.03450783203637
 30
0.0
 11
137.7741101017938
 21
-44.0415067975861
 31
0.0
  0
LINE
  5
323
330
2
100
AcDbEntity
  8
0
  6
Continuous
 62
     0
100
AcDbLine
 10
137.859207946042
 20
-44.05647317200767
 30
0.0
 11
137.7779629264724
 21
-43.9169248188035
 31
0.0
  0
LINE
  5
324
330
2
100
AcDbEntity
  8
0
  6
Continuous
 62
     0
100
AcDbLine
 10
137.671824786291
 20
-43.94405817189268
 30
0.0
 11
137.6828719483632
 21
-43.90465197908651
 31
0.0
  0
LINE
  5
325
330
2
100
AcDbEntity
  8
0
  6
Continuous
 62
     0
100
AcDbLine
 10
137.8295520072234
 20
-44.0639151745267
 30
0.0
 11
137.8009481824548
 21
-44.03464568549786
 31
0.0
  0
LINE
  5
326
330
2
100
AcDbEntity
  8
0
  6
Continuous
 62
     0
100
AcDbLine
 10
137.840598171931
 20
-44.02450906543315
 30
0.0
 11
137.8295520072234
 21
-44.0639151745267
 31
0.0
  0
LINE
  5
327
330
2
100
AcDbEntity
  8
0
  6
Continuous
 62
     0
100
AcDbLine
 10
137.6444518542793
 20
-43.95105605467803
 30
0.0
 11
137.671824786291
 21
-43.94405817189268
 31
0.0
  0
LINE
  5
328
330
2
100
AcDbEntity
  8
0
  6
Continuous
 62
     0
100
AcDbLine
 10
137.8048010071334
 20
-43.91006370671528
 30
0.0
 11
137.8414399532442
 21
-43.97299676222222
 31
0.0
  0
LINE
  5
329
330
2
100
AcDbEntity
  8
0
  6
Continuous
 62
     0
100
AcDbLine
 10
137.7774280751217
 20
-43.91706158950064
 30
0.0
 11
137.8048010071334
 21
-43.91006370671528
 31
0.0
  0
LINE
  5
32A
330
2
100
AcDbEntity
  8
0
  6
Continuous
 62
     0
100
AcDbLine
 10
137.7630639370862
 20
-44.08091290667965
 30
0.0
 11
137.7344600327466
 21
-44.051642418599
 31
0.0
  0
LINE
  5
32B
330
2
100
AcDbEntity
  8
0
  6
Continuous
 62
     0
100
AcDbLine
 10
137.7076229484532
 20
-44.0585034468979
 30
0.0
 11
137.696575787378
 21
-44.09790963978081
 31
0.0
  0
LINE
  5
32C
330
2
100
AcDbEntity
  8
0
  6
Continuous
 62
     0
100
AcDbLine
 10
137.7349958814619
 20
-44.05150556418933
 30
0.0
 11
137.7076229484532
 21
-44.0585034468979
 31
0.0
  0
LINE
  5
32D
330
2
100
AcDbEntity
  8
0
  6
Continuous
 62
     0
100
AcDbLine
 10
137.6679729589769
 20
-44.06864006696257
 30
0.0
 11
137.640599030368
 21
-44.07563802349007
 31
0.0
  0
LINE
  5
32E
330
2
100
AcDbEntity
  8
0
  6
Continuous
 62
     0
100
AcDbLine
 10
137.696575787378
 20
-44.09790963978081
 30
0.0
 11
137.6679729589769
 21
-44.06864006696257
 31
0.0
  0
LINE
  5
32F
330
2
100
AcDbEntity
  8
0
  6
Continuous
 62
     0
100
AcDbLine
 10
137.7630639370862
 20
-44.08091290667965
 30
0.0
 11
137.6828719483632
 21
-43.90465197908651
 31
0.0
  0
LINE
  5
330
330
2
100
AcDbEntity
  8
0
  6
Continuous
 62
     0
100
AcDbLine
 10
137.7741101017938
 20
-44.0415067975861
 30
0.0
 11
137.7630639370862
 21
-44.08091290667965
 31
0.0
  0
LINE
  5
331
330
2
100
AcDbEntity
  8
0
  6
Continuous
 62
     0
100
AcDbLine
 10
137.7076229484532
 20
-44.0585034468979
 30
0.0
 11
137.6449877029946
 21
-43.95091920026833
 31
0.0
  0
LINE
  5
332
330
2
100
AcDbEntity
  8
0
  6
Continuous
 62
     0
100
AcDbLine
 10
137.7344600327466
 20
-44.051642418599
 30
0.0
 11
137.671824786291
 21
-43.94405817189268
 31
0.0
  0
LINE
  5
333
330
2
100
AcDbEntity
  8
0
  6
Continuous
 62
     0
100
AcDbLine
 10
137.629552864893
 20
-44.11504414255408
 30
0.0
 11
137.6009490398947
 21
-44.08577464347797
 31
0.0
  0
LINE
  5
334
330
2
100
AcDbEntity
  8
0
  6
Continuous
 62
     0
100
AcDbLine
 10
137.640599030368
 20
-44.07563802349007
 30
0.0
 11
137.629552864893
 21
-44.11504414255408
 31
0.0
  0
LINE
  5
335
330
2
100
AcDbEntity
  8
0
  6
Continuous
 62
     0
100
AcDbLine
 10
137.8171581571933
 20
-43.87034445870956
 30
0.0
 11
137.7377601680025
 21
-43.55284031006291
 31
0.0
  0
LINE
  5
336
330
2
100
AcDbEntity
  8
0
  6
Continuous
 62
     0
100
AcDbLine
 10
137.6164940417311
 20
-43.58316525879693
 30
0.0
 11
137.7017080553808
 21
-43.92392716398197
 31
0.0
  0
LINE
  5
337
330
2
100
AcDbEntity
  8
0
  6
Continuous
 62
     0
100
AcDbLine
 10
137.5754182175184
 20
-44.09169030214847
 30
0.0
 11
137.5727323813754
 21
-44.10127299607744
 31
0.0
  0
LINE
  5
338
330
2
100
AcDbEntity
  8
0
  6
Continuous
 62
     0
100
AcDbLine
 10
137.6009673022405
 20
-44.08515826742686
 30
0.0
 11
137.5754182175184
 21
-44.09169030214847
 31
0.0
  0
LINE
  5
339
330
2
100
AcDbEntity
  8
0
  6
Continuous
 62
     0
100
AcDbLine
 10
138.1096760688622
 20
-43.95588431321627
 30
0.0
 11
138.081879970414
 21
-43.84473089242925
 31
0.0
  0
ARC
  5
33A
330
2
100
AcDbEntity
  8
0
  6
Continuous
 62
     0
100
AcDbCircle
 10
137.9555579439656
 20
-43.87632019897933
 30
0.0
 40
0.1302118990505079
100
AcDbArc
 50
14.03999999999685
 51
104.0399999999969
  0
ARC
  5
33B
330
2
100
AcDbEntity
  8
0
  6
Continuous
 62
     0
100
AcDbCircle
 10
137.9833540424138
 20
-43.98747361976634
 30
0.0
 40
0.1302118990505079
100
AcDbArc
 50
284.04
 51
14.04
  0
LINE
  5
33C
330
2
100
AcDbEntity
  8
0
  6
Continuous
 62
     0
100
AcDbLine
 10
137.8171547352443
 20
-43.87033077469787
 30
0.0
 11
137.8158481692057
 21
-43.87065751390913
 31
0.0
  0
LINE
  5
33D
330
2
100
AcDbEntity
  8
0
  6
Continuous
 62
     0
100
AcDbLine
 10
137.8634385385085
 20
-44.05541520753835
 30
0.0
 11
137.859207946042
 21
-44.05647317200767
 31
0.0
  0
LINE
  5
33E
330
2
100
AcDbEntity
  8
0
  6
Continuous
 62
     0
100
AcDbLine
 10
137.9239686374156
 20
-43.74999817253092
 30
0.0
 11
138.0149433489638
 21
-44.11379564621471
 31
0.0
  0
LINE
  5
33F
330
2
100
AcDbEntity
  8
0
  6
Continuous
 62
     0
100
AcDbLine
 10
137.5705976544558
 20
-44.0929227834268
 30
0.0
 11
137.5275379677169
 21
-44.10393105563843
 31
0.0
  0
LINE
  5
340
330
2
100
AcDbEntity
  8
0
  6
Continuous
 62
     0
100
AcDbLine
 10
137.5727323813754
 20
-44.10127299607744
 30
0.0
 11
137.5636944939119
 21
-44.065921513941
 31
0.0
  0
LINE
  5
341
330
2
100
AcDbEntity
  8
0
  6
Continuous
 62
     0
100
AcDbLine
 10
137.5754182175184
 20
-44.09169030214847
 30
0.0
 11
137.5636944939119
 21
-44.065921513941
 31
0.0
  0
LINE
  5
342
330
2
100
AcDbEntity
  8
0
  6
Continuous
 62
     0
100
AcDbLine
 10
137.5383137944361
 20
-43.97819039684839
 30
0.0
 11
137.5493609555113
 21
-43.93878420396548
 31
0.0
  0
LINE
  5
343
330
2
100
AcDbEntity
  8
0
  6
Continuous
 62
     0
100
AcDbLine
 10
137.6009490398947
 20
-44.08577464347797
 30
0.0
 11
137.5383137944361
 21
-43.97819039684839
 31
0.0
  0
LINE
  5
344
330
2
100
AcDbEntity
  8
2
  6
CENTER
 62
     4
100
AcDbLine
 10
137.392052520292
 20
-44.01180134362614
 30
0.0
 11
137.4231941306649
 21
-44.13632788696711
 31
0.0
  0
LINE
  5
345
330
2
100
AcDbEntity
  8
0
  6
Continuous
 62
     0
100
AcDbLine
 10
137.3974401524722
 20
-44.11990410166447
 30
0.0
 11
137.4149162045492
 21
-44.18978797017176
 31
0.0
  0
ARC
  5
346
330
2
100
AcDbEntity
  8
0
  6
Continuous
 62
     0
100
AcDbCircle
 10
137.4381790395241
 20
-44.02312938976757
 30
0.0
 40
0.021
100
AcDbArc
 50
194.040449100001
 51
284.0404490700002
  0
LINE
  5
347
330
2
100
AcDbEntity
  8
2
  6
CENTER
 62
     4
100
AcDbLine
 10
137.345359516184
 20
-44.08963495836506
 30
0.0
 11
137.4698871347729
 21
-44.05849427222809
 31
0.0
  0
ARC
  5
348
330
2
100
AcDbEntity
  8
0
  6
Continuous
 62
     0
100
AcDbCircle
 10
137.3770675310944
 20
-44.12499885174433
 30
0.0
 40
0.021
100
AcDbArc
 50
14.04044910000022
 51
104.040449099999
  0
ARC
  5
349
330
2
100
AcDbEntity
  8
0
  6
Continuous
 62
     0
100
AcDbCircle
 10
137.4116051140571
 20
-44.08998487079419
 30
0.0
 40
0.131782
100
AcDbArc
 50
94.87101309999872
 51
113.2098850999998
  0
LINE
  5
34A
330
2
100
AcDbEntity
  8
0
  6
Continuous
 62
     0
100
AcDbLine
 10
137.3596692570555
 20
-43.96886915833441
 30
0.0
 11
137.3770611769256
 21
-44.03841362006611
 31
0.0
  0
LINE
  5
34B
330
2
100
AcDbEntity
  8
0
  6
Continuous
 62
     0
100
AcDbLine
 10
137.4004144982762
 20
-43.9586796781158
 30
0.0
 11
137.4178064189138
 21
-44.02822412987691
 31
0.0
  0
ARC
  5
34C
330
2
100
AcDbEntity
  8
0
  6
Continuous
 62
     0
100
AcDbCircle
 10
137.3566885563153
 20
-44.04350836017541
 30
0.0
 40
0.021
100
AcDbArc
 50
284.0404490700002
 51
14.04044910000022
  0
ARC
  5
34D
330
2
100
AcDbEntity
  8
0
  6
Continuous
 62
     0
100
AcDbCircle
 10
137.4585580150707
 20
-44.10461987136599
 30
0.0
 40
0.021
100
AcDbArc
 50
104.040449099999
 51
194.040449100001
  0
LINE
  5
34E
330
2
100
AcDbEntity
  8
0
  6
Continuous
 62
     0
100
AcDbLine
 10
137.4381853944603
 20
-44.10971461147532
 30
0.0
 11
137.4556614465373
 21
-44.17959847998257
 31
0.0
  0
ARC
  5
34F
330
2
100
AcDbEntity
  8
0
  6
Continuous
 62
     0
100
AcDbCircle
 10
137.4037265861329
 20
-44.05848269378068
 30
0.0
 40
0.131782
100
AcDbArc
 50
274.8710130709985
 51
293.2098850699999
  0
LINE
  5
350
330
2
100
AcDbEntity
  8
0
  6
Continuous
 62
     0
100
AcDbLine
 10
137.4976859787932
 20
-43.98639737229906
 30
0.0
 11
137.4796703371376
 21
-44.05436985906049
 31
0.0
  0
LINE
  5
351
330
2
100
AcDbEntity
  8
0
  6
Continuous
 62
     0
100
AcDbLine
 10
137.4432737834681
 20
-44.04350201267904
 30
0.0
 11
137.4853390811179
 21
-44.03298298718519
 31
0.0
  0
LINE
  5
352
330
2
100
AcDbEntity
  8
0
  6
Continuous
 62
     0
100
AcDbLine
 10
137.4534632721236
 20
-44.08424724853129
 30
0.0
 11
137.497815477877
 21
-44.07315639611964
 31
0.0
  0
LINE
  5
353
330
2
100
AcDbEntity
  8
0
  6
Continuous
 62
     0
100
AcDbLine
 10
137.5374727108958
 20
-43.97622682533892
 30
0.0
 11
137.4976859787932
 21
-43.98639737229906
 31
0.0
  0
LINE
  5
354
330
2
100
AcDbEntity
  8
0
  6
Continuous
 62
     0
100
AcDbLine
 10
137.4796703371376
 20
-44.05436985906049
 30
0.0
 11
137.5275379677169
 21
-44.10393105563843
 31
0.0
  0
LINE
  5
355
330
2
100
AcDbEntity
  8
0
  6
Continuous
 62
     0
100
AcDbLine
 10
137.958960244803
 20
-44.4373957213781
 30
0.0
 11
137.8634385385085
 21
-44.05541520753837
 31
0.0
  0
LINE
  5
356
330
2
100
AcDbEntity
  8
0
  6
Continuous
 62
     0
100
AcDbLine
 10
137.7336947072744
 20
-44.05183820900832
 30
0.0
 11
137.8376941404428
 21
-44.4677206951888
 31
0.0
  0
LINE
  5
357
330
2
100
AcDbEntity
  8
0
  6
Continuous
 62
     0
100
AcDbLine
 10
137.6163838772289
 20
-43.92164971116274
 30
0.0
 11
137.6449877029946
 21
-43.95091920026833
 31
0.0
  0
LINE
  5
358
330
2
100
AcDbEntity
  8
0
  6
Continuous
 62
     0
100
AcDbLine
 10
137.6053377125213
 20
-43.96105582025625
 30
0.0
 11
137.6163838772289
 21
-43.92164971116274
 31
0.0
  0
LINE
  5
359
330
2
100
AcDbEntity
  8
0
  6
Continuous
 62
     0
100
AcDbLine
 10
137.696575787378
 20
-44.09790963978081
 30
0.0
 11
137.6163838772289
 21
-43.92164971116274
 31
0.0
  0
LINE
  5
35A
330
2
100
AcDbEntity
  8
0
  6
Continuous
 62
     0
100
AcDbLine
 10
137.6679729589769
 20
-44.06864006696257
 30
0.0
 11
137.6053377125213
 21
-43.96105582025625
 31
0.0
  0
LINE
  5
35B
330
2
100
AcDbEntity
  8
0
  6
Continuous
 62
     0
100
AcDbLine
 10
137.5493609555113
 20
-43.93878420396548
 30
0.0
 11
137.5779637831449
 21
-43.96805378675421
 31
0.0
  0
LINE
  5
35C
330
2
100
AcDbEntity
  8
0
  6
Continuous
 62
     0
100
AcDbLine
 10
137.640599030368
 20
-44.07563802349007
 30
0.0
 11
137.5779637831449
 21
-43.96805378675421
 31
0.0
  0
LINE
  5
35D
330
2
100
AcDbEntity
  8
0
  6
Continuous
 62
     0
100
AcDbLine
 10
137.5774289325617
 20
-43.96819054748077
 30
0.0
 11
137.604801863806
 21
-43.96119267466597
 31
0.0
  0
LINE
  5
35E
330
2
100
AcDbEntity
  8
0
  6
Continuous
 62
     0
100
AcDbLine
 10
137.629552864893
 20
-44.11504414255408
 30
0.0
 11
137.5493609555113
 21
-43.93878420396548
 31
0.0
  0
LINE
  5
35F
330
2
100
AcDbEntity
  8
0
  6
Continuous
 62
     0
100
AcDbLine
 10
137.8158481692057
 20
-43.87065751390913
 30
0.0
 11
137.8414399532442
 21
-43.97299676222222
 31
0.0
  0
LINE
  5
360
330
2
100
AcDbEntity
  8
0
  6
Continuous
 62
     0
100
AcDbLine
 10
137.8048010071334
 20
-43.91006370671528
 30
0.0
 11
137.8158481692057
 21
-43.87065751390913
 31
0.0
  0
LINE
  5
361
330
2
100
AcDbEntity
  8
0
  6
Continuous
 62
     0
100
AcDbLine
 10
137.7741101017938
 20
-44.0415067975861
 30
0.0
 11
137.7114747767643
 21
-43.93392155190473
 31
0.0
  0
LINE
  5
362
330
2
100
AcDbEntity
  8
0
  6
Continuous
 62
     0
100
AcDbLine
 10
137.7493600194975
 20
-43.8876542470103
 30
0.0
 11
137.7779629264724
 21
-43.9169248188035
 31
0.0
  0
LINE
  5
363
330
2
100
AcDbEntity
  8
0
  6
Continuous
 62
     0
100
AcDbLine
 10
137.8295520072234
 20
-44.0639151745267
 30
0.0
 11
137.7493600194975
 21
-43.8876542470103
 31
0.0
  0
LINE
  5
364
330
2
100
AcDbEntity
  8
0
  6
Continuous
 62
     0
100
AcDbLine
 10
137.8009481824548
 20
-44.03464568549786
 30
0.0
 11
137.7383129359992
 21
-43.92706143879151
 31
0.0
  0
LINE
  5
365
330
2
100
AcDbEntity
  8
0
  6
Continuous
 62
     0
100
AcDbLine
 10
137.7383129359992
 20
-43.92706143879151
 30
0.0
 11
137.7493600194975
 21
-43.8876542470103
 31
0.0
  0
LINE
  5
366
330
2
100
AcDbEntity
  8
0
  6
Continuous
 62
     0
100
AcDbLine
 10
137.7109400039874
 20
-43.93405932157685
 30
0.0
 11
137.7383129359992
 21
-43.92706143879151
 31
0.0
  0
LINE
  5
367
330
2
100
AcDbEntity
  8
0
  6
Continuous
 62
     0
100
AcDbLine
 10
137.6828719483632
 20
-43.90465197908651
 30
0.0
 11
137.7114747767643
 21
-43.93392155190473
 31
0.0
  0
LINE
  5
368
330
2
100
AcDbEntity
  8
0
  6
Continuous
 62
     0
100
AcDbLine
 10
137.8014839515991
 20
-44.03450783203637
 30
0.0
 11
137.7741101017938
 21
-44.0415067975861
 31
0.0
  0
LINE
  5
369
330
2
100
AcDbEntity
  8
0
  6
Continuous
 62
     0
100
AcDbLine
 10
137.859207946042
 20
-44.05647317200767
 30
0.0
 11
137.7779629264724
 21
-43.9169248188035
 31
0.0
  0
LINE
  5
36A
330
2
100
AcDbEntity
  8
0
  6
Continuous
 62
     0
100
AcDbLine
 10
137.671824786291
 20
-43.94405817189268
 30
0.0
 11
137.6828719483632
 21
-43.90465197908651
 31
0.0
  0
LINE
  5
36B
330
2
100
AcDbEntity
  8
0
  6
Continuous
 62
     0
100
AcDbLine
 10
137.8295520072234
 20
-44.0639151745267
 30
0.0
 11
137.8009481824548
 21
-44.03464568549786
 31
0.0
  0
LINE
  5
36C
330
2
100
AcDbEntity
  8
0
  6
Continuous
 62
     0
100
AcDbLine
 10
137.840598171931
 20
-44.02450906543315
 30
0.0
 11
137.8295520072234
 21
-44.0639151745267
 31
0.0
  0
LINE
  5
36D
330
2
100
AcDbEntity
  8
0
  6
Continuous
 62
     0
100
AcDbLine
 10
137.6444518542793
 20
-43.95105605467803
 30
0.0
 11
137.671824786291
 21
-43.94405817189268
 31
0.0
  0
LINE
  5
36E
330
2
100
AcDbEntity
  8
0
  6
Continuous
 62
     0
100
AcDbLine
 10
137.8048010071334
 20
-43.91006370671528
 30
0.0
 11
137.8414399532442
 21
-43.97299676222222
 31
0.0
  0
LINE
  5
36F
330
2
100
AcDbEntity
  8
0
  6
Continuous
 62
     0
100
AcDbLine
 10
137.7774280751217
 20
-43.91706158950064
 30
0.0
 11
137.8048010071334
 21
-43.91006370671528
 31
0.0
  0
LINE
  5
370
330
2
100
AcDbEntity
  8
0
  6
Continuous
 62
     0
100
AcDbLine
 10
137.7630639370862
 20
-44.08091290667965
 30
0.0
 11
137.7344600327466
 21
-44.051642418599
 31
0.0
  0
LINE
  5
371
330
2
100
AcDbEntity
  8
0
  6
Continuous
 62
     0
100
AcDbLine
 10
137.7076229484532
 20
-44.0585034468979
 30
0.0
 11
137.696575787378
 21
-44.09790963978081
 31
0.0
  0
LINE
  5
372
330
2
100
AcDbEntity
  8
0
  6
Continuous
 62
     0
100
AcDbLine
 10
137.7349958814619
 20
-44.05150556418933
 30
0.0
 11
137.7076229484532
 21
-44.0585034468979
 31
0.0
  0
LINE
  5
373
330
2
100
AcDbEntity
  8
0
  6
Continuous
 62
     0
100
AcDbLine
 10
137.6679729589769
 20
-44.06864006696257
 30
0.0
 11
137.640599030368
 21
-44.07563802349007
 31
0.0
  0
LINE
  5
374
330
2
100
AcDbEntity
  8
0
  6
Continuous
 62
     0
100
AcDbLine
 10
137.696575787378
 20
-44.09790963978081
 30
0.0
 11
137.6679729589769
 21
-44.06864006696257
 31
0.0
  0
LINE
  5
375
330
2
100
AcDbEntity
  8
0
  6
Continuous
 62
     0
100
AcDbLine
 10
137.7630639370862
 20
-44.08091290667965
 30
0.0
 11
137.6828719483632
 21
-43.90465197908651
 31
0.0
  0
LINE
  5
376
330
2
100
AcDbEntity
  8
0
  6
Continuous
 62
     0
100
AcDbLine
 10
137.7741101017938
 20
-44.0415067975861
 30
0.0
 11
137.7630639370862
 21
-44.08091290667965
 31
0.0
  0
LINE
  5
377
330
2
100
AcDbEntity
  8
0
  6
Continuous
 62
     0
100
AcDbLine
 10
137.7076229484532
 20
-44.0585034468979
 30
0.0
 11
137.6449877029946
 21
-43.95091920026833
 31
0.0
  0
LINE
  5
378
330
2
100
AcDbEntity
  8
0
  6
Continuous
 62
     0
100
AcDbLine
 10
137.7344600327466
 20
-44.051642418599
 30
0.0
 11
137.671824786291
 21
-43.94405817189268
 31
0.0
  0
LINE
  5
379
330
2
100
AcDbEntity
  8
0
  6
Continuous
 62
     0
100
AcDbLine
 10
137.629552864893
 20
-44.11504414255408
 30
0.0
 11
137.6009490398947
 21
-44.08577464347797
 31
0.0
  0
LINE
  5
37A
330
2
100
AcDbEntity
  8
0
  6
Continuous
 62
     0
100
AcDbLine
 10
137.640599030368
 20
-44.07563802349007
 30
0.0
 11
137.629552864893
 21
-44.11504414255408
 31
0.0
  0
LINE
  5
37B
330
2
100
AcDbEntity
  8
0
  6
Continuous
 62
     0
100
AcDbLine
 10
137.8171581571933
 20
-43.87034445870956
 30
0.0
 11
137.7377601680025
 21
-43.55284031006291
 31
0.0
  0
LINE
  5
37C
330
2
100
AcDbEntity
  8
0
  6
Continuous
 62
     0
100
AcDbLine
 10
137.6164940417311
 20
-43.58316525879693
 30
0.0
 11
137.7017080553808
 21
-43.92392716398197
 31
0.0
  0
LINE
  5
37D
330
2
100
AcDbEntity
  8
0
  6
Continuous
 62
     0
100
AcDbLine
 10
137.5754182175184
 20
-44.09169030214847
 30
0.0
 11
137.5727323813754
 21
-44.10127299607744
 31
0.0
  0
LINE
  5
37E
330
2
100
AcDbEntity
  8
0
  6
Continuous
 62
     0
100
AcDbLine
 10
137.6009673022405
 20
-44.08515826742686
 30
0.0
 11
137.5754182175184
 21
-44.09169030214847
 31
0.0
  0
LINE
  5
37F
330
2
100
AcDbEntity
  8
0
  6
Continuous
 62
     0
100
AcDbLine
 10
138.1096760688622
 20
-43.95588431321627
 30
0.0
 11
138.081879970414
 21
-43.84473089242925
 31
0.0
  0
ARC
  5
380
330
2
100
AcDbEntity
  8
0
  6
Continuous
 62
     0
100
AcDbCircle
 10
137.9555579439656
 20
-43.87632019897933
 30
0.0
 40
0.1302118990505079
100
AcDbArc
 50
14.03999999999685
 51
104.0399999999969
  0
ARC
  5
381
330
2
100
AcDbEntity
  8
0
  6
Continuous
 62
     0
100
AcDbCircle
 10
137.9833540424138
 20
-43.98747361976634
 30
0.0
 40
0.1302118990505079
100
AcDbArc
 50
284.04
 51
14.04
  0
ARC
  5
382
330
2
100
AcDbEntity
  8
0
  6
Continuous
 62
     0
100
AcDbCircle
 10
137.4235254125274
 20
-44.07008778365202
 30
0.0
 40
0.131782
100
AcDbArc
 50
184.8710130999991
 51
203.2098850999989
  0
ARC
  5
383
330
2
100
AcDbEntity
  8
0
  6
Continuous
 62
     0
100
AcDbCircle
 10
137.4235254125274
 20
-44.07008778365202
 30
0.0
 40
0.131782
100
AcDbArc
 50
184.8710130999991
 51
203.2098850999989
  0
LINE
  5
384
330
2
100
AcDbEntity
  8
0
  6
Continuous
 62
     0
100
AcDbLine
 10
137.3024086306485
 20
-44.12202271887228
 30
0.0
 11
137.3719727871504
 21
-44.10462622883296
 31
0.0
  0
LINE
  5
385
330
2
100
AcDbEntity
  8
0
  6
Continuous
 62
     0
100
AcDbLine
 10
137.2922191427604
 20
-44.08127747304942
 30
0.0
 11
137.3617833002594
 21
-44.06388098308686
 31
0.0
  0
ARC
  5
386
330
2
100
AcDbEntity
  8
Glazing
  6
Continuous
 62
     5
100
AcDbCircle
 10
137.4076232861915
 20
-44.07406411580907
 30
0.0
 40
0.156336
100
AcDbArc
 50
37.95620309999928
 51
352.3119830700003
  0
LINE
  5
387
330
2
100
AcDbEntity
  8
0
  6
Continuous
 62
     0
100
AcDbLine
 10
137.3024086306485
 20
-44.12202271887228
 30
0.0
 11
137.3719727871504
 21
-44.10462622883296
 31
0.0
  0
LINE
  5
388
330
2
100
AcDbEntity
  8
0
  6
Continuous
 62
     0
100
AcDbLine
 10
137.2922191427604
 20
-44.08127747304942
 30
0.0
 11
137.3617833002594
 21
-44.06388098308686
 31
0.0
  0
LINE
  5
389
330
2
100
AcDbEntity
  8
5
  6
Continuous
100
AcDbLine
 10
136.6539806050777
 20
-42.28393704068053
 30
0.0
 11
136.9836537708208
 21
-43.60226235106151
 31
0.0
  0
ARC
  5
38A
330
2
100
AcDbEntity
  8
Glazing
  6
Continuous
 62
     5
100
AcDbCircle
 10
136.5918211488492
 20
-44.27807148115348
 30
0.0
 40
0.156336
100
AcDbArc
 50
215.7680169299997
 51
170.1237969000007
  0
LINE
  5
38B
330
2
100
AcDbEntity
  8
0
  6
Continuous
 62
     0
100
AcDbLine
 10
136.6970365677098
 20
-44.23011457885862
 30
0.0
 11
136.6274721256429
 21
-44.24750993086639
 31
0.0
  0
LINE
  5
38C
330
2
100
AcDbEntity
  8
0
  6
Continuous
 62
     0
100
AcDbLine
 10
136.7072254193701
 20
-44.27085998378273
 30
0.0
 11
136.6376609781468
 21
-44.28825533525348
 31
0.0
  0
LINE
  5
38D
330
2
100
AcDbEntity
  8
0
  6
Continuous
 62
     0
100
AcDbLine
 10
136.6970365677098
 20
-44.23011457885862
 30
0.0
 11
136.6274721256429
 21
-44.24750993086639
 31
0.0
  0
LINE
  5
38E
330
2
100
AcDbEntity
  8
0
  6
Continuous
 62
     0
100
AcDbLine
 10
136.7072254193701
 20
-44.27085998378273
 30
0.0
 11
136.6376609781468
 21
-44.28825533525348
 31
0.0
  0
ARC
  5
38F
330
2
100
AcDbEntity
  8
Glazing
  6
Continuous
 62
     5
100
AcDbCircle
 10
136.5918211488492
 20
-44.27807148115348
 30
0.0
 40
0.156336
100
AcDbArc
 50
215.7680169299997
 51
170.1237969000007
  0
ARC
  5
390
330
2
100
AcDbEntity
  8
0
  6
Continuous
 62
     0
100
AcDbCircle
 10
136.5759191671195
 20
-44.28204839157404
 30
0.0
 40
0.131782
100
AcDbArc
 50
4.870114900001043
 51
23.20898690000088
  0
ARC
  5
391
330
2
100
AcDbEntity
  8
0
  6
Continuous
 62
     0
100
AcDbCircle
 10
136.5759191671195
 20
-44.28204839157404
 30
0.0
 40
0.131782
100
AcDbArc
 50
4.870114900001043
 51
23.20898690000088
  0
LINE
  5
392
330
2
100
AcDbEntity
  8
0
  6
Continuous
 62
     0
100
AcDbLine
 10
136.426457480596
 20
-44.3788675424055
 30
0.0
 11
136.4520738683183
 21
-44.37260464468924
 31
0.0
  0
LINE
  5
393
330
2
100
AcDbEntity
  8
0
  6
Continuous
 62
     0
100
AcDbLine
 10
136.4520738683183
 20
-44.37260464468924
 30
0.0
 11
136.458954169696
 21
-44.37979513783473
 31
0.0
  0
LINE
  5
394
330
2
100
AcDbEntity
  8
0
  6
Continuous
 62
     0
100
AcDbLine
 10
136.3870095383245
 20
-44.38912272497465
 30
0.0
 11
136.4153040884036
 21
-44.41869092456826
 31
0.0
  0
LINE
  5
395
330
2
100
AcDbEntity
  8
0
  6
Continuous
 62
     0
100
AcDbLine
 10
136.4153040884036
 20
-44.41869092456826
 30
0.0
 11
136.4267637239345
 21
-44.3794027694296
 31
0.0
  0
LINE
  5
396
330
2
100
AcDbEntity
  8
0
  6
Continuous
 62
     0
100
AcDbLine
 10
136.2929019738445
 20
-44.41213235620286
 30
0.0
 11
136.2975241742942
 21
-44.28772906243245
 31
0.0
  0
LINE
  5
397
330
2
100
AcDbEntity
  8
0
  6
Continuous
 62
     0
100
AcDbLine
 10
136.3198096108586
 20
-44.40555346017056
 30
0.0
 11
136.3244318104648
 21
-44.28115016693716
 31
0.0
  0
LINE
  5
398
330
2
100
AcDbEntity
  8
0
  6
Continuous
 62
     0
100
AcDbLine
 10
136.2814427338398
 20
-44.45142142127783
 30
0.0
 11
136.2692287102154
 21
-44.25816126687904
 31
0.0
  0
LINE
  5
399
330
2
100
AcDbEntity
  8
0
  6
Continuous
 62
     0
100
AcDbLine
 10
136.348105074094
 20
-44.43512125626097
 30
0.0
 11
136.3595637956251
 21
-44.39583350516253
 31
0.0
  0
LINE
  5
39A
330
2
100
AcDbEntity
  8
0
  6
Continuous
 62
     0
100
AcDbLine
 10
136.3595637956251
 20
-44.39583350516253
 30
0.0
 11
136.3870095383245
 21
-44.38912272497465
 31
0.0
  0
LINE
  5
39B
330
2
100
AcDbEntity
  8
0
  6
Continuous
 62
     0
100
AcDbLine
 10
136.2923647813155
 20
-44.41226383685526
 30
0.0
 11
136.3198096108586
 21
-44.40555346017056
 31
0.0
  0
LINE
  5
39C
330
2
100
AcDbEntity
  8
0
  6
Continuous
 62
     0
100
AcDbLine
 10
136.3198096108586
 20
-44.40555346017056
 30
0.0
 11
136.348105074094
 21
-44.43512125626097
 31
0.0
  0
LINE
  5
39D
330
2
100
AcDbEntity
  8
0
  6
Continuous
 62
     0
100
AcDbLine
 10
136.2814427338398
 20
-44.45142142127783
 30
0.0
 11
136.2929019738445
 21
-44.41213235620286
 31
0.0
  0
LINE
  5
39E
330
2
100
AcDbEntity
  8
0
  6
Continuous
 62
     0
100
AcDbLine
 10
136.3249690029938
 20
-44.2810186862848
 30
0.0
 11
136.2975241742942
 21
-44.28772906243245
 31
0.0
  0
LINE
  5
39F
330
2
100
AcDbEntity
  8
0
  6
Continuous
 62
     0
100
AcDbLine
 10
136.2975241742942
 20
-44.28772906243245
 30
0.0
 11
136.2692287102154
 21
-44.25816126687904
 31
0.0
  0
LINE
  5
3A0
330
2
100
AcDbEntity
  8
0
  6
Continuous
 62
     0
100
AcDbLine
 10
136.4153040884036
 20
-44.41869092456826
 30
0.0
 11
136.4030904603053
 21
-44.22543168010576
 31
0.0
  0
LINE
  5
3A1
330
2
100
AcDbEntity
  8
0
  6
Continuous
 62
     0
100
AcDbLine
 10
136.3921680119332
 20
-44.26458834615637
 30
0.0
 11
136.3647231886038
 21
-44.27129873073977
 31
0.0
  0
LINE
  5
3A2
330
2
100
AcDbEntity
  8
0
  6
Continuous
 62
     0
100
AcDbLine
 10
136.3870095383245
 20
-44.38912272497465
 30
0.0
 11
136.3916317441443
 21
-44.2647194396399
 31
0.0
  0
LINE
  5
3A3
330
2
100
AcDbEntity
  8
0
  6
Continuous
 62
     0
100
AcDbLine
 10
136.4030904603053
 20
-44.22543168010576
 30
0.0
 11
136.3916317441443
 21
-44.2647194396399
 31
0.0
  0
LINE
  5
3A4
330
2
100
AcDbEntity
  8
0
  6
Continuous
 62
     0
100
AcDbLine
 10
136.3595637956251
 20
-44.39583350516253
 30
0.0
 11
136.3641859960748
 21
-44.27143021139211
 31
0.0
  0
LINE
  5
3A5
330
2
100
AcDbEntity
  8
0
  6
Continuous
 62
     0
100
AcDbLine
 10
136.348105074094
 20
-44.43512125626097
 30
0.0
 11
136.3358914513659
 21
-44.24186202023419
 31
0.0
  0
LINE
  5
3A6
330
2
100
AcDbEntity
  8
0
  6
Continuous
 62
     0
100
AcDbLine
 10
136.3641859960748
 20
-44.27143021139211
 30
0.0
 11
136.3358914513659
 21
-44.24186202023419
 31
0.0
  0
LINE
  5
3A7
330
2
100
AcDbEntity
  8
0
  6
Continuous
 62
     0
100
AcDbLine
 10
136.3358914513659
 20
-44.24186202023419
 30
0.0
 11
136.3244318104648
 21
-44.28115016693716
 31
0.0
  0
LINE
  5
3A8
330
2
100
AcDbEntity
  8
0
  6
Continuous
 62
     0
100
AcDbLine
 10
136.2936693731096
 20
-44.41194485865405
 30
0.0
 11
136.3976691072347
 21
-44.82782726957442
 31
0.0
  0
LINE
  5
3A9
330
2
100
AcDbEntity
  8
0
  6
Continuous
 62
     0
100
AcDbLine
 10
136.5189845038163
 20
-44.2946082413943
 30
0.0
 11
136.500079963438
 21
-44.36086713224374
 31
0.0
  0
LINE
  5
3AA
330
2
100
AcDbEntity
  8
0
  6
Continuous
 62
     0
100
AcDbLine
 10
136.4312037433383
 20
-44.25287113295122
 30
0.0
 11
136.4710945444473
 21
-44.2431167460535
 31
0.0
  0
LINE
  5
3AB
330
2
100
AcDbEntity
  8
0
  6
Continuous
 62
     0
100
AcDbLine
 10
136.5561701720555
 20
-44.30863303144057
 30
0.0
 11
136.511818102205
 21
-44.31972442731241
 31
0.0
  0
LINE
  5
3AC
330
2
100
AcDbEntity
  8
0
  6
Continuous
 62
     0
100
AcDbLine
 10
136.5459813257654
 20
-44.26788763495221
 30
0.0
 11
136.5039161360492
 21
-44.27840709205979
 31
0.0
  0
LINE
  5
3AD
330
2
100
AcDbEntity
  8
0
  6
Continuous
 62
     0
100
AcDbLine
 10
136.4710945444473
 20
-44.2431167460535
 30
0.0
 11
136.5189845038163
 21
-44.2946082413943
 31
0.0
  0
ARC
  5
3AE
330
2
100
AcDbEntity
  8
0
  6
Continuous
 62
     0
100
AcDbCircle
 10
136.5879249365054
 20
-44.26248993716242
 30
0.0
 40
0.131782
100
AcDbArc
 50
274.8701149300001
 51
293.2089869290015
  0
LINE
  5
3AF
330
2
100
AcDbEntity
  8
0
  6
Continuous
 62
     0
100
AcDbLine
 10
136.5816372973561
 20
-44.32391130523526
 30
0.0
 11
136.5991129416371
 21
-44.39379527571989
 31
0.0
  0
ARC
  5
3B0
330
2
100
AcDbEntity
  8
0
  6
Continuous
 62
     0
100
AcDbCircle
 10
136.5612645987292
 20
-44.32900573336564
 30
0.0
 40
0.021
100
AcDbArc
 50
14.03955089999894
 51
104.039550900001
  0
ARC
  5
3B1
330
2
100
AcDbEntity
  8
0
  6
Continuous
 62
     0
100
AcDbCircle
 10
136.6223776998128
 20
-44.2271372284043
 30
0.0
 40
0.021
100
AcDbArc
 50
194.0395508999998
 51
284.0395509299998
  0
LINE
  5
3B2
330
2
100
AcDbEntity
  8
0
  6
Continuous
 62
     0
100
AcDbLine
 10
136.5438694906472
 20
-44.17287559929171
 30
0.0
 11
136.5612595985621
 21
-44.24242050435977
 31
0.0
  0
LINE
  5
3B3
330
2
100
AcDbEntity
  8
0
  6
Continuous
 62
     0
100
AcDbLine
 10
136.5846148879009
 20
-44.1626867430309
 30
0.0
 11
136.6020050011859
 21
-44.23223165653472
 31
0.0
  0
ARC
  5
3B4
330
2
100
AcDbEntity
  8
0
  6
Continuous
 62
     0
100
AcDbCircle
 10
136.5958019790327
 20
-44.29399248562865
 30
0.0
 40
0.131782
100
AcDbArc
 50
94.87011490000025
 51
113.2089869000013
  0
ARC
  5
3B5
330
2
100
AcDbEntity
  8
0
  6
Continuous
 62
     0
100
AcDbCircle
 10
136.6427554039769
 20
-44.30862803771549
 30
0.0
 40
0.021
100
AcDbArc
 50
104.039550900001
 51
194.0395508999998
  0
LINE
  5
3B6
330
2
100
AcDbEntity
  8
2
  6
CENTER
 62
     4
100
AcDbLine
 10
136.6540851836698
 20
-44.26250169755486
 30
0.0
 11
136.529557514925
 21
-44.29364218312402
 31
0.0
  0
ARC
  5
3B7
330
2
100
AcDbEntity
  8
0
  6
Continuous
 62
     0
100
AcDbCircle
 10
136.5408868999353
 20
-44.24751493249013
 30
0.0
 40
0.021
100
AcDbArc
 50
284.0395509299998
 51
14.03955089999894
  0
LINE
  5
3B8
330
2
100
AcDbEntity
  8
0
  6
Continuous
 62
     0
100
AcDbLine
 10
136.6223826999799
 20
-44.31372245741018
 30
0.0
 11
136.639858344261
 21
-44.38360642789485
 31
0.0
  0
LINE
  5
3B9
330
2
100
AcDbEntity
  8
2
  6
CENTER
 62
     4
100
AcDbLine
 10
136.5762517672971
 20
-44.21580836278725
 30
0.0
 11
136.6073909312977
 21
-44.34033551789172
 31
0.0
  0
LINE
  5
3BA
330
2
100
AcDbEntity
  8
0
  6
Continuous
 62
     0
100
AcDbLine
 10
136.4267637239345
 20
-44.3794027694296
 30
0.0
 11
136.4313859235406
 21
-44.2549994761962
 31
0.0
  0
LINE
  5
3BB
330
2
100
AcDbEntity
  8
0
  6
Continuous
 62
     0
100
AcDbLine
 10
136.4313859235406
 20
-44.2549994761962
 30
0.0
 11
136.4030904603053
 21
-44.22543168010576
 31
0.0
  0
LINE
  5
3BC
330
2
100
AcDbEntity
  8
0
  6
Continuous
 62
     0
100
AcDbLine
 10
136.4520738683183
 20
-44.37260464468924
 30
0.0
 11
136.4502881368611
 21
-44.34435066613672
 31
0.0
  0
LINE
  5
3BD
330
2
100
AcDbEntity
  8
0
  6
Continuous
 62
     0
100
AcDbLine
 10
136.458954169696
 20
-44.37979513783473
 30
0.0
 11
136.4502881368611
 21
-44.34435066613672
 31
0.0
  0
LINE
  5
3BE
330
2
100
AcDbEntity
  8
0
  6
Continuous
 62
     0
100
AcDbLine
 10
136.4569071425989
 20
-44.37142299411904
 30
0.0
 11
136.500079963438
 21
-44.36086713224374
 31
0.0
  0
LINE
  5
3BF
330
2
100
AcDbEntity
  8
0
  6
Continuous
 62
     0
100
AcDbLine
 10
136.426457480596
 20
-44.3788675424055
 30
0.0
 11
136.4520738683183
 21
-44.37260464468924
 31
0.0
  0
LINE
  5
3C0
330
2
100
AcDbEntity
  8
0
  6
Continuous
 62
     0
100
AcDbLine
 10
136.4520738683183
 20
-44.37260464468924
 30
0.0
 11
136.458954169696
 21
-44.37979513783473
 31
0.0
  0
LINE
  5
3C1
330
2
100
AcDbEntity
  8
0
  6
Continuous
 62
     0
100
AcDbLine
 10
136.3870095383245
 20
-44.38912272497465
 30
0.0
 11
136.4153040884036
 21
-44.41869092456826
 31
0.0
  0
LINE
  5
3C2
330
2
100
AcDbEntity
  8
0
  6
Continuous
 62
     0
100
AcDbLine
 10
136.4153040884036
 20
-44.41869092456826
 30
0.0
 11
136.4267637239345
 21
-44.3794027694296
 31
0.0
  0
LINE
  5
3C3
330
2
100
AcDbEntity
  8
0
  6
Continuous
 62
     0
100
AcDbLine
 10
136.2929019738445
 20
-44.41213235620286
 30
0.0
 11
136.2975241742942
 21
-44.28772906243245
 31
0.0
  0
LINE
  5
3C4
330
2
100
AcDbEntity
  8
0
  6
Continuous
 62
     0
100
AcDbLine
 10
136.3198096108586
 20
-44.40555346017056
 30
0.0
 11
136.3244318104648
 21
-44.28115016693716
 31
0.0
  0
LINE
  5
3C5
330
2
100
AcDbEntity
  8
0
  6
Continuous
 62
     0
100
AcDbLine
 10
136.2814427338398
 20
-44.45142142127783
 30
0.0
 11
136.2692287102154
 21
-44.25816126687904
 31
0.0
  0
LINE
  5
3C6
330
2
100
AcDbEntity
  8
0
  6
Continuous
 62
     0
100
AcDbLine
 10
136.348105074094
 20
-44.43512125626097
 30
0.0
 11
136.3595637956251
 21
-44.39583350516253
 31
0.0
  0
LINE
  5
3C7
330
2
100
AcDbEntity
  8
0
  6
Continuous
 62
     0
100
AcDbLine
 10
136.3595637956251
 20
-44.39583350516253
 30
0.0
 11
136.3870095383245
 21
-44.38912272497465
 31
0.0
  0
LINE
  5
3C8
330
2
100
AcDbEntity
  8
0
  6
Continuous
 62
     0
100
AcDbLine
 10
136.2923647813155
 20
-44.41226383685526
 30
0.0
 11
136.3198096108586
 21
-44.40555346017056
 31
0.0
  0
LINE
  5
3C9
330
2
100
AcDbEntity
  8
0
  6
Continuous
 62
     0
100
AcDbLine
 10
136.3198096108586
 20
-44.40555346017056
 30
0.0
 11
136.348105074094
 21
-44.43512125626097
 31
0.0
  0
LINE
  5
3CA
330
2
100
AcDbEntity
  8
0
  6
Continuous
 62
     0
100
AcDbLine
 10
136.2814427338398
 20
-44.45142142127783
 30
0.0
 11
136.2929019738445
 21
-44.41213235620286
 31
0.0
  0
LINE
  5
3CB
330
2
100
AcDbEntity
  8
0
  6
Continuous
 62
     0
100
AcDbLine
 10
136.3249690029938
 20
-44.2810186862848
 30
0.0
 11
136.2975241742942
 21
-44.28772906243245
 31
0.0
  0
LINE
  5
3CC
330
2
100
AcDbEntity
  8
0
  6
Continuous
 62
     0
100
AcDbLine
 10
136.2975241742942
 20
-44.28772906243245
 30
0.0
 11
136.2692287102154
 21
-44.25816126687904
 31
0.0
  0
LINE
  5
3CD
330
2
100
AcDbEntity
  8
0
  6
Continuous
 62
     0
100
AcDbLine
 10
136.4153040884036
 20
-44.41869092456826
 30
0.0
 11
136.4030904603053
 21
-44.22543168010576
 31
0.0
  0
LINE
  5
3CE
330
2
100
AcDbEntity
  8
0
  6
Continuous
 62
     0
100
AcDbLine
 10
136.3921680119332
 20
-44.26458834615637
 30
0.0
 11
136.3647231886038
 21
-44.27129873073977
 31
0.0
  0
LINE
  5
3CF
330
2
100
AcDbEntity
  8
0
  6
Continuous
 62
     0
100
AcDbLine
 10
136.3870095383245
 20
-44.38912272497465
 30
0.0
 11
136.3916317441443
 21
-44.2647194396399
 31
0.0
  0
LINE
  5
3D0
330
2
100
AcDbEntity
  8
0
  6
Continuous
 62
     0
100
AcDbLine
 10
136.4030904603053
 20
-44.22543168010576
 30
0.0
 11
136.3916317441443
 21
-44.2647194396399
 31
0.0
  0
LINE
  5
3D1
330
2
100
AcDbEntity
  8
0
  6
Continuous
 62
     0
100
AcDbLine
 10
136.3595637956251
 20
-44.39583350516253
 30
0.0
 11
136.3641859960748
 21
-44.27143021139211
 31
0.0
  0
LINE
  5
3D2
330
2
100
AcDbEntity
  8
0
  6
Continuous
 62
     0
100
AcDbLine
 10
136.348105074094
 20
-44.43512125626097
 30
0.0
 11
136.3358914513659
 21
-44.24186202023419
 31
0.0
  0
LINE
  5
3D3
330
2
100
AcDbEntity
  8
0
  6
Continuous
 62
     0
100
AcDbLine
 10
136.3641859960748
 20
-44.27143021139211
 30
0.0
 11
136.3358914513659
 21
-44.24186202023419
 31
0.0
  0
LINE
  5
3D4
330
2
100
AcDbEntity
  8
0
  6
Continuous
 62
     0
100
AcDbLine
 10
136.3358914513659
 20
-44.24186202023419
 30
0.0
 11
136.3244318104648
 21
-44.28115016693716
 31
0.0
  0
LINE
  5
3D5
330
2
100
AcDbEntity
  8
0
  6
Continuous
 62
     0
100
AcDbLine
 10
136.2936693731096
 20
-44.41194485865405
 30
0.0
 11
136.3976691072347
 21
-44.82782726957442
 31
0.0
  0
LINE
  5
3D6
330
2
100
AcDbEntity
  8
0
  6
Continuous
 62
     0
100
AcDbLine
 10
136.5189845038163
 20
-44.2946082413943
 30
0.0
 11
136.500079963438
 21
-44.36086713224374
 31
0.0
  0
LINE
  5
3D7
330
2
100
AcDbEntity
  8
0
  6
Continuous
 62
     0
100
AcDbLine
 10
136.4312037433383
 20
-44.25287113295122
 30
0.0
 11
136.4710945444473
 21
-44.2431167460535
 31
0.0
  0
LINE
  5
3D8
330
2
100
AcDbEntity
  8
0
  6
Continuous
 62
     0
100
AcDbLine
 10
136.5561701720555
 20
-44.30863303144057
 30
0.0
 11
136.511818102205
 21
-44.31972442731241
 31
0.0
  0
LINE
  5
3D9
330
2
100
AcDbEntity
  8
0
  6
Continuous
 62
     0
100
AcDbLine
 10
136.5459813257654
 20
-44.26788763495221
 30
0.0
 11
136.5039161360492
 21
-44.27840709205979
 31
0.0
  0
LINE
  5
3DA
330
2
100
AcDbEntity
  8
0
  6
Continuous
 62
     0
100
AcDbLine
 10
136.4710945444473
 20
-44.2431167460535
 30
0.0
 11
136.5189845038163
 21
-44.2946082413943
 31
0.0
  0
ARC
  5
3DB
330
2
100
AcDbEntity
  8
0
  6
Continuous
 62
     0
100
AcDbCircle
 10
136.5879249365054
 20
-44.26248993716242
 30
0.0
 40
0.131782
100
AcDbArc
 50
274.8701149300001
 51
293.2089869290015
  0
LINE
  5
3DC
330
2
100
AcDbEntity
  8
0
  6
Continuous
 62
     0
100
AcDbLine
 10
136.5816372973561
 20
-44.32391130523526
 30
0.0
 11
136.5991129416371
 21
-44.39379527571989
 31
0.0
  0
ARC
  5
3DD
330
2
100
AcDbEntity
  8
0
  6
Continuous
 62
     0
100
AcDbCircle
 10
136.5612645987292
 20
-44.32900573336564
 30
0.0
 40
0.021
100
AcDbArc
 50
14.03955089999894
 51
104.039550900001
  0
ARC
  5
3DE
330
2
100
AcDbEntity
  8
0
  6
Continuous
 62
     0
100
AcDbCircle
 10
136.6223776998128
 20
-44.2271372284043
 30
0.0
 40
0.021
100
AcDbArc
 50
194.0395508999998
 51
284.0395509299998
  0
LINE
  5
3DF
330
2
100
AcDbEntity
  8
0
  6
Continuous
 62
     0
100
AcDbLine
 10
136.5438694906472
 20
-44.17287559929171
 30
0.0
 11
136.5612595985621
 21
-44.24242050435977
 31
0.0
  0
LINE
  5
3E0
330
2
100
AcDbEntity
  8
0
  6
Continuous
 62
     0
100
AcDbLine
 10
136.5846148879009
 20
-44.1626867430309
 30
0.0
 11
136.6020050011859
 21
-44.23223165653472
 31
0.0
  0
ARC
  5
3E1
330
2
100
AcDbEntity
  8
0
  6
Continuous
 62
     0
100
AcDbCircle
 10
136.5958019790327
 20
-44.29399248562865
 30
0.0
 40
0.131782
100
AcDbArc
 50
94.87011490000025
 51
113.2089869000013
  0
ARC
  5
3E2
330
2
100
AcDbEntity
  8
0
  6
Continuous
 62
     0
100
AcDbCircle
 10
136.6427554039769
 20
-44.30862803771549
 30
0.0
 40
0.021
100
AcDbArc
 50
104.039550900001
 51
194.0395508999998
  0
LINE
  5
3E3
330
2
100
AcDbEntity
  8
2
  6
CENTER
 62
     4
100
AcDbLine
 10
136.6540851836698
 20
-44.26250169755486
 30
0.0
 11
136.529557514925
 21
-44.29364218312402
 31
0.0
  0
ARC
  5
3E4
330
2
100
AcDbEntity
  8
0
  6
Continuous
 62
     0
100
AcDbCircle
 10
136.5408868999353
 20
-44.24751493249013
 30
0.0
 40
0.021
100
AcDbArc
 50
284.0395509299998
 51
14.03955089999894
  0
LINE
  5
3E5
330
2
100
AcDbEntity
  8
0
  6
Continuous
 62
     0
100
AcDbLine
 10
136.6223826999799
 20
-44.31372245741018
 30
0.0
 11
136.639858344261
 21
-44.38360642789485
 31
0.0
  0
LINE
  5
3E6
330
2
100
AcDbEntity
  8
2
  6
CENTER
 62
     4
100
AcDbLine
 10
136.5762517672971
 20
-44.21580836278725
 30
0.0
 11
136.6073909312977
 21
-44.34033551789172
 31
0.0
  0
LINE
  5
3E7
330
2
100
AcDbEntity
  8
0
  6
Continuous
 62
     0
100
AcDbLine
 10
136.4267637239345
 20
-44.3794027694296
 30
0.0
 11
136.4313859235406
 21
-44.2549994761962
 31
0.0
  0
LINE
  5
3E8
330
2
100
AcDbEntity
  8
0
  6
Continuous
 62
     0
100
AcDbLine
 10
136.4313859235406
 20
-44.2549994761962
 30
0.0
 11
136.4030904603053
 21
-44.22543168010576
 31
0.0
  0
LINE
  5
3E9
330
2
100
AcDbEntity
  8
0
  6
Continuous
 62
     0
100
AcDbLine
 10
136.4520738683183
 20
-44.37260464468924
 30
0.0
 11
136.4502881368611
 21
-44.34435066613672
 31
0.0
  0
LINE
  5
3EA
330
2
100
AcDbEntity
  8
0
  6
Continuous
 62
     0
100
AcDbLine
 10
136.458954169696
 20
-44.37979513783473
 30
0.0
 11
136.4502881368611
 21
-44.34435066613672
 31
0.0
  0
LINE
  5
3EB
330
2
100
AcDbEntity
  8
0
  6
Continuous
 62
     0
100
AcDbLine
 10
136.4569071425989
 20
-44.37142299411904
 30
0.0
 11
136.500079963438
 21
-44.36086713224374
 31
0.0
  0
LINE
  5
3EC
330
2
100
AcDbEntity
  8
0
  6
Continuous
 62
     0
100
AcDbLine
 10
137.3474512445046
 20
-43.51128763951324
 30
0.0
 11
136.6525792947564
 21
-42.26934260149505
 31
0.0
  0
LINE
  5
3ED
330
2
100
AcDbEntity
  8
0
  6
Continuous
 62
     0
100
AcDbLine
 10
137.0152959123618
 20
-42.18901043610844
 30
0.0
 11
136.9836537708208
 21
-43.60226235106151
 31
0.0
  0
LINE
  5
3EE
330
2
100
AcDbEntity
  8
5
  6
Continuous
100
AcDbLine
 10
137.0056508204886
 20
-42.18568705547531
 30
0.0
 11
136.6612558787346
 21
-42.27180978240767
 31
0.0
  0
LINE
  5
3EF
330
2
100
AcDbEntity
  8
0
  6
Continuous
 62
     0
100
AcDbLine
 10
137.958960244803
 20
-44.4373957213781
 30
0.0
 11
136.2764030028523
 21
-44.85815224329629
 31
0.0
  0
LINE
  5
3F0
330
2
100
AcDbEntity
  8
0
  6
Continuous
 62
     0
100
AcDbLine
 10
137.958960244803
 20
-44.4373957213781
 30
0.0
 11
136.2764030028523
 21
-44.85815224329629
 31
0.0
  0
LINE
  5
3F1
330
2
100
AcDbEntity
  8
0
  6
Continuous
100
AcDbLine
 10
138.8657051372032
 20
-47.13625038788276
 30
0.0
 11
138.8657051372032
 21
-47.38625038788277
 31
0.0
  0
LINE
  5
3F2
330
2
100
AcDbEntity
  8
0
  6
Continuous
100
AcDbLine
 10
140.13940408766
 20
-43.97121590334291
 30
0.0
 11
139.88940408766
 21
-43.97121590334291
 31
0.0
  0
LINE
  5
3F3
330
2
100
AcDbEntity
  8
0
  6
Continuous
100
AcDbLine
 10
140.1394040876603
 20
-42.66362624793027
 30
0.0
 11
137.7986771391535
 21
-43.24897104650024
 31
0.0
  0
LINE
  5
3F4
330
2
100
AcDbEntity
  8
0
  6
Continuous
100
AcDbLine
 10
137.8059583301838
 20
-43.27808769723918
 30
0.0
 11
140.1394040876603
 21
-42.69456370365448
 31
0.0
  0
LINE
  5
3F5
330
2
100
AcDbEntity
  8
0
  6
Continuous
100
AcDbLine
 10
140.1394040876603
 20
-42.63268879220631
 30
0.0
 11
137.7913959481232
 21
-43.21985439576147
 31
0.0
  0
LINE
  5
3F6
330
2
100
AcDbEntity
  8
0
  6
Continuous
100
AcDbLine
 10
140.1394040876603
 20
-42.60175133648229
 30
0.0
 11
137.784114757093
 21
-43.19073774502273
 31
0.0
  0
LINE
  5
3F7
330
2
100
AcDbEntity
  8
Glazing
  6
Continuous
100
AcDbLine
 10
140.1394040876603
 20
-42.57081388075746
 30
0.0
 11
137.2917702678176
 21
-43.28292070968188
 31
0.0
  0
LINE
  5
3F8
330
2
100
AcDbEntity
  8
Glazing
  6
Continuous
100
AcDbLine
 10
140.1394040876603
 20
-42.31311555467864
 30
0.0
 11
137.2311204601187
 21
-43.04038906055936
 31
0.0
  0
LINE
  5
3F9
330
2
100
AcDbEntity
  8
0
  6
Continuous
100
AcDbLine
 10
140.13940408766
 20
-47.0677369209149
 30
0.0
 11
140.13940408766
 21
-44.30672036033654
 31
0.0
  0
LINE
  5
3FA
330
2
100
AcDbEntity
  8
Curb
  6
DASHED2
370
    25
100
AcDbLine
 10
139.3657051372033
 20
-47.43625038788283
 30
0.0
 11
139.3657051372033
 21
-50.43625038788284
 31
0.0
  0
LINE
  5
3FB
330
2
100
AcDbEntity
  8
0
  6
Continuous
100
AcDbLine
 10
138.8657051372035
 20
-47.13625038788269
 30
0.0
 11
140.1394040876603
 21
-46.81773692091491
 31
0.0
  0
LINE
  5
3FC
330
2
100
AcDbEntity
  8
0
  6
Continuous
100
AcDbLine
 10
137.3199459079986
 20
-47.13625038788275
 30
0.0
 11
140.1394040876603
 21
-46.43118943179676
 31
0.0
  0
LEADER
  5
3FD
330
2
100
AcDbEntity
  8
0
  6
Continuous
100
AcDbLeader
  3
STANDARD
 73
     0
 40
0.1938949522510232
 41
1.119500341064119
 76
     2
 10
137.3459789123409
 20
-42.42304630687826
 30
0.0
 10
133.7679565442659
 20
-42.42304630687826
 30
0.0
340
3FE
213
0.0
223
-0.09375
233
0.0
1001
ACAD
1000
DSTYLE
1002
{
1070
   147
1040
0.09
1070
    77
1070
     0
1002
}
  0
MTEXT
  5
3FE
102
{ACAD_REACTORS
330
3FD
102
}
330
2
100
AcDbEntity
  8
0
  6
Continuous
100
AcDbMText
 10
133.6779565442659
 20
-42.32929630687826
 30
0.0
 40
0.1875
 41
4.4125
 71
     3
 72
     1
  1
GLAZING
 73
     1
 44
1.0
1001
ACAD
1000
MTEXTBEGIN
1070
    73
1070
     1
1070
    44
1040
1.0
1070
    74
1070
     0
1000
MTEXTEND
  0
LEADER
  5
3FF
330
2
100
AcDbEntity
  8
0
  6
Continuous
100
AcDbLeader
  3
STANDARD
 73
     0
 40
0.1940228512960437
 41
3.960266030013642
 76
     2
 10
137.3459789123409
 20
-41.45634298870319
 30
0.0
 10
133.7679565442659
 20
-41.45634298870319
 30
0.0
340
3D
213
0.0
223
-0.09375
233
0.0
1001
ACAD
1000
DSTYLE
1002
{
1070
   147
1040
0.09
1070
    77
1070
     0
1002
}
  0
LINE
  5
400
330
2
100
AcDbEntity
  8
0
  6
Continuous
100
AcDbLine
 10
136.9739652754756
 20
-42.01205486827984
 30
0.0
 11
136.837503208153
 21
-41.46635865775421
 31
0.0
  0
LINE
  5
401
330
2
100
AcDbEntity
  8
Glazing
  6
Continuous
100
AcDbLine
 10
140.1394040876603
 20
-41.22047465210456
 30
0.0
 11
136.9739652754756
 21
-42.01205486827984
 31
0.0
  0
LINE
  5
402
330
2
100
AcDbEntity
  8
Glazing
  6
Continuous
100
AcDbLine
 10
140.1394040876603
 20
-41.47817297818337
 30
0.0
 11
137.0346150831744
 21
-42.2545865174024
 31
0.0
  0
LINE
  5
403
330
2
100
AcDbEntity
  8
0
  6
Continuous
100
AcDbLine
 10
140.1394040876603
 20
-40.64065341842727
 30
0.0
 11
136.837503208153
 21
-41.46635865775422
 31
0.0
  0
LINE
  5
404
330
2
100
AcDbEntity
  8
0
  6
Continuous
100
AcDbLine
 10
140.1394040876603
 20
-41.09162548906519
 30
0.0
 11
136.9436403716262
 21
-41.8907890437186
 31
0.0
  0
LINE
  5
405
330
2
100
AcDbEntity
  8
0
  6
Continuous
100
AcDbLine
 10
140.1394040876603
 20
-41.12256294479038
 30
0.0
 11
136.9509215626564
 21
-41.91990569445742
 31
0.0
  0
LINE
  5
406
330
2
100
AcDbEntity
  8
0
  6
Continuous
100
AcDbLine
 10
140.1394040876603
 20
-41.15350040051441
 30
0.0
 11
136.9582027536867
 21
-41.94902234519616
 31
0.0
  0
LINE
  5
407
330
2
100
AcDbEntity
  8
0
  6
Continuous
100
AcDbLine
 10
140.1394040876603
 20
-41.18443785623845
 30
0.0
 11
136.9654839447169
 21
-41.97813899593498
 31
0.0
  0
ARC
  5
40D
330
2
100
AcDbEntity
  8
.050 Flashing
  6
Continuous
100
AcDbCircle
 10
135.2757051372032
 20
-42.49492222765955
 30
0.0
 40
0.01
100
AcDbArc
 50
104.0400000000111
 51
180.0
  0
ARC
  5
40E
330
2
100
AcDbEntity
  8
.050 Flashing
  6
Continuous
100
AcDbCircle
 10
135.2257051372032
 20
-42.45588604558063
 30
0.0
 40
0.01
100
AcDbArc
 50
104.0400000000126
 51
180.0000000000002
  0
ARC
  5
40F
330
2
100
AcDbEntity
  8
.050 Flashing
  6
Continuous
100
AcDbCircle
 10
136.5583779798809
 20
-42.1741646624904
 30
0.0
 40
0.01
100
AcDbArc
 50
14.03999999999308
 51
104.0400000000111
  0
ARC
  5
410
330
2
100
AcDbEntity
  8
.050 Flashing
  6
Continuous
100
AcDbCircle
 10
136.5947543481656
 20
-42.11352837112609
 30
0.0
 40
0.01
100
AcDbArc
 50
14.03999999999481
 51
104.0400000000127
  0
ARC
  5
411
330
2
100
AcDbEntity
  8
5
  6
Continuous
100
AcDbCircle
 10
137.0080768127965
 20
-42.19538832144022
 30
0.0
 40
0.01
100
AcDbArc
 50
14.03999999999995
 51
104.0399999999994
  0
ARC
  5
412
330
2
100
AcDbEntity
  8
5
  6
Continuous
100
AcDbCircle
 10
136.6636818710426
 20
-42.28151104837257
 30
0.0
 40
0.01
100
AcDbArc
 50
104.0399999999996
 51
194.0399999999999
  0
ARC
  5
413
330
2
100
AcDbEntity
  8
.050 Flashing
  6
Continuous
100
AcDbCircle
 10
139.3557051372033
 20
-47.0404347025858
 30
0.0
 40
0.01
100
AcDbArc
 50
0.0
 51
90.00000000001628
  0
ARC
  5
414
330
2
100
AcDbEntity
  8
.050 Flashing
  6
Continuous
100
AcDbCircle
 10
139.3257051372033
 20
-47.04043470258581
 30
0.0
 40
0.01
100
AcDbArc
 50
90.00000000001017
 51
180.0
  0
ARC
  5
415
330
2
100
AcDbEntity
  8
.050 Flashing
  6
Continuous
100
AcDbCircle
 10
139.3057051372033
 20
-47.37625038788284
 30
0.0
 40
0.01
100
AcDbArc
 50
270.0
 51
0.0
  0
ARC
  5
416
330
2
100
AcDbEntity
  8
.050 Flashing
  6
Continuous
100
AcDbCircle
 10
135.3257051372033
 20
-47.39625038788283
 30
0.0
 40
0.01
100
AcDbArc
 50
90.0
 51
180.0
  0
ARC
  5
417
330
2
100
AcDbEntity
  8
.050 Flashing
  6
Continuous
100
AcDbCircle
 10
135.3757051372033
 20
-47.44625038788283
 30
0.0
 40
0.01
100
AcDbArc
 50
90.0
 51
180.0
  0
ARC
  5
418
330
2
100
AcDbEntity
  8
.050 Flashing
  6
Continuous
100
AcDbCircle
 10
135.2057051372032
 20
-49.12855486166582
 30
0.0
 40
0.01
100
AcDbArc
 50
315.0000000000023
 51
0.0000000000002417
  0
ARC
  5
419
330
2
100
AcDbEntity
  8
.050 Flashing
  6
Continuous
100
AcDbCircle
 10
135.2557051372033
 20
-49.14926553978455
 30
0.0
 40
0.01
100
AcDbArc
 50
314.9999999999958
 51
0.0
  0
ARC
  5
41A
330
2
100
AcDbEntity
  8
.050 Flashing
  6
Continuous
100
AcDbCircle
 10
135.3057051372033
 20
-49.16997621790312
 30
0.0
 40
0.01
100
AcDbArc
 50
315.0000000000023
 51
0.0
  0
ARC
  5
41B
330
2
100
AcDbEntity
  8
.050 Flashing
  6
Continuous
100
AcDbCircle
 10
135.3557051372033
 20
-49.19068689602178
 30
0.0
 40
0.01
100
AcDbArc
 50
314.9999999999958
 51
0.0
  0
INSERT
  5
584
330
2
100
AcDbEntity
  8
Text
  6
Continuous
100
AcDbBlockReference
  2
ANCHOR
 10
100.8758414596139
 20
-27.60529283703824
 30
0.0
  0
ARC
  5
587
330
2
100
AcDbEntity
  8
5
  6
Continuous
100
AcDbCircle
 10
137.3657051372032
 20
-47.13625038788277
 30
0.0
 40
0.5215804463012495
100
AcDbArc
 50
0.0000000000014499
 51
179.9999999999993
  0
ARC
  5
588
330
2
100
AcDbEntity
  8
5
  6
Continuous
100
AcDbCircle
 10
137.3657051372032
 20
-47.13625038788277
 30
0.0
 40
0.5015804463012495
100
AcDbArc
 50
0.0000000000014499
 51
179.9999999999993
  0
ARC
  5
589
330
2
100
AcDbEntity
  8
5
  6
Continuous
100
AcDbCircle
 10
137.3657051372032
 20
-47.13625038788277
 30
0.0
 40
0.4815804463012494
100
AcDbArc
 50
0.0000000000014499
 51
179.9999999999993
  0
ARC
  5
58A
330
2
100
AcDbEntity
  8
5
  6
Continuous
100
AcDbCircle
 10
137.3657051372032
 20
-47.13625038788277
 30
0.0
 40
0.4615804463012494
100
AcDbArc
 50
0.0000000000014499
 51
179.9999999999993
  0
ARC
  5
58B
330
2
100
AcDbEntity
  8
5
  6
Continuous
100
AcDbCircle
 10
137.3657051372032
 20
-47.13625038788277
 30
0.0
 40
0.4415804463012494
100
AcDbArc
 50
0.0000000000014499
 51
31.87280778499356
  0
ARC
  5
58C
330
2
100
AcDbEntity
  8
5
  6
Continuous
100
AcDbCircle
 10
137.3657051372032
 20
-47.13625038788277
 30
0.0
 40
0.4215804463012494
100
AcDbArc
 50
0.0000000000014499
 51
27.1882686270785
  0
ARC
  5
58D
330
2
100
AcDbEntity
  8
5
  6
Continuous
100
AcDbCircle
 10
137.3657051372032
 20
-47.13625038788277
 30
0.0
 40
0.4015804463012494
100
AcDbArc
 50
0.0000000000014499
 51
20.96319998594767
  0
ARC
  5
58E
330
2
100
AcDbEntity
  8
5
  6
Continuous
100
AcDbCircle
 10
137.3657051372032
 20
-47.13625038788277
 30
0.0
 40
0.3815804463012493
100
AcDbArc
 50
0.0000000000014499
 51
10.65610172985434
  0
ARC
  5
58F
330
2
100
AcDbEntity
  8
5
  6
Continuous
100
AcDbCircle
 10
137.3657051372032
 20
-47.13625038788277
 30
0.0
 40
0.3615804463012493
100
AcDbArc
 50
47.27529677679895
 51
132.724703223201
  0
ARC
  5
590
330
2
100
AcDbEntity
  8
5
  6
Continuous
100
AcDbCircle
 10
137.3657051372032
 20
-47.13625038788277
 30
0.0
 40
0.3415804463012493
100
AcDbArc
 50
51.04456927740559
 51
128.9554307225944
  0
ARC
  5
591
330
2
100
AcDbEntity
  8
5
  6
Continuous
100
AcDbCircle
 10
137.3657051372032
 20
-47.13625038788277
 30
0.0
 40
0.3215804463012493
100
AcDbArc
 50
55.68986550111759
 51
124.3101344988824
  0
ARC
  5
592
330
2
100
AcDbEntity
  8
5
  6
Continuous
100
AcDbCircle
 10
137.3657051372032
 20
-47.13625038788277
 30
0.0
 40
0.3015804463012492
100
AcDbArc
 50
61.73618651645041
 51
118.2638134835496
  0
ARC
  5
593
330
2
100
AcDbEntity
  8
5
  6
Continuous
100
AcDbCircle
 10
137.3657051372032
 20
-47.13625038788277
 30
0.0
 40
0.2815804463012492
100
AcDbArc
 50
70.61957753324032
 51
109.3804224667596
  0
ARC
  5
594
330
2
100
AcDbEntity
  8
5
  6
Continuous
100
AcDbCircle
 10
137.3657051372032
 20
-47.13625038788277
 30
0.0
 40
0.4215804463012494
100
AcDbArc
 50
152.8117313729301
 51
179.9999999999993
  0
ARC
  5
595
330
2
100
AcDbEntity
  8
5
  6
Continuous
100
AcDbCircle
 10
137.3657051372032
 20
-47.13625038788277
 30
0.0
 40
0.4415804463012494
100
AcDbArc
 50
148.1271922150131
 51
179.9999999999993
  0
ARC
  5
596
330
2
100
AcDbEntity
  8
5
  6
Continuous
100
AcDbCircle
 10
137.3657051372032
 20
-47.13625038788277
 30
0.0
 40
0.4015804463012494
100
AcDbArc
 50
159.0368000140632
 51
179.9999999999993
  0
ARC
  5
597
330
2
100
AcDbEntity
  8
5
  6
Continuous
100
AcDbCircle
 10
137.3657051372032
 20
-47.13625038788277
 30
0.0
 40
0.3815804463012493
100
AcDbArc
 50
169.3438982701674
 51
179.9999999999993
  0
ARC
  5
598
330
2
100
AcDbEntity
  8
5
  6
Continuous
100
AcDbCircle
 10
137.3657051372032
 20
-47.13625038788277
 30
0.0
 40
0.4415804463012494
100
AcDbArc
 50
36.97973555376586
 51
143.0202644462341
  0
ARC
  5
599
330
2
100
AcDbEntity
  8
5
  6
Continuous
100
AcDbCircle
 10
137.3657051372032
 20
-47.13625038788277
 30
0.0
 40
0.4215804463012494
100
AcDbArc
 50
39.05525362960119
 51
140.9447463703988
  0
ARC
  5
59A
330
2
100
AcDbEntity
  8
5
  6
Continuous
100
AcDbCircle
 10
137.3657051372032
 20
-47.13625038788277
 30
0.0
 40
0.4015804463012494
100
AcDbArc
 50
41.41047853546949
 51
138.5895214645305
  0
ARC
  5
59B
330
2
100
AcDbEntity
  8
5
  6
Continuous
100
AcDbCircle
 10
137.3657051372032
 20
-47.13625038788277
 30
0.0
 40
0.3815804463012493
100
AcDbArc
 50
44.11637086207084
 51
135.8836291379291
  0
ENDSEC
  0
SECTION
  2
OBJECTS
  0
DICTIONARY
  5
9
330
0
100
AcDbDictionary
281
     1
  3
ACAD_COLOR
350
30
  3
ACAD_GROUP
350
2C
  3
ACAD_LAYOUT
350
D
  3
ACAD_MATERIAL
350
2F
  3
ACAD_MLINESTYLE
350
2D
  3
ACAD_PLOTSETTINGS
350
2E
  3
ACAD_PLOTSTYLENAME
350
8
  3
ACDBHEADERROUNDTRIPXREC
350
5AD
  3
AcDbVariableDictionary
350
5A8
  0
DICTIONARY
  5
15
330
14
100
AcDbDictionary
280
     1
281
     1
  3
ACAD_LAYERFILTERS
360
16
  3
ACAD_LAYERSTATES
360
1A
  0
DICTIONARY
  5
3
330
2
100
AcDbDictionary
280
     1
281
     1
  3
ACAD_LAYOUTSELFREF
360
4
  0
DICTIONARY
  5
F
330
E
100
AcDbDictionary
280
     1
281
     1
  3
ACAD_LAYOUTSELFREF
360
10
  0
DICTIONARY
  5
30
102
{ACAD_REACTORS
330
9
102
}
330
9
100
AcDbDictionary
281
     1
  0
DICTIONARY
  5
2C
102
{ACAD_REACTORS
330
9
102
}
330
9
100
AcDbDictionary
281
     1
  0
DICTIONARY
  5
D
102
{ACAD_REACTORS
330
9
102
}
330
9
100
AcDbDictionary
281
     1
  3
Layout1
350
13
  3
Model
350
C
  0
DICTIONARY
  5
2F
102
{ACAD_REACTORS
330
9
102
}
330
9
100
AcDbDictionary
281
     1
  0
DICTIONARY
  5
2D
102
{ACAD_REACTORS
330
9
102
}
330
9
100
AcDbDictionary
281
     1
  3
STANDARD
350
31
  0
DICTIONARY
  5
2E
102
{ACAD_REACTORS
330
9
102
}
330
9
100
AcDbDictionary
281
     1
  0
ACDBDICTIONARYWDFLT
  5
8
102
{ACAD_REACTORS
330
9
102
}
330
9
100
AcDbDictionary
281
     1
  3
Normal
350
7
100
AcDbDictionaryWithDefault
340
7
  0
DICTIONARY
  5
5AD
102
{ACAD_REACTORS
330
9
102
}
330
9
100
AcDbDictionary
281
     1
  3
COLORDICT
350
5AF
  3
MATERIALDICT
350
5AE
  0
DICTIONARY
  5
5A8
102
{ACAD_REACTORS
330
9
102
}
330
9
100
AcDbDictionary
281
     1
  3
DIMASSOC
350
5AA
  3
HIDETEXT
350
5A9
  3
PROJECTNAME
350
5AB
  0
DICTIONARY
  5
16
102
{ACAD_REACTORS
330
15
102
}
330
15
100
AcDbDictionary
280
     1
281
     1
  3
clg
360
17
  3
Roof
360
18
  3
sk
360
19
  0
DICTIONARY
  5
1A
102
{ACAD_REACTORS
330
15
102
}
330
15
100
AcDbDictionary
281
     1
  0
XRECORD
  5
4
102
{ACAD_REACTORS
330
3
102
}
330
3
100
AcDbXrecord
280
     1
340
2
  0
XRECORD
  5
10
102
{ACAD_REACTORS
330
F
102
}
330
F
100
AcDbXrecord
280
     1
340
E
  0
LAYOUT
  5
13
102
{ACAD_XDICTIONARY
360
5B2
102
}
102
{ACAD_REACTORS
330
D
102
}
330
D
100
AcDbPlotSettings
  1

  2
HP DesignJet 430 Plotter
  4

  6

 40
0.0
 41
0.0
 42
0.0
 43
0.0
 44
0.0
 45
0.0
 46
0.0
 47
0.0
 48
0.0
 49
0.0
140
0.0
141
0.0
142
1.0
143
1.0
 70
   688
 72
     0
 73
     0
 74
     5
  7
acad.ctb
 75
    16
147
1.0
148
0.0
149
0.0
100
AcDbLayout
  1
Layout1
 70
     1
 71
     1
 10
0.0
 20
0.0
 11
11.0
 21
8.5
 12
0.0
 22
0.0
 32
0.0
 14
0.0
 24
0.0
 34
0.0
 15
11.0
 25
8.5
 35
0.0
146
0.0
 13
0.0
 23
0.0
 33
0.0
 16
1.0
 26
0.0
 36
0.0
 17
0.0
 27
1.0
 37
0.0
 76
     0
330
E
  0
LAYOUT
  5
C
102
{ACAD_XDICTIONARY
360
5B0
102
}
102
{ACAD_REACTORS
330
D
102
}
330
D
100
AcDbPlotSettings
  1

  2
Brother MFC9700
  4
Letter
  6

 40
7.143749713897705
 41
5.027085304260253
 42
7.14373779296875
 43
5.027069091796875
 44
215.8999938964844
 45
279.3999938964844
 46
17.272
 47
0.0
 48
0.0
 49
0.0
140
0.0
141
0.0
142
1.0
143
0.1454883688845959
 70
 11956
 72
     0
 73
     1
 74
     0
  7
acad.ctb
 75
     0
147
6.873401686104671
148
-475.9428163058331
149
1456.585280992969
100
AcDbLayout
  1
Model
 70
     1
 71
     0
 10
0.0
 20
0.0
 11
12.0
 21
9.0
 12
0.0
 22
0.0
 32
0.0
 14
0.0
 24
0.0
 34
0.0
 15
0.0
 25
0.0
 35
0.0
146
0.0
 13
0.0
 23
0.0
 33
0.0
 16
1.0
 26
0.0
 36
0.0
 17
0.0
 27
1.0
 37
0.0
 76
     0
330
2
  0
MLINESTYLE
  5
31
102
{ACAD_REACTORS
330
2D
102
}
330
2D
100
AcDbMlineStyle
  2
STANDARD
 70
     0
  3

 62
   256
 51
90.0
 52
90.0
 71
     2
 49
0.5
 62
   256
  6
BYLAYER
 49
-0.5
 62
   256
  6
BYLAYER
  0
ACDBPLACEHOLDER
  5
7
102
{ACAD_REACTORS
330
8
102
}
330
8
  0
XRECORD
  5
5AF
102
{ACAD_REACTORS
330
5AD
102
}
330
5AD
100
AcDbXrecord
280
     1
340
30
  0
XRECORD
  5
5AE
102
{ACAD_REACTORS
330
5AD
102
}
330
5AD
100
AcDbXrecord
280
     1
340
2F
  0
DICTIONARYVAR
  5
5AA
102
{ACAD_REACTORS
330
5A8
102
}
330
5A8
100
DictionaryVariables
280
     0
  1
1
  0
DICTIONARYVAR
  5
5A9
102
{ACAD_REACTORS
330
5A8
102
}
330
5A8
100
DictionaryVariables
280
     0
  1
1
  0
DICTIONARYVAR
  5
5AB
102
{ACAD_REACTORS
330
5A8
102
}
330
5A8
100
DictionaryVariables
280
     0
  1

  0
XRECORD
  5
17
102
{ACAD_REACTORS
330
16
102
}
330
16
100
AcDbXrecord
280
     1
  1
clg
  1
a-c*
  1
*
  1
*
 70
     0
  1
*
  1
*
  0
XRECORD
  5
18
102
{ACAD_REACTORS
330
16
102
}
330
16
100
AcDbXrecord
280
     1
  1
Roof
  1
a-roo*.*
  1
*
  1
*
 70
     0
  1
*
  1
*
  0
XRECORD
  5
19
102
{ACAD_REACTORS
330
16
102
}
330
16
100
AcDbXrecord
280
     1
  1
sk
  1
*sketch
  1
*
  1
*
 70
     0
  1
*
  1
*
  0
DICTIONARY
  5
5B2
330
13
100
AcDbDictionary
280
     1
281
     1
  3
ACAD_XREC_ROUNDTRIP
360
5B3
  0
DICTIONARY
  5
5B0
330
C
100
AcDbDictionary
280
     1
281
     1
  3
ACAD_XREC_ROUNDTRIP
360
5B1
  0
XRECORD
  5
5B3
102
{ACAD_REACTORS
330
5B2
102
}
330
5B2
100
AcDbXrecord
280
     1
102
SHADEPLOT
 70
     0
102
SHADEPLOTRESLEVEL
 70
     2
102
SHADEPLOTCUSTOMDPI
 70
   300
  0
XRECORD
  5
5B1
102
{ACAD_REACTORS
330
5B0
102
}
330
5B0
100
AcDbXrecord
280
     1
102
SHADEPLOT
 70
     0
102
SHADEPLOTRESLEVEL
 70
     2
102
SHADEPLOTCUSTOMDPI
 70
   300
  0
ENDSEC
  0
EOF
