  0
SECTION
  2
HEADER
  9
$ACADVER
  1
AC1015
  9
$ACADMAINTVER
 70
    20
  9
$DWGCODEPAGE
  3
ANSI_1252
  9
$INSBASE
 10
0.0
 20
0.0
 30
0.0
  9
$EXTMIN
 10
146.9425060038251
 20
-171.7012401015853
 30
-0.0015258207003583
  9
$EXTMAX
 10
160.9812018342562
 20
-161.4632121047228
 30
0.0000000349246037
  9
$LIMMIN
 10
0.0
 20
0.0
  9
$LIMMAX
 10
408.0
 20
264.0
  9
$ORTHOMODE
 70
     1
  9
$REGENMODE
 70
     1
  9
$FILLMODE
 70
     1
  9
$QTEXTMODE
 70
     0
  9
$MIRRTEXT
 70
     1
  9
$LTSCALE
 40
0.25
  9
$ATTMODE
 70
     1
  9
$TEXTSIZE
 40
0.1875
  9
$TRACEWID
 40
0.05
  9
$TEXTSTYLE
  7
STANDARD
  9
$CLAYER
  8
5
  9
$CELTYPE
  6
CONTINUOUS
  9
$CECOLOR
 62
   256
  9
$CELTSCALE
 40
1.0
  9
$DISPSILH
 70
     0
  9
$DIMSCALE
 40
1.0
  9
$DIMASZ
 40
0.125
  9
$DIMEXO
 40
0.0625
  9
$DIMDLI
 40
0.38
  9
$DIMRND
 40
0.0
  9
$DIMDLE
 40
0.0
  9
$DIMEXE
 40
0.09375
  9
$DIMTP
 40
0.0
  9
$DIMTM
 40
0.0
  9
$DIMTXT
 40
0.18
  9
$DIMCEN
 40
0.09
  9
$DIMTSZ
 40
0.0
  9
$DIMTOL
 70
     0
  9
$DIMLIM
 70
     0
  9
$DIMTIH
 70
     1
  9
$DIMTOH
 70
     1
  9
$DIMSE1
 70
     0
  9
$DIMSE2
 70
     0
  9
$DIMTAD
 70
     0
  9
$DIMZIN
 70
     0
  9
$DIMBLK
  1

  9
$DIMASO
 70
     1
  9
$DIMSHO
 70
     1
  9
$DIMPOST
  1

  9
$DIMAPOST
  1

  9
$DIMALT
 70
     1
  9
$DIMALTD
 70
     4
  9
$DIMALTF
 40
1.0
  9
$DIMLFAC
 40
1.0
  9
$DIMTOFL
 70
     0
  9
$DIMTVP
 40
0.0
  9
$DIMTIX
 70
     0
  9
$DIMSOXD
 70
     0
  9
$DIMSAH
 70
     0
  9
$DIMBLK1
  1

  9
$DIMBLK2
  1

  9
$DIMSTYLE
  2
STANDARD
  9
$DIMCLRD
 70
     0
  9
$DIMCLRE
 70
     0
  9
$DIMCLRT
 70
     0
  9
$DIMTFAC
 40
1.0
  9
$DIMGAP
 40
0.09
  9
$DIMJUST
 70
     0
  9
$DIMSD1
 70
     0
  9
$DIMSD2
 70
     0
  9
$DIMTOLJ
 70
     1
  9
$DIMTZIN
 70
     0
  9
$DIMALTZ
 70
     0
  9
$DIMALTTZ
 70
     0
  9
$DIMUPT
 70
     0
  9
$DIMDEC
 70
     4
  9
$DIMTDEC
 70
     4
  9
$DIMALTU
 70
     5
  9
$DIMALTTD
 70
     4
  9
$DIMTXSTY
  7
STANDARD
  9
$DIMAUNIT
 70
     0
  9
$DIMADEC
 70
     8
  9
$DIMALTRND
 40
0.0
  9
$DIMAZIN
 70
     0
  9
$DIMDSEP
 70
    46
  9
$DIMATFIT
 70
     3
  9
$DIMFRAC
 70
     0
  9
$DIMLDRBLK
  1

  9
$DIMLUNIT
 70
     2
  9
$DIMLWD
 70
    -2
  9
$DIMLWE
 70
    -2
  9
$DIMTMOVE
 70
     0
  9
$LUNITS
 70
     4
  9
$LUPREC
 70
     5
  9
$SKETCHINC
 40
0.1
  9
$FILLETRAD
 40
0.01
  9
$AUNITS
 70
     0
  9
$AUPREC
 70
     1
  9
$MENU
  1
acad
  9
$ELEVATION
 40
0.0
  9
$PELEVATION
 40
0.0
  9
$THICKNESS
 40
0.0
  9
$LIMCHECK
 70
     0
  9
$CHAMFERA
 40
0.0
  9
$CHAMFERB
 40
0.0
  9
$CHAMFERC
 40
1.0
  9
$CHAMFERD
 40
0.0
  9
$SKPOLY
 70
     0
  9
$TDCREATE
 40
2453453.437640602
  9
$TDUCREATE
 40
2453453.770973935
  9
$TDUPDATE
 40
2453808.511178021
  9
$TDUUPDATE
 40
2453808.844511355
  9
$TDINDWG
 40
4.9543343287
  9
$TDUSRTIMER
 40
4.9543343287
  9
$USRTIMER
 70
     1
  9
$ANGBASE
 50
0.0
  9
$ANGDIR
 70
     0
  9
$PDMODE
 70
     0
  9
$PDSIZE
 40
0.0
  9
$PLINEWID
 40
0.0
  9
$SPLFRAME
 70
     0
  9
$SPLINETYPE
 70
     6
  9
$SPLINESEGS
 70
     8
  9
$HANDSEED
  5
48A
  9
$SURFTAB1
 70
     6
  9
$SURFTAB2
 70
     6
  9
$SURFTYPE
 70
     6
  9
$SURFU
 70
     6
  9
$SURFV
 70
     6
  9
$UCSBASE
  2

  9
$UCSNAME
  2

  9
$UCSORG
 10
0.0
 20
0.0
 30
0.0
  9
$UCSXDIR
 10
1.0
 20
0.0
 30
0.0
  9
$UCSYDIR
 10
0.0
 20
1.0
 30
0.0
  9
$UCSORTHOREF
  2

  9
$UCSORTHOVIEW
 70
     1
  9
$UCSORGTOP
 10
0.0
 20
0.0
 30
0.0
  9
$UCSORGBOTTOM
 10
0.0
 20
0.0
 30
0.0
  9
$UCSORGLEFT
 10
0.0
 20
0.0
 30
0.0
  9
$UCSORGRIGHT
 10
0.0
 20
0.0
 30
0.0
  9
$UCSORGFRONT
 10
0.0
 20
0.0
 30
0.0
  9
$UCSORGBACK
 10
0.0
 20
0.0
 30
0.0
  9
$PUCSBASE
  2

  9
$PUCSNAME
  2

  9
$PUCSORG
 10
0.0
 20
0.0
 30
0.0
  9
$PUCSXDIR
 10
1.0
 20
0.0
 30
0.0
  9
$PUCSYDIR
 10
0.0
 20
1.0
 30
0.0
  9
$PUCSORTHOREF
  2

  9
$PUCSORTHOVIEW
 70
     0
  9
$PUCSORGTOP
 10
0.0
 20
0.0
 30
0.0
  9
$PUCSORGBOTTOM
 10
0.0
 20
0.0
 30
0.0
  9
$PUCSORGLEFT
 10
0.0
 20
0.0
 30
0.0
  9
$PUCSORGRIGHT
 10
0.0
 20
0.0
 30
0.0
  9
$PUCSORGFRONT
 10
0.0
 20
0.0
 30
0.0
  9
$PUCSORGBACK
 10
0.0
 20
0.0
 30
0.0
  9
$USERI1
 70
     0
  9
$USERI2
 70
     0
  9
$USERI3
 70
     0
  9
$USERI4
 70
     0
  9
$USERI5
 70
     0
  9
$USERR1
 40
0.0
  9
$USERR2
 40
0.0
  9
$USERR3
 40
0.0
  9
$USERR4
 40
0.0
  9
$USERR5
 40
0.0
  9
$WORLDVIEW
 70
     1
  9
$SHADEDGE
 70
     3
  9
$SHADEDIF
 70
    70
  9
$TILEMODE
 70
     1
  9
$MAXACTVP
 70
    48
  9
$PINSBASE
 10
0.0
 20
0.0
 30
0.0
  9
$PLIMCHECK
 70
     0
  9
$PEXTMIN
 10
0.0
 20
0.0
 30
0.0
  9
$PEXTMAX
 10
11.0
 20
8.5
 30
0.0
  9
$PLIMMIN
 10
0.0
 20
0.0
  9
$PLIMMAX
 10
11.0
 20
8.5
  9
$UNITMODE
 70
     0
  9
$VISRETAIN
 70
     1
  9
$PLINEGEN
 70
     0
  9
$PSLTSCALE
 70
     1
  9
$TREEDEPTH
 70
  3020
  9
$CMLSTYLE
  2
STANDARD
  9
$CMLJUST
 70
     0
  9
$CMLSCALE
 40
1.0
  9
$PROXYGRAPHICS
 70
     1
  9
$MEASUREMENT
 70
     0
  9
$CELWEIGHT
370
    -1
  9
$ENDCAPS
280
     0
  9
$JOINSTYLE
280
     0
  9
$LWDISPLAY
290
     0
  9
$INSUNITS
 70
     0
  9
$HYPERLINKBASE
  1

  9
$STYLESHEET
  1

  9
$XEDIT
290
     1
  9
$CEPSNTYPE
380
     0
  9
$PSTYLEMODE
290
     1
  9
$FINGERPRINTGUID
  2
{429355A8-7BC6-4FCE-9B99-57A0ED0E2088}
  9
$VERSIONGUID
  2
{32B4647C-4A35-487C-87CB-40615B6D7992}
  9
$EXTNAMES
290
     1
  9
$PSVPSCALE
 40
0.0
  9
$OLESTARTUP
290
     0
  0
ENDSEC
  0
SECTION
  2
CLASSES
  0
CLASS
  1
DICTIONARYVAR
  2
AcDbDictionaryVar
  3
ObjectDBX Classes
 90
        0
280
     0
281
     0
  0
CLASS
  1
ACDBDICTIONARYWDFLT
  2
AcDbDictionaryWithDefault
  3
ObjectDBX Classes
 90
        0
280
     0
281
     0
  0
CLASS
  1
ACDBPLACEHOLDER
  2
AcDbPlaceHolder
  3
ObjectDBX Classes
 90
        0
280
     0
281
     0
  0
CLASS
  1
LAYOUT
  2
AcDbLayout
  3
ObjectDBX Classes
 90
        0
280
     0
281
     0
  0
ENDSEC
  0
SECTION
  2
TABLES
  0
TABLE
  2
VPORT
  5
24
330
0
100
AcDbSymbolTable
 70
     3
  0
VPORT
  5
482
330
24
100
AcDbSymbolTableRecord
100
AcDbViewportTableRecord
  2
*Active
 70
     0
 10
0.0
 20
0.0
 11
1.0
 21
1.0
 12
153.9618539190406
 22
-166.5822261031541
 13
0.0
 23
0.0
 14
0.5
 24
0.5
 15
0.5
 25
0.5
 16
0.0
 26
0.0
 36
1.0
 17
0.0
 27
0.0
 37
0.0
 40
10.31106981372471
 41
1.45595238095238
 42
50.0
 43
0.0
 44
0.0
 50
0.0
 51
0.0
 71
     0
 72
   100
 73
     1
 74
     1
 75
     0
 76
     0
 77
     0
 78
     1
281
     0
 65
     1
110
0.0
120
0.0
130
0.0
111
1.0
121
0.0
131
0.0
112
0.0
122
1.0
132
0.0
 79
     0
146
0.0
  0
ENDTAB
  0
TABLE
  2
LTYPE
  5
1F
330
0
100
AcDbSymbolTable
 70
     5
  0
LTYPE
  5
20
330
1F
100
AcDbSymbolTableRecord
100
AcDbLinetypeTableRecord
  2
BYBLOCK
 70
     0
  3

 72
    65
 73
     0
 40
0.0
  0
LTYPE
  5
21
330
1F
100
AcDbSymbolTableRecord
100
AcDbLinetypeTableRecord
  2
BYLAYER
 70
     0
  3

 72
    65
 73
     0
 40
0.0
  0
LTYPE
  5
A
330
1F
100
AcDbSymbolTableRecord
100
AcDbLinetypeTableRecord
  2
CONTINUOUS
 70
     0
  3
Solid line
 72
    65
 73
     0
 40
0.0
  0
LTYPE
  5
4D
330
1F
100
AcDbSymbolTableRecord
100
AcDbLinetypeTableRecord
  2
ACAD_ISO02W100
 70
     0
  3
ISO dash __ __ __ __ __ __ __ __ __ __ __ __ __
 72
    65
 73
     2
 40
15.0
 49
12.0
 74
     0
 49
-3.0
 74
     0
  0
LTYPE
  5
163
330
1F
100
AcDbSymbolTableRecord
100
AcDbLinetypeTableRecord
  2
CENTER
 70
     0
  3
Center ____ _ ____ _ ____ _ ____ _ ____ _ ____
 72
    65
 73
     4
 40
2.0
 49
1.25
 74
     0
 49
-0.25
 74
     0
 49
0.25
 74
     0
 49
-0.25
 74
     0
  0
LTYPE
  5
4E
330
1F
100
AcDbSymbolTableRecord
100
AcDbLinetypeTableRecord
  2
DASHED
 70
     0
  3
Dashed __ __ __ __ __ __ __ __ __ __ __ __ __ _
 72
    65
 73
     2
 40
0.75
 49
0.5
 74
     0
 49
-0.25
 74
     0
  0
LTYPE
  5
315
330
1F
100
AcDbSymbolTableRecord
100
AcDbLinetypeTableRecord
  2
HIDDEN
 70
     0
  3
Hidden __ __ __ __ __ __ __ __ __ __ __ __ __ _
 72
    65
 73
     2
 40
0.375
 49
0.25
 74
     0
 49
-0.125
 74
     0
  0
ENDTAB
  0
TABLE
  2
LAYER
  5
14
102
{ACAD_XDICTIONARY
360
15
102
}
330
0
100
AcDbSymbolTable
 70
     9
  0
LAYER
  5
6
330
14
100
AcDbSymbolTableRecord
100
AcDbLayerTableRecord
  2
0
 70
     0
 62
     7
  6
CONTINUOUS
370
    -3
390
7
  0
LAYER
  5
42
330
14
100
AcDbSymbolTableRecord
100
AcDbLayerTableRecord
  2
.050 Flashing
 70
     0
 62
   120
  6
CONTINUOUS
370
     5
390
7
  0
LAYER
  5
4C
330
14
100
AcDbSymbolTableRecord
100
AcDbLayerTableRecord
  2
Curb
 70
     0
 62
    12
  6
ACAD_ISO02W100
370
     9
390
7
  0
LAYER
  5
E7
330
14
100
AcDbSymbolTableRecord
100
AcDbLayerTableRecord
  2
5
 70
     0
 62
     5
  6
CONTINUOUS
370
    -3
390
7
  0
LAYER
  5
314
330
14
100
AcDbSymbolTableRecord
100
AcDbLayerTableRecord
  2
1
 70
     0
 62
     1
  6
HIDDEN
370
    -3
390
7
  0
LAYER
  5
162
330
14
100
AcDbSymbolTableRecord
100
AcDbLayerTableRecord
  2
2
 70
     0
 62
     4
  6
CENTER
370
    -3
390
7
  0
LAYER
  5
DE
330
14
100
AcDbSymbolTableRecord
100
AcDbLayerTableRecord
  2
HIDDEN
 70
     0
 62
     8
  6
ACAD_ISO02W100
370
    -3
390
7
  0
LAYER
  5
125
330
14
100
AcDbSymbolTableRecord
100
AcDbLayerTableRecord
  2
Glazing
 70
     0
 62
     5
  6
CONTINUOUS
370
    -3
390
7
  0
LAYER
  5
466
330
14
100
AcDbSymbolTableRecord
100
AcDbLayerTableRecord
  2
Text
 70
     0
 62
     7
  6
CONTINUOUS
370
    -3
390
7
  0
ENDTAB
  0
TABLE
  2
STYLE
  5
1B
330
0
100
AcDbSymbolTable
 70
     2
  0
STYLE
  5
1C
330
1B
100
AcDbSymbolTableRecord
100
AcDbTextStyleTableRecord
  2
STANDARD
 70
     0
 40
0.1875
 41
1.0
 50
0.0
 71
     0
 42
0.1875
  3
ARIAL.TTF
  4

1001
ACAD
1000
Arial
1071
       34
  0
STYLE
  5
2A
330
1B
100
AcDbSymbolTableRecord
100
AcDbTextStyleTableRecord
  2
ARCHITXT
 70
     0
 40
3.0
 41
1.0
 50
0.0
 71
     0
 42
3.0
  3
architxt.shx
  4

  0
ENDTAB
  0
TABLE
  2
VIEW
  5
22
330
0
100
AcDbSymbolTable
 70
     0
  0
ENDTAB
  0
TABLE
  2
UCS
  5
23
330
0
100
AcDbSymbolTable
 70
     0
  0
ENDTAB
  0
TABLE
  2
APPID
  5
26
330
0
100
AcDbSymbolTable
 70
     1
  0
APPID
  5
1D
330
26
100
AcDbSymbolTableRecord
100
AcDbRegAppTableRecord
  2
ACAD
 70
     0
  0
ENDTAB
  0
TABLE
  2
DIMSTYLE
  5
27
330
0
100
AcDbSymbolTable
 70
     2
100
AcDbDimStyleTable
 71
     2
340
28
340
29
  0
DIMSTYLE
105
28
330
27
100
AcDbSymbolTableRecord
100
AcDbDimStyleTableRecord
  2
STANDARD
 70
     0
 41
0.125
 44
0.09375
143
1.0
170
     1
171
     4
179
     8
273
     5
274
     4
340
1C
  0
DIMSTYLE
105
29
330
27
100
AcDbSymbolTableRecord
100
AcDbDimStyleTableRecord
  2
ARCHITXT_WS
 70
     0
 40
24.0
 41
0.1875
 43
0.375
 44
0.1875
140
0.125
141
0.0625
147
0.0625
174
     1
271
     5
272
     5
276
     2
277
     4
340
2A
  0
ENDTAB
  0
TABLE
  2
BLOCK_RECORD
  5
1
330
0
100
AcDbSymbolTable
 70
     8
  0
BLOCK_RECORD
  5
2
102
{ACAD_XDICTIONARY
360
3
102
}
330
1
100
AcDbSymbolTableRecord
100
AcDbBlockTableRecord
  2
*MODEL_SPACE
340
C
  0
BLOCK_RECORD
  5
E
102
{ACAD_XDICTIONARY
360
F
102
}
330
1
100
AcDbSymbolTableRecord
100
AcDbBlockTableRecord
  2
*PAPER_SPACE
340
13
  0
BLOCK_RECORD
  5
1B2
330
1
100
AcDbSymbolTableRecord
100
AcDbBlockTableRecord
  2
epdm
340
0
310
2800000020000000200000000100080000000000000400000000000000000000000000000000000000000000000080000080000000808000800000008000800080800000C0C0C000C0DCC000F0CAA6000020400000206000002080000020A0000020C0000020E00000400000004020000040400000406000004080000040A0
310
000040C0000040E00000600000006020000060400000606000006080000060A0000060C0000060E00000800000008020000080400000806000008080000080A0000080C0000080E00000A0000000A0200000A0400000A0600000A0800000A0A00000A0C00000A0E00000C0000000C0200000C0400000C0600000C0800000C0
310
A00000C0C00000C0E00000E0000000E0200000E0400000E0600000E0800000E0A00000E0C00000E0E00040000000400020004000400040006000400080004000A0004000C0004000E00040200000402020004020400040206000402080004020A0004020C0004020E000404000004040200040404000404060004040800040
310
40A0004040C0004040E00040600000406020004060400040606000406080004060A0004060C0004060E00040800000408020004080400040806000408080004080A0004080C0004080E00040A0000040A0200040A0400040A0600040A0800040A0A00040A0C00040A0E00040C0000040C0200040C0400040C0600040C08000
310
40C0A00040C0C00040C0E00040E0000040E0200040E0400040E0600040E0800040E0A00040E0C00040E0E00080000000800020008000400080006000800080008000A0008000C0008000E00080200000802020008020400080206000802080008020A0008020C0008020E00080400000804020008040400080406000804080
310
008040A0008040C0008040E00080600000806020008060400080606000806080008060A0008060C0008060E00080800000808020008080400080806000808080008080A0008080C0008080E00080A0000080A0200080A0400080A0600080A0800080A0A00080A0C00080A0E00080C0000080C0200080C0400080C0600080C0
310
800080C0A00080C0C00080C0E00080E0000080E0200080E0400080E0600080E0800080E0A00080E0C00080E0E000C0000000C0002000C0004000C0006000C0008000C000A000C000C000C000E000C0200000C0202000C0204000C0206000C0208000C020A000C020C000C020E000C0400000C0402000C0404000C0406000C0
310
408000C040A000C040C000C040E000C0600000C0602000C0604000C0606000C0608000C060A000C060C000C060E000C0800000C0802000C0804000C0806000C0808000C080A000C080C000C080E000C0A00000C0A02000C0A04000C0A06000C0A08000C0A0A000C0A0C000C0A0E000C0C00000C0C02000C0C04000C0C06000
310
C0C08000C0C0A000F0FBFF00A4A0A000808080000000FF0000FF000000FFFF00FF000000FF00FF00FFFF0000FFFFFF0000000000000000000000000000000000000000000000000000000000000000000000000000000000000000000000000000000000000000000000000000000000000000000000000000000000000000
310
00000000000000000000000000000000000000000000000000000000000000000000000000000000000000000000000000000000000000000000000000000000000000000000000000000000000000000000000000000000000000000000000000000000000000000000000000000000000000000000000000000000000000
310
00000000000000000000000000000000000000000000000000000000000000000000000000000000000000000000000000000000000000000000000000000000000000000000000000000000000000000000000000000000000000000000FFFCFCFCFCFCFFFF0000000000000000000000000000000000000000000000FFFF
310
FFFFFFFFFF00FFFF00000000000000000000000000000000000000000000FFFFFCFCFFFFFFFFFFFF00000000000000000000000000000000000000000000FCFC00FC00FFFF00FCFF000000000000000000000000000000000000000000000000FC00FFFF00FF00000000000000000000000000000000000000000000000000
310
00FCFFFF00FFFF00000000000000000000000000000000000000000000000000FCFFFF00FFFFFFFC00000000000000000000000000FFFFFFFFFFFFFFFCFCFCFCFCFF00FFFFFF00FCFCFCFCFCFCFCFCFCFCFCFC0000FFFFFFFFFFFFFFFFFFFFFFFF00FFFFFF00FFFFFFFFFFFFFFFFFFFFFFFFFF0000FFFFFFFFFFFFFFFFFFFF
310
FF00FFFFFF00FFFFFFFFFFFFFFFFFFFFFFFFFFFF0000FFFFFFFFFFFFFFFFFFFF00FFFFFFFFFFFFFFFFFFFFFFFFFFFFFFFFFFFFFF0000FFFF00FFFFFFFF00FF00FFFFFFFF00FF00FFFFFFFF00FF00FFFFFFFFFFFF0000FC00FFFCFFFC00FC00FFFCFFFC00FCFCFFFCFFFC00FFFCFFFCFFFCFFFFFC000000FCFCFFFC00FC00FC
310
FCFFFC00FC00FFFCFFFC00FCFCFFFCFFFC00FCFC0000000000000000000000000000000000000000000000000000000000000000000000000000000000000000000000000000000000000000000000000000000000000000000000000000000000000000000000000000000000000000000000000000000000000000000000
310
00000000000000000000000000000000000000000000000000000000000000000000000000000000000000000000000000000000000000000000000000000000000000000000000000000000000000000000000000000000000000000000000000000000000000000000000000000000000000000000000000000000000000
310
0000000000000000000000000000000000000000000000000000000000000000000000000000000000000000000000000000000000000000
102
{BLKREFS
331
1B1
331
3D6
102
}
  0
BLOCK_RECORD
  5
227
330
1
100
AcDbSymbolTableRecord
100
AcDbBlockTableRecord
  2
10-2
340
0
  0
BLOCK_RECORD
  5
8F
330
1
100
AcDbSymbolTableRecord
100
AcDbBlockTableRecord
  2
purlin fin
340
0
310
2800000020000000200000000100080000000000000400000000000000000000000000000000000000000000000080000080000000808000800000008000800080800000C0C0C000C0DCC000F0CAA6000020400000206000002080000020A0000020C0000020E00000400000004020000040400000406000004080000040A0
310
000040C0000040E00000600000006020000060400000606000006080000060A0000060C0000060E00000800000008020000080400000806000008080000080A0000080C0000080E00000A0000000A0200000A0400000A0600000A0800000A0A00000A0C00000A0E00000C0000000C0200000C0400000C0600000C0800000C0
310
A00000C0C00000C0E00000E0000000E0200000E0400000E0600000E0800000E0A00000E0C00000E0E00040000000400020004000400040006000400080004000A0004000C0004000E00040200000402020004020400040206000402080004020A0004020C0004020E000404000004040200040404000404060004040800040
310
40A0004040C0004040E00040600000406020004060400040606000406080004060A0004060C0004060E00040800000408020004080400040806000408080004080A0004080C0004080E00040A0000040A0200040A0400040A0600040A0800040A0A00040A0C00040A0E00040C0000040C0200040C0400040C0600040C08000
310
40C0A00040C0C00040C0E00040E0000040E0200040E0400040E0600040E0800040E0A00040E0C00040E0E00080000000800020008000400080006000800080008000A0008000C0008000E00080200000802020008020400080206000802080008020A0008020C0008020E00080400000804020008040400080406000804080
310
008040A0008040C0008040E00080600000806020008060400080606000806080008060A0008060C0008060E00080800000808020008080400080806000808080008080A0008080C0008080E00080A0000080A0200080A0400080A0600080A0800080A0A00080A0C00080A0E00080C0000080C0200080C0400080C0600080C0
310
800080C0A00080C0C00080C0E00080E0000080E0200080E0400080E0600080E0800080E0A00080E0C00080E0E000C0000000C0002000C0004000C0006000C0008000C000A000C000C000C000E000C0200000C0202000C0204000C0206000C0208000C020A000C020C000C020E000C0400000C0402000C0404000C0406000C0
310
408000C040A000C040C000C040E000C0600000C0602000C0604000C0606000C0608000C060A000C060C000C060E000C0800000C0802000C0804000C0806000C0808000C080A000C080C000C080E000C0A00000C0A02000C0A04000C0A06000C0A08000C0A0A000C0A0C000C0A0E000C0C00000C0C02000C0C04000C0C06000
310
C0C08000C0C0A000F0FBFF00A4A0A000808080000000FF0000FF000000FFFF00FF000000FF00FF00FFFF0000FFFFFF000000000000000000000000000000000000000000000000000000000000000000000000000000FF000000000000000000000000000000000000FF000000000000000000000000FFFF00000000000000
310
00000000000000000000FF000000000000000000000000FFFF00000000000000000000000000000000FFFF000000000000000000000000FFFF00000000000000000000000000000000FFFF000000000000000000000000FFFF00000000000000000000000000000000FFFF000000000000000000000000FFFF000000000000
310
00000000000000000000FFFF000000000000000000000000FFFF00000000000000000000000000000000FFFF000000000000000000000000FFFF00000000000000000000000000000000FFFF000000000000000000000000FFFF00000000000000000000000000000000FFFF000000000000000000000000FFFF0000000000
310
0000000000000000000000FFFF000000000000000000000000FFFF00000000000000000000000000000000FFFF000000000000000000000000FFFF00000000000000000000000000000000FFFF000000000000000000000000FFFF00000000000000000000000000000000FFFF000000000000000000000000FFFF00000000
310
000000000000000000000000FFFF000000000000000000000000FFFF00000000000000000000000000000000FFFF000000000000000000000000FFFF00000000000000000000000000000000FFFF000000000000000000000000FFFFFFFFFFFFFFFFFFFFFFFFFFFFFFFFFFFFFFFF000000000000000000000000FF00000000
310
0000000000000000000000000000FF000000000000000000000000FFFFFFFF00FFFFFFFFFFFFFFFFFFFF00FFFFFFFF000000000000000000000000FFFF00FFFFFF000000FFFF000000FFFFFF00FFFF000000000000000000000000000000000000000000FFFF00000000000000000000000000000000000000000000000000
310
0000000000FFFF000000000000000000000000000000000000000000000000000000000000FFFF000000000000000000000000000000000000000000000000000000000000FFFF000000000000000000000000000000000000000000000000000000000000FFFF000000000000000000000000000000000000000000000000
310
000000000000FFFF000000000000000000000000000000000000000000000000000000000000FFFF000000000000000000000000000000000000000000000000000000000000FFFF000000000000000000000000000000000000000000000000000000000000FFFF0000000000000000000000000000000000000000000000
310
00000000000000FFFF0000000000000000000000000000000000000000000000000000000000000000000000000000000000000000000000
102
{BLKREFS
331
8E
102
}
  0
BLOCK_RECORD
  5
63
330
1
100
AcDbSymbolTableRecord
100
AcDbBlockTableRecord
  2
snap bottom
340
0
310
2800000020000000200000000100080000000000000400000000000000000000000000000000000000000000000080000080000000808000800000008000800080800000C0C0C000C0DCC000F0CAA6000020400000206000002080000020A0000020C0000020E00000400000004020000040400000406000004080000040A0
310
000040C0000040E00000600000006020000060400000606000006080000060A0000060C0000060E00000800000008020000080400000806000008080000080A0000080C0000080E00000A0000000A0200000A0400000A0600000A0800000A0A00000A0C00000A0E00000C0000000C0200000C0400000C0600000C0800000C0
310
A00000C0C00000C0E00000E0000000E0200000E0400000E0600000E0800000E0A00000E0C00000E0E00040000000400020004000400040006000400080004000A0004000C0004000E00040200000402020004020400040206000402080004020A0004020C0004020E000404000004040200040404000404060004040800040
310
40A0004040C0004040E00040600000406020004060400040606000406080004060A0004060C0004060E00040800000408020004080400040806000408080004080A0004080C0004080E00040A0000040A0200040A0400040A0600040A0800040A0A00040A0C00040A0E00040C0000040C0200040C0400040C0600040C08000
310
40C0A00040C0C00040C0E00040E0000040E0200040E0400040E0600040E0800040E0A00040E0C00040E0E00080000000800020008000400080006000800080008000A0008000C0008000E00080200000802020008020400080206000802080008020A0008020C0008020E00080400000804020008040400080406000804080
310
008040A0008040C0008040E00080600000806020008060400080606000806080008060A0008060C0008060E00080800000808020008080400080806000808080008080A0008080C0008080E00080A0000080A0200080A0400080A0600080A0800080A0A00080A0C00080A0E00080C0000080C0200080C0400080C0600080C0
310
800080C0A00080C0C00080C0E00080E0000080E0200080E0400080E0600080E0800080E0A00080E0C00080E0E000C0000000C0002000C0004000C0006000C0008000C000A000C000C000C000E000C0200000C0202000C0204000C0206000C0208000C020A000C020C000C020E000C0400000C0402000C0404000C0406000C0
310
408000C040A000C040C000C040E000C0600000C0602000C0604000C0606000C0608000C060A000C060C000C060E000C0800000C0802000C0804000C0806000C0808000C080A000C080C000C080E000C0A00000C0A02000C0A04000C0A06000C0A08000C0A0A000C0A0C000C0A0E000C0C00000C0C02000C0C04000C0C06000
310
C0C08000C0C0A000F0FBFF00A4A0A000808080000000FF0000FF000000FFFF00FF000000FF00FF00FFFF0000FFFFFF0000000000000000000000000000000000000000000000000000000000000000000000000000000000000000000000000000000000000000000000000000000000000000000000000000000000000000
310
00000000000000000000000000000000000000000000000000000000000000000000000000000000000000000000000000000000000000000000000000000000000000000000000000000000000000000000000000000000000000000000000000000000000000000000000000000000000000000000000000000000000000
310
00000000000000000000000000000000000000000000000000000000000000000000000000000000000000000000000000000000000000000000000000000000000000000000000000000000000000000000000000000000000000000000000000000000000000000000000000000000000000000000000000000000000000
310
0000000000000000000000000000000000000000FFFFFFFFFFFFFFFFFFFFFFFFFFFFFFFFFFFFFFFFFFFFFFFFFFFFFFFFFFFF0000FF00000000000000000000000000000000000000000000000000000000FF0000FFFFFFFFFFFFFFFFFFFFFFFFFFFFFFFFFFFFFFFFFFFFFFFFFFFFFFFFFFFF0000FFFF000000FF0000000000
310
00000000000000000000000000FF000000FFFF0000FFFF0000FFFF000000000000000000000000000000000000FFFF0000FFFF000000FF000000FF000000000000000000000000000000000000FF000000FF0000000000000000FF000000000000000000000000000000000000FF000000000000000000000000FF00000000
310
0000000000000000000000000000FF000000000000000000000000FF000000000000000000000000000000000000FF000000000000000000000000FF000000000000000000000000000000000000FF000000000000000000000000000000000000000000000000000000000000000000000000000000000000000000000000
310
00000000000000000000000000000000000000000000000000000000000000000000000000000000000000000000000000000000000000000000000000000000000000000000000000000000000000000000000000000000000000000000000000000000000000000000000000000000000000000000000000000000000000
310
00000000000000000000000000000000000000000000000000000000000000000000000000000000000000000000000000000000000000000000000000000000000000000000000000000000000000000000000000000000000000000000000000000000000000000000000000000000000000000000000000000000000000
310
0000000000000000000000000000000000000000000000000000000000000000000000000000000000000000000000000000000000000000
102
{BLKREFS
331
62
102
}
  0
BLOCK_RECORD
  5
FD
330
1
100
AcDbSymbolTableRecord
100
AcDbBlockTableRecord
  2
*X4
340
0
102
{BLKREFS
331
FC
102
}
  0
BLOCK_RECORD
  5
F9
330
1
100
AcDbSymbolTableRecord
100
AcDbBlockTableRecord
  2
work point
340
0
310
2800000020000000200000000100080000000000000400000000000000000000000000000000000000000000000080000080000000808000800000008000800080800000C0C0C000C0DCC000F0CAA6000020400000206000002080000020A0000020C0000020E00000400000004020000040400000406000004080000040A0
310
000040C0000040E00000600000006020000060400000606000006080000060A0000060C0000060E00000800000008020000080400000806000008080000080A0000080C0000080E00000A0000000A0200000A0400000A0600000A0800000A0A00000A0C00000A0E00000C0000000C0200000C0400000C0600000C0800000C0
310
A00000C0C00000C0E00000E0000000E0200000E0400000E0600000E0800000E0A00000E0C00000E0E00040000000400020004000400040006000400080004000A0004000C0004000E00040200000402020004020400040206000402080004020A0004020C0004020E000404000004040200040404000404060004040800040
310
40A0004040C0004040E00040600000406020004060400040606000406080004060A0004060C0004060E00040800000408020004080400040806000408080004080A0004080C0004080E00040A0000040A0200040A0400040A0600040A0800040A0A00040A0C00040A0E00040C0000040C0200040C0400040C0600040C08000
310
40C0A00040C0C00040C0E00040E0000040E0200040E0400040E0600040E0800040E0A00040E0C00040E0E00080000000800020008000400080006000800080008000A0008000C0008000E00080200000802020008020400080206000802080008020A0008020C0008020E00080400000804020008040400080406000804080
310
008040A0008040C0008040E00080600000806020008060400080606000806080008060A0008060C0008060E00080800000808020008080400080806000808080008080A0008080C0008080E00080A0000080A0200080A0400080A0600080A0800080A0A00080A0C00080A0E00080C0000080C0200080C0400080C0600080C0
310
800080C0A00080C0C00080C0E00080E0000080E0200080E0400080E0600080E0800080E0A00080E0C00080E0E000C0000000C0002000C0004000C0006000C0008000C000A000C000C000C000E000C0200000C0202000C0204000C0206000C0208000C020A000C020C000C020E000C0400000C0402000C0404000C0406000C0
310
408000C040A000C040C000C040E000C0600000C0602000C0604000C0606000C0608000C060A000C060C000C060E000C0800000C0802000C0804000C0806000C0808000C080A000C080C000C080E000C0A00000C0A02000C0A04000C0A06000C0A08000C0A0A000C0A0C000C0A0E000C0C00000C0C02000C0C04000C0C06000
310
C0C08000C0C0A000F0FBFF00A4A0A000808080000000FF0000FF000000FFFF00FF000000FF00FF00FFFF0000FFFFFF000000000000000000000000000000000000000000000000000000000000000000000000000000000000000000000000FF00000000000000000000000000000000000000000000000000000000000000
310
FF00000000000000000000000000000000000000000000000000000000000000FF00000000000000000000000000000000000000000000000000000000000000FF00000000000000000000000000000000000000000000000000000000000000FF000000000000000000000000000000000000000000000000000000000000
310
00FF00000000000000000000000000000000000000000000000000000000000000FF00000000000000000000000000000000000000000000000000000000000000FF00000000000000000000000000000000000000000000000000000000000000FF0000000000000000000000000000000000000000000000000000000000
310
00FFFFFFFFFF00000000000000000000000000000000000000000000000000FFFF00FFFFFFFFFF0000000000000000000000000000000000000000000000FF000000FFFFFFFFFFFF000000000000000000000000000000000000000000FF00000000FFFFFFFFFFFFFF0000000000000000000000000000000000000000FF00
310
000000FFFFFFFFFFFFFF0000000000000000000000000000000000000000FF00000000FFFFFFFFFFFFFF0000000000000000000000FFFFFFFFFFFFFFFFFFFFFFFFFFFFFFFFFFFFFFFFFFFFFFFFFFFFFFFFFFFF0000000000000000000000FFFFFFFFFFFFFF00000000FF0000000000000000000000000000000000000000FF
310
FFFFFFFFFFFF00000000FF000000000000000000000000000000000000000000FFFFFFFFFFFF000000FF0000000000000000000000000000000000000000000000FFFFFFFFFF0000FF00000000000000000000000000000000000000000000000000FFFFFFFFFFFF0000000000000000000000000000000000000000000000
310
0000000000FF00000000000000000000000000000000000000000000000000000000000000FF00000000000000000000000000000000000000000000000000000000000000FF00000000000000000000000000000000000000000000000000000000000000FF00000000000000000000000000000000000000000000000000
310
000000000000FF00000000000000000000000000000000000000000000000000000000000000FF00000000000000000000000000000000000000000000000000000000000000FF00000000000000000000000000000000000000000000000000000000000000FF000000000000000000000000000000000000000000000000
310
00000000000000FF000000000000000000000000000000000000000000000000000000000000000000000000000000000000000000000000
102
{BLKREFS
331
F8
102
}
  0
BLOCK_RECORD
  5
417
330
1
100
AcDbSymbolTableRecord
100
AcDbBlockTableRecord
  2
ANCHOR
340
0
310
2800000020000000200000000100080000000000000400000000000000000000000000000000000000000000000080000080000000808000800000008000800080800000C0C0C000C0DCC000F0CAA6000020400000206000002080000020A0000020C0000020E00000400000004020000040400000406000004080000040A0
310
000040C0000040E00000600000006020000060400000606000006080000060A0000060C0000060E00000800000008020000080400000806000008080000080A0000080C0000080E00000A0000000A0200000A0400000A0600000A0800000A0A00000A0C00000A0E00000C0000000C0200000C0400000C0600000C0800000C0
310
A00000C0C00000C0E00000E0000000E0200000E0400000E0600000E0800000E0A00000E0C00000E0E00040000000400020004000400040006000400080004000A0004000C0004000E00040200000402020004020400040206000402080004020A0004020C0004020E000404000004040200040404000404060004040800040
310
40A0004040C0004040E00040600000406020004060400040606000406080004060A0004060C0004060E00040800000408020004080400040806000408080004080A0004080C0004080E00040A0000040A0200040A0400040A0600040A0800040A0A00040A0C00040A0E00040C0000040C0200040C0400040C0600040C08000
310
40C0A00040C0C00040C0E00040E0000040E0200040E0400040E0600040E0800040E0A00040E0C00040E0E00080000000800020008000400080006000800080008000A0008000C0008000E00080200000802020008020400080206000802080008020A0008020C0008020E00080400000804020008040400080406000804080
310
008040A0008040C0008040E00080600000806020008060400080606000806080008060A0008060C0008060E00080800000808020008080400080806000808080008080A0008080C0008080E00080A0000080A0200080A0400080A0600080A0800080A0A00080A0C00080A0E00080C0000080C0200080C0400080C0600080C0
310
800080C0A00080C0C00080C0E00080E0000080E0200080E0400080E0600080E0800080E0A00080E0C00080E0E000C0000000C0002000C0004000C0006000C0008000C000A000C000C000C000E000C0200000C0202000C0204000C0206000C0208000C020A000C020C000C020E000C0400000C0402000C0404000C0406000C0
310
408000C040A000C040C000C040E000C0600000C0602000C0604000C0606000C0608000C060A000C060C000C060E000C0800000C0802000C0804000C0806000C0808000C080A000C080C000C080E000C0A00000C0A02000C0A04000C0A06000C0A08000C0A0A000C0A0C000C0A0E000C0C00000C0C02000C0C04000C0C06000
310
C0C08000C0C0A000F0FBFF00A4A0A000808080000000FF0000FF000000FFFF00FF000000FF00FF00FFFF0000FFFFFF000000000000000000000000000000000000000000000000000000000000000000000000000000000000000000000000FF000000000000000000000000000000000000000000000000000000000000FF
310
FFFF000000000000000000000000000000000000000000000000000000000000FFFFFF00000000000000000000000000000000000000000000000000000000FFFFFFFF00000000000000000000000000000000000000000000000000000000FFFFFFFF00000000000000000000000000000000000000000000000000000000
310
FFFF00FF00000000000000000000000000000000000000000000000000000000FFFFFFFF00000000000000000000000000000000000000000000000000000000FFFFFFFF00000000000000000000000000000000000000000000000000000000FFFFFFFF000000000000000000000000000000000000000000000000000000
310
00FFFFFFFF00000000000000000000000000000000000000000000000000000000FFFFFFFF00000000000000000000000000000000000000000000000000000000FFFFFFFF00000000000000000000000000000000000000000000000000000000FFFFFFFF0000000000000000000000000000000000000000000000000000
310
0000FFFFFFFF00000000000000000000000000000000000000000000000000000000FFFFFFFF00000000000000000000000000000000000000000000000000000000FFFFFFFF00000000000000000000000000000000000000000000000000000000FFFFFFFF00000000000000000000000000000000000000000000000000
310
000000FFFFFFFF00000000000000000000000000000000000000000000000000000000FF0000FF00000000000000000000000000000000000000000000000000000000FF0000FF00000000000000000000000000000000000000000000000000000000FF0000FF000000000000000000000000000000000000000000000000
310
00000000FF0000FF00000000000000000000000000000000000000000000000000000000FF0000FF00000000000000000000000000000000000000000000000000000000FF0000FF00000000000000000000000000000000000000000000000000000000FF0000FF0000000000000000000000000000000000000000000000
310
0000000000FF0000FF0000000000000000000000000000000000000000000000000000FFFFFFFFFFFFFFFF000000000000000000000000000000000000000000000000FF0000FF000000FF000000000000000000000000000000000000000000000000FF0000FF000000FF0000000000000000000000000000000000000000
310
00000000FFFFFFFFFFFFFFFF0000000000000000000000000000000000000000000000000000000000000000000000000000000000000000
102
{BLKREFS
331
468
331
46D
102
}
  0
ENDTAB
  0
ENDSEC
  0
SECTION
  2
BLOCKS
  0
BLOCK
  5
5
330
2
100
AcDbEntity
  8
0
100
AcDbBlockBegin
  2
*MODEL_SPACE
 70
     0
 10
0.0
 20
0.0
 30
0.0
  3
*MODEL_SPACE
  1

  0
ENDBLK
  5
B
330
2
100
AcDbEntity
  8
0
100
AcDbBlockEnd
  0
BLOCK
  5
11
330
E
100
AcDbEntity
 67
     1
  8
0
100
AcDbBlockBegin
  2
*PAPER_SPACE
 70
     0
 10
0.0
 20
0.0
 30
0.0
  3
*PAPER_SPACE
  1

  0
ENDBLK
  5
12
330
E
100
AcDbEntity
 67
     1
  8
0
100
AcDbBlockEnd
  0
BLOCK
  5
1B3
330
1B2
100
AcDbEntity
  8
0
100
AcDbBlockBegin
  2
epdm
 70
     0
 10
0.0
 20
0.0
 30
0.0
  3
epdm
  1

  0
LINE
  5
1B4
330
1B2
100
AcDbEntity
  8
5
100
AcDbLine
 10
-3.7342876288553
 20
5.081818992145358
 30
0.0
 11
-3.79070225244123
 21
5.062661067774548
 31
0.0
  0
LINE
  5
1B5
330
1B2
100
AcDbEntity
  8
5
100
AcDbLine
 10
-3.904010361953952
 20
5.081818992145358
 30
0.0
 11
-3.847595738368022
 21
5.06266106777455
 31
0.0
  0
LINE
  5
1B6
330
1B2
100
AcDbEntity
  8
0
 62
     0
100
AcDbLine
 10
-3.831085386472681
 20
5.062661067774548
 30
0.0
 11
-3.879509494485192
 21
5.111085175787058
 31
0.0
  0
LINE
  5
1B7
330
1B2
100
AcDbEntity
  8
0
 62
     0
100
AcDbLine
 10
-3.84936330732429
 20
5.063261319096492
 30
0.0
 11
-3.904010361953945
 21
5.11790837372615
 31
0.0
  0
LINE
  5
1B8
330
1B2
100
AcDbEntity
  8
0
 62
     0
100
AcDbLine
 10
-3.781259168532224
 20
5.065867858423082
 30
0.0
 11
-3.859784160816312
 21
5.14439285070717
 31
0.0
  0
LINE
  5
1B9
330
1B2
100
AcDbEntity
  8
0
 62
     0
100
AcDbLine
 10
-3.795730047413352
 20
5.062661067774548
 30
0.0
 11
-3.84983420580229
 21
5.116765226163481
 31
0.0
  0
LINE
  5
1BA
330
1B2
100
AcDbEntity
  8
0
 62
     0
100
AcDbLine
 10
-3.81340771694302
 20
5.062661067774548
 30
0.0
 11
-3.851618669269948
 21
5.100872020101476
 31
0.0
  0
LINE
  5
1BB
330
1B2
100
AcDbEntity
  8
5
100
AcDbLine
 10
-3.79070225244123
 20
5.062661067774548
 30
0.0
 11
-3.847595738368022
 21
5.06266106777455
 31
0.0
  0
LINE
  5
1BC
330
1B2
100
AcDbEntity
  8
5
100
AcDbLine
 10
-3.79532826093464
 20
5.097704922538818
 30
0.0
 11
-3.7342876288553
 21
5.120056985403987
 31
0.0
  0
LINE
  5
1BD
330
1B2
100
AcDbEntity
  8
5
100
AcDbLine
 10
-3.764063546942781
 20
5.188416018424497
 30
0.0
 11
-3.79532826093464
 21
5.097704922538818
 31
0.0
  0
LINE
  5
1BE
330
1B2
100
AcDbEntity
  8
0
 62
     0
100
AcDbLine
 10
-3.768062854535196
 20
5.070349213955719
 30
0.0
 11
-3.869734115830341
 21
5.172020475250858
 31
0.0
  0
LINE
  5
1BF
330
1B2
100
AcDbEntity
  8
5
100
AcDbLine
 10
-3.778175527431054
 20
5.288786934748507
 30
0.0
 11
-3.799020256880035
 21
5.308469012926966
 31
0.0
  0
LINE
  5
1C0
330
1B2
100
AcDbEntity
  8
0
 62
     0
100
AcDbLine
 10
-3.691675294177679
 20
5.188416018424497
 30
0.0
 11
-3.805556559643813
 21
5.302297283890631
 31
0.0
  0
LINE
  5
1C1
330
1B2
100
AcDbEntity
  8
0
 62
     0
100
AcDbLine
 10
-3.768164674788282
 20
5.176517051386785
 30
0.0
 11
-3.891522287447552
 21
5.299874664046056
 31
0.0
  0
LINE
  5
1C2
330
1B2
100
AcDbEntity
  8
0
 62
     0
100
AcDbLine
 10
-3.76238597229633
 20
5.188416018424497
 30
0.0
 11
-3.882429880218696
 21
5.308459926346861
 31
0.0
  0
LINE
  5
1C3
330
1B2
100
AcDbEntity
  8
0
 62
     0
100
AcDbLine
 10
-3.744708302766669
 20
5.188416018424497
 30
0.0
 11
-3.853085627160114
 21
5.296793342817942
 31
0.0
  0
LINE
  5
1C4
330
1B2
100
AcDbEntity
  8
0
 62
     0
100
AcDbLine
 10
-3.727030633237001
 20
5.188416018424497
 30
0.0
 11
-3.843993219931251
 21
5.305378605118747
 31
0.0
  0
LINE
  5
1C5
330
1B2
100
AcDbEntity
  8
0
 62
     0
100
AcDbLine
 10
-3.70935296370734
 20
5.188416018424497
 30
0.0
 11
-3.814648966872669
 21
5.293712021589826
 31
0.0
  0
LINE
  5
1C6
330
1B2
100
AcDbEntity
  8
0
 62
     0
100
AcDbLine
 10
-3.77722691889131
 20
5.150223956430487
 30
0.0
 11
-3.929958947734997
 21
5.30295598527417
 31
0.0
  0
LINE
  5
1C7
330
1B2
100
AcDbEntity
  8
0
 62
     0
100
AcDbLine
 10
-3.7726957968398
 20
5.163370503908636
 30
0.0
 11
-3.900614694676415
 21
5.291289401745251
 31
0.0
  0
LINE
  5
1C8
330
1B2
100
AcDbEntity
  8
0
 62
     0
100
AcDbLine
 10
-3.781758040942827
 20
5.13707740895234
 30
0.0
 11
-3.939051354963853
 21
5.294370722973365
 31
0.0
  0
LINE
  5
1C9
330
1B2
100
AcDbEntity
  8
5
100
AcDbLine
 10
-4.069949034206496
 20
5.188416018424497
 30
0.0
 11
-4.069949034206496
 21
5.288896419438431
 31
0.0
  0
LINE
  5
1CA
330
1B2
100
AcDbEntity
  8
0
 62
     0
100
AcDbLine
 10
-3.886129659003978
 20
5.188416018424495
 30
0.0
 11
-3.986580422480153
 21
5.288866781900674
 31
0.0
  0
LINE
  5
1CB
330
1B2
100
AcDbEntity
  8
0
 62
     0
100
AcDbLine
 10
-3.903807328533639
 20
5.188416018424495
 30
0.0
 11
-4.015924675538736
 21
5.300533365429593
 31
0.0
  0
LINE
  5
1CC
330
1B2
100
AcDbEntity
  8
0
 62
     0
100
AcDbLine
 10
-3.9214849980633
 20
5.188416018424495
 30
0.0
 11
-4.025017082767599
 21
5.291948103128788
 31
0.0
  0
LINE
  5
1CD
330
1B2
100
AcDbEntity
  8
0
 62
     0
100
AcDbLine
 10
-3.939162667592968
 20
5.188416018424495
 30
0.0
 11
-4.054361335826181
 21
5.303614686657709
 31
0.0
  0
LINE
  5
1CE
330
1B2
100
AcDbEntity
  8
0
 62
     0
100
AcDbLine
 10
-3.956840337122629
 20
5.188416018424495
 30
0.0
 11
-4.063453743055037
 21
5.295029424356904
 31
0.0
  0
LINE
  5
1CF
330
1B2
100
AcDbEntity
  8
0
 62
     0
100
AcDbLine
 10
-3.786289162994345
 20
5.123930861474189
 30
0.0
 11
-3.968395608022435
 21
5.306037306502284
 31
0.0
  0
LINE
  5
1D0
330
1B2
100
AcDbEntity
  8
0
 62
     0
100
AcDbLine
 10
-3.790820285045855
 20
5.110784313996042
 30
0.0
 11
-3.977488015251298
 21
5.297452044201479
 31
0.0
  0
LINE
  5
1D1
330
1B2
100
AcDbEntity
  8
5
100
AcDbLine
 10
-4.069949034206496
 20
5.188416018424497
 30
0.0
 11
-3.875638891202912
 21
5.188416018424497
 31
0.0
  0
LINE
  5
1D2
330
1B2
100
AcDbEntity
  8
0
 62
     0
100
AcDbLine
 10
-4.045228684770949
 20
5.188416018424497
 30
0.0
 11
-4.069949034206496
 21
5.213136367860041
 31
0.0
  0
LINE
  5
1D3
330
1B2
100
AcDbEntity
  8
0
 62
     0
100
AcDbLine
 10
-4.062906354300617
 20
5.188416018424497
 30
0.0
 11
-4.069949034206496
 21
5.195458698330378
 31
0.0
  0
LINE
  5
1D4
330
1B2
100
AcDbEntity
  8
0
 62
     0
100
AcDbLine
 10
-3.992195676181959
 20
5.188416018424495
 30
0.0
 11
-4.069949034206496
 21
5.266169376449033
 31
0.0
  0
LINE
  5
1D5
330
1B2
100
AcDbEntity
  8
0
 62
     0
100
AcDbLine
 10
-4.00987334571162
 20
5.188416018424495
 30
0.0
 11
-4.069949034206496
 21
5.24849170691937
 31
0.0
  0
LINE
  5
1D6
330
1B2
100
AcDbEntity
  8
0
 62
     0
100
AcDbLine
 10
-4.027551015241288
 20
5.188416018424495
 30
0.0
 11
-4.069949034206496
 21
5.230814037389706
 31
0.0
  0
LINE
  5
1D7
330
1B2
100
AcDbEntity
  8
0
 62
     0
100
AcDbLine
 10
-3.974518006652298
 20
5.188416018424495
 30
0.0
 11
-4.069949034206496
 21
5.283847045978697
 31
0.0
  0
LINE
  5
1D8
330
1B2
100
AcDbEntity
  8
5
100
AcDbLine
 10
-3.904010361953945
 20
5.120056985403987
 30
0.0
 11
-3.904010361953952
 21
5.081818992145358
 31
0.0
  0
LINE
  5
1D9
330
1B2
100
AcDbEntity
  8
0
 62
     0
100
AcDbLine
 10
-3.876131085828612
 20
5.072351428071149
 30
0.0
 11
-3.904010361953945
 21
5.100230704196487
 31
0.0
  0
LINE
  5
1DA
330
1B2
100
AcDbEntity
  8
0
 62
     0
100
AcDbLine
 10
-3.902898864332934
 20
5.081441537045806
 30
0.0
 11
-3.904010361953952
 21
5.082553034666823
 31
0.0
  0
LINE
  5
1DB
330
1B2
100
AcDbEntity
  8
5
100
AcDbLine
 10
-3.842969729874612
 20
5.097704922538818
 30
0.0
 11
-3.904010361953945
 21
5.120056985403987
 31
0.0
  0
LINE
  5
1DC
330
1B2
100
AcDbEntity
  8
5
100
AcDbLine
 10
-3.875638891202912
 20
5.188416018424497
 30
0.0
 11
-3.842969729874612
 21
5.097704922538818
 31
0.0
  0
LINE
  5
1DD
330
1B2
100
AcDbEntity
  8
5
100
AcDbLine
 10
-3.944975527431056
 20
5.288786934748507
 30
0.0
 11
-3.96582025688003
 21
5.308469012926966
 31
0.0
  0
LINE
  5
1DE
330
1B2
100
AcDbEntity
  8
5
100
AcDbLine
 10
-4.049220256880028
 20
5.308469012926966
 30
0.0
 11
-4.070064986329009
 21
5.288786934748507
 31
0.0
  0
LINE
  5
1DF
330
1B2
100
AcDbEntity
  8
5
100
AcDbLine
 10
-4.028375527431053
 20
5.288786934748507
 30
0.0
 11
-4.049220256880028
 21
5.308469012926966
 31
0.0
  0
LINE
  5
1E0
330
1B2
100
AcDbEntity
  8
5
100
AcDbLine
 10
-4.007520256880036
 20
5.308469012926966
 30
0.0
 11
-4.028364986329004
 21
5.288786934748507
 31
0.0
  0
LINE
  5
1E1
330
1B2
100
AcDbEntity
  8
5
100
AcDbLine
 10
-3.986675527431055
 20
5.288786934748507
 30
0.0
 11
-4.007520256880036
 21
5.308469012926966
 31
0.0
  0
LINE
  5
1E2
330
1B2
100
AcDbEntity
  8
5
100
AcDbLine
 10
-3.96582025688003
 20
5.308469012926966
 30
0.0
 11
-3.986664986329012
 21
5.288786934748507
 31
0.0
  0
LINE
  5
1E3
330
1B2
100
AcDbEntity
  8
5
100
AcDbLine
 10
-3.924120256880032
 20
5.308469012926966
 30
0.0
 11
-3.944964986329006
 21
5.288786934748507
 31
0.0
  0
LINE
  5
1E4
330
1B2
100
AcDbEntity
  8
5
100
AcDbLine
 10
-3.903275527431057
 20
5.288786934748507
 30
0.0
 11
-3.924120256880032
 21
5.308469012926966
 31
0.0
  0
LINE
  5
1E5
330
1B2
100
AcDbEntity
  8
5
100
AcDbLine
 10
-3.882420256880033
 20
5.308469012926966
 30
0.0
 11
-3.903264986329007
 21
5.288786934748507
 31
0.0
  0
LINE
  5
1E6
330
1B2
100
AcDbEntity
  8
5
100
AcDbLine
 10
-3.861575527431051
 20
5.288786934748507
 30
0.0
 11
-3.882420256880033
 21
5.308469012926966
 31
0.0
  0
LINE
  5
1E7
330
1B2
100
AcDbEntity
  8
5
100
AcDbLine
 10
-3.840720256880027
 20
5.308469012926966
 30
0.0
 11
-3.861564986329009
 21
5.288786934748507
 31
0.0
  0
LINE
  5
1E8
330
1B2
100
AcDbEntity
  8
5
100
AcDbLine
 10
-3.81987552743106
 20
5.288786934748507
 30
0.0
 11
-3.840720256880027
 21
5.308469012926966
 31
0.0
  0
LINE
  5
1E9
330
1B2
100
AcDbEntity
  8
5
100
AcDbLine
 10
-3.799020256880035
 20
5.308469012926966
 30
0.0
 11
-3.81986498632901
 21
5.288786934748507
 31
0.0
  0
LINE
  5
1EA
330
1B2
100
AcDbEntity
  8
5
100
AcDbLine
 10
-3.569675527431053
 20
5.188416018424497
 30
0.0
 11
-3.569675527431053
 21
5.288786934748507
 31
0.0
  0
LINE
  5
1EB
330
1B2
100
AcDbEntity
  8
0
 62
     0
100
AcDbLine
 10
-3.569675527431053
 20
5.225515277444847
 30
0.0
 11
-3.642717511265184
 21
5.298557261278979
 31
0.0
  0
LINE
  5
1EC
330
1B2
100
AcDbEntity
  8
0
 62
     0
100
AcDbLine
 10
-3.569675527431053
 20
5.243192946974511
 30
0.0
 11
-3.633625104036328
 21
5.307142523579784
 31
0.0
  0
LINE
  5
1ED
330
1B2
100
AcDbEntity
  8
0
 62
     0
100
AcDbLine
 10
-3.569675527431053
 20
5.260870616504174
 30
0.0
 11
-3.604280850977739
 21
5.295475940050863
 31
0.0
  0
LINE
  5
1EE
330
1B2
100
AcDbEntity
  8
0
 62
     0
100
AcDbLine
 10
-3.569675527431053
 20
5.278548286033839
 30
0.0
 11
-3.595188443748883
 21
5.304061202351668
 31
0.0
  0
LINE
  5
1EF
330
1B2
100
AcDbEntity
  8
0
 62
     0
100
AcDbLine
 10
-3.673997624648011
 20
5.188416018424497
 30
0.0
 11
-3.776212306585231
 21
5.290630700361711
 31
0.0
  0
LINE
  5
1F0
330
1B2
100
AcDbEntity
  8
0
 62
     0
100
AcDbLine
 10
-3.65631995511835
 20
5.188416018424497
 30
0.0
 11
-3.767119899356368
 21
5.299215962662518
 31
0.0
  0
LINE
  5
1F1
330
1B2
100
AcDbEntity
  8
0
 62
     0
100
AcDbLine
 10
-3.638642285588682
 20
5.188416018424497
 30
0.0
 11
-3.758027492127512
 21
5.307801224963323
 31
0.0
  0
LINE
  5
1F2
330
1B2
100
AcDbEntity
  8
0
 62
     0
100
AcDbLine
 10
-3.620964616059021
 20
5.188416018424497
 30
0.0
 11
-3.72868323906893
 21
5.296134641434402
 31
0.0
  0
LINE
  5
1F3
330
1B2
100
AcDbEntity
  8
0
 62
     0
100
AcDbLine
 10
-3.60328694652936
 20
5.188416018424497
 30
0.0
 11
-3.719590831840067
 21
5.304719903735207
 31
0.0
  0
LINE
  5
1F4
330
1B2
100
AcDbEntity
  8
0
 62
     0
100
AcDbLine
 10
-3.585609276999692
 20
5.188416018424497
 30
0.0
 11
-3.690246578781485
 21
5.293053320206288
 31
0.0
  0
LINE
  5
1F5
330
1B2
100
AcDbEntity
  8
0
 62
     0
100
AcDbLine
 10
-3.569675527431053
 20
5.190159938385519
 30
0.0
 11
-3.681154171552629
 21
5.301638582507093
 31
0.0
  0
LINE
  5
1F6
330
1B2
100
AcDbEntity
  8
0
 62
     0
100
AcDbLine
 10
-3.569675527431053
 20
5.207837607915184
 30
0.0
 11
-3.651809918494047
 21
5.289971998978174
 31
0.0
  0
LINE
  5
1F7
330
1B2
100
AcDbEntity
  8
5
100
AcDbLine
 10
-3.569675527431053
 20
5.188416018424497
 30
0.0
 11
-3.764063546942781
 21
5.188416018424497
 31
0.0
  0
LINE
  5
1F8
330
1B2
100
AcDbEntity
  8
5
100
AcDbLine
 10
-3.7342876288553
 20
5.120056985403987
 30
0.0
 11
-3.7342876288553
 21
5.081818992145358
 31
0.0
  0
LINE
  5
1F9
330
1B2
100
AcDbEntity
  8
0
 62
     0
100
AcDbLine
 10
-3.7342876288553
 20
5.107284666394475
 30
0.0
 11
-3.74363653436769
 21
5.116633571906861
 31
0.0
  0
LINE
  5
1FA
330
1B2
100
AcDbEntity
  8
0
 62
     0
100
AcDbLine
 10
-3.7342876288553
 20
5.089606996864812
 30
0.0
 11
-3.756575990545451
 21
5.111895358554965
 31
0.0
  0
LINE
  5
1FB
330
1B2
100
AcDbEntity
  8
0
 62
     0
100
AcDbLine
 10
-3.741670226541147
 20
5.079311925020995
 30
0.0
 11
-3.76951544672322
 21
5.107157145203068
 31
0.0
  0
LINE
  5
1FC
330
1B2
100
AcDbEntity
  8
0
 62
     0
100
AcDbLine
 10
-3.754866540538175
 20
5.074830569488357
 30
0.0
 11
-3.782454902900989
 21
5.102418931851172
 31
0.0
  0
LINE
  5
1FD
330
1B2
100
AcDbEntity
  8
5
100
AcDbLine
 10
-3.611375527431059
 20
5.288786934748507
 30
0.0
 11
-3.632220256880033
 21
5.308469012926966
 31
0.0
  0
LINE
  5
1FE
330
1B2
100
AcDbEntity
  8
5
100
AcDbLine
 10
-3.75732025688003
 20
5.308469012926966
 30
0.0
 11
-3.778164986329011
 21
5.288786934748507
 31
0.0
  0
LINE
  5
1FF
330
1B2
100
AcDbEntity
  8
5
100
AcDbLine
 10
-3.736475527431055
 20
5.288786934748507
 30
0.0
 11
-3.75732025688003
 21
5.308469012926966
 31
0.0
  0
LINE
  5
200
330
1B2
100
AcDbEntity
  8
5
100
AcDbLine
 10
-3.715620256880031
 20
5.308469012926966
 30
0.0
 11
-3.736464986329005
 21
5.288786934748507
 31
0.0
  0
LINE
  5
201
330
1B2
100
AcDbEntity
  8
5
100
AcDbLine
 10
-3.694775527431056
 20
5.288786934748507
 30
0.0
 11
-3.715620256880031
 21
5.308469012926966
 31
0.0
  0
LINE
  5
202
330
1B2
100
AcDbEntity
  8
5
100
AcDbLine
 10
-3.673920256880032
 20
5.308469012926966
 30
0.0
 11
-3.694764986329007
 21
5.288786934748507
 31
0.0
  0
LINE
  5
203
330
1B2
100
AcDbEntity
  8
5
100
AcDbLine
 10
-3.653075527431051
 20
5.288786934748507
 30
0.0
 11
-3.673920256880032
 21
5.308469012926966
 31
0.0
  0
LINE
  5
204
330
1B2
100
AcDbEntity
  8
5
100
AcDbLine
 10
-3.632220256880033
 20
5.308469012926966
 30
0.0
 11
-3.653064986329008
 21
5.288786934748507
 31
0.0
  0
LINE
  5
205
330
1B2
100
AcDbEntity
  8
5
100
AcDbLine
 10
-3.590520256880035
 20
5.308469012926966
 30
0.0
 11
-3.611364986329009
 21
5.288786934748507
 31
0.0
  0
LINE
  5
206
330
1B2
100
AcDbEntity
  8
5
100
AcDbLine
 10
-3.569675527431053
 20
5.288786934748507
 30
0.0
 11
-3.590520256880035
 21
5.308469012926966
 31
0.0
  0
LINE
  5
207
330
1B2
100
AcDbEntity
  8
5
100
AcDbLine
 10
-3.590520256880035
 20
5.308469012926966
 30
0.0
 11
-3.611364986329009
 21
5.288786934748507
 31
0.0
  0
LINE
  5
208
330
1B2
100
AcDbEntity
  8
5
100
AcDbLine
 10
-3.569675527431053
 20
5.288786934748507
 30
0.0
 11
-3.590520256880035
 21
5.308469012926966
 31
0.0
  0
LINE
  5
209
330
1B2
100
AcDbEntity
  8
5
100
AcDbLine
 10
-3.590520256880035
 20
5.308469012926966
 30
0.0
 11
-3.611364986329009
 21
5.288786934748507
 31
0.0
  0
LINE
  5
20A
330
1B2
100
AcDbEntity
  8
5
100
AcDbLine
 10
-3.569675527431053
 20
5.288786934748507
 30
0.0
 11
-3.590520256880035
 21
5.308469012926966
 31
0.0
  0
LINE
  5
20B
330
1B2
100
AcDbEntity
  8
5
100
AcDbLine
 10
-3.590520256880035
 20
5.308469012926966
 30
0.0
 11
-3.611364986329009
 21
5.288786934748507
 31
0.0
  0
LINE
  5
20C
330
1B2
100
AcDbEntity
  8
5
100
AcDbLine
 10
-3.569675527431053
 20
5.288786934748507
 30
0.0
 11
-3.590520256880035
 21
5.308469012926966
 31
0.0
  0
LINE
  5
20D
330
1B2
100
AcDbEntity
  8
5
100
AcDbLine
 10
-3.590520256880035
 20
5.308469012926966
 30
0.0
 11
-3.611364986329009
 21
5.288786934748507
 31
0.0
  0
LINE
  5
20E
330
1B2
100
AcDbEntity
  8
5
100
AcDbLine
 10
-3.569675527431053
 20
5.288786934748507
 30
0.0
 11
-3.590520256880035
 21
5.308469012926966
 31
0.0
  0
LINE
  5
20F
330
1B2
100
AcDbEntity
  8
5
100
AcDbLine
 10
-3.590520256880035
 20
5.308469012926966
 30
0.0
 11
-3.611364986329009
 21
5.288786934748507
 31
0.0
  0
LINE
  5
210
330
1B2
100
AcDbEntity
  8
5
100
AcDbLine
 10
-3.569675527431053
 20
5.288786934748507
 30
0.0
 11
-3.590520256880035
 21
5.308469012926966
 31
0.0
  0
LINE
  5
211
330
1B2
100
AcDbEntity
  8
5
100
AcDbLine
 10
-3.590520256880035
 20
5.308469012926966
 30
0.0
 11
-3.611364986329009
 21
5.288786934748507
 31
0.0
  0
LINE
  5
212
330
1B2
100
AcDbEntity
  8
5
100
AcDbLine
 10
-3.569675527431053
 20
5.288786934748507
 30
0.0
 11
-3.590520256880035
 21
5.308469012926966
 31
0.0
  0
LINE
  5
213
330
1B2
100
AcDbEntity
  8
5
100
AcDbLine
 10
-3.590520256880035
 20
5.308469012926966
 30
0.0
 11
-3.611364986329009
 21
5.288786934748507
 31
0.0
  0
LINE
  5
214
330
1B2
100
AcDbEntity
  8
5
100
AcDbLine
 10
-3.569675527431053
 20
5.288786934748507
 30
0.0
 11
-3.590520256880035
 21
5.308469012926966
 31
0.0
  0
LINE
  5
215
330
1B2
100
AcDbEntity
  8
5
100
AcDbLine
 10
-3.590520256880035
 20
5.308469012926966
 30
0.0
 11
-3.611364986329009
 21
5.288786934748507
 31
0.0
  0
LINE
  5
216
330
1B2
100
AcDbEntity
  8
5
100
AcDbLine
 10
-3.569675527431053
 20
5.288786934748507
 30
0.0
 11
-3.590520256880035
 21
5.308469012926966
 31
0.0
  0
LINE
  5
217
330
1B2
100
AcDbEntity
  8
5
100
AcDbLine
 10
-3.590520256880035
 20
5.308469012926966
 30
0.0
 11
-3.611364986329009
 21
5.288786934748507
 31
0.0
  0
LINE
  5
218
330
1B2
100
AcDbEntity
  8
5
100
AcDbLine
 10
-3.569675527431053
 20
5.288786934748507
 30
0.0
 11
-3.590520256880035
 21
5.308469012926966
 31
0.0
  0
LINE
  5
219
330
1B2
100
AcDbEntity
  8
5
100
AcDbLine
 10
-3.590520256880035
 20
5.308469012926966
 30
0.0
 11
-3.611364986329009
 21
5.288786934748507
 31
0.0
  0
LINE
  5
21A
330
1B2
100
AcDbEntity
  8
5
100
AcDbLine
 10
-3.569675527431053
 20
5.288786934748507
 30
0.0
 11
-3.590520256880035
 21
5.308469012926966
 31
0.0
  0
LINE
  5
21B
330
1B2
100
AcDbEntity
  8
5
100
AcDbLine
 10
-3.590520256880035
 20
5.308469012926966
 30
0.0
 11
-3.611364986329009
 21
5.288786934748507
 31
0.0
  0
LINE
  5
21C
330
1B2
100
AcDbEntity
  8
5
100
AcDbLine
 10
-3.569675527431053
 20
5.288786934748507
 30
0.0
 11
-3.590520256880035
 21
5.308469012926966
 31
0.0
  0
ENDBLK
  5
21D
330
1B2
100
AcDbEntity
  8
0
100
AcDbBlockEnd
  0
BLOCK
  5
228
330
227
100
AcDbEntity
  8
5
100
AcDbBlockBegin
  2
10-2
 70
     0
 10
0.0
 20
0.0
 30
0.0
  3
10-2
  1

  0
LINE
  5
229
330
227
100
AcDbEntity
  8
0
100
AcDbLine
 10
-0.0993865681774908
 20
-1.74544415217491
 30
0.0
 11
0.0990878887811429
 21
-1.709755047174977
 31
0.0
  0
LINE
  5
22A
330
227
100
AcDbEntity
  8
0
100
AcDbLine
 10
-0.0624760390166728
 20
-1.265568508878473
 30
0.0
 11
-0.0994593600000009
 21
-1.244216178553221
 31
0.0
  0
LINE
  5
22B
330
227
100
AcDbEntity
  8
0
100
AcDbLine
 10
-0.0624760390166745
 20
-1.295050523487873
 30
0.0
 11
-0.0624760390166728
 21
-1.265568508878471
 31
0.0
  0
LINE
  5
22C
330
227
100
AcDbEntity
  8
0
100
AcDbLine
 10
0.062476039016671
 20
-1.230051846508419
 30
0.0
 11
-0.0624760390166728
 21
-1.265568508878473
 31
0.0
  0
LINE
  5
22D
330
227
100
AcDbEntity
  8
0
100
AcDbLine
 10
0.062476039016671
 20
-1.229475171248521
 30
0.0
 11
0.062476039016671
 21
-1.258957185857923
 31
0.0
  0
LINE
  5
22E
330
227
100
AcDbEntity
  8
0
100
AcDbLine
 10
0.062476039016671
 20
-1.258957185857922
 30
0.0
 11
-0.0624760390166745
 21
-1.294473848227973
 31
0.0
  0
LINE
  5
22F
330
227
100
AcDbEntity
  8
0
100
AcDbLine
 10
0.062476039016671
 20
-1.258957185857922
 30
0.0
 11
0.0994593599999991
 21
-1.280309516183171
 31
0.0
  0
LINE
  5
230
330
227
100
AcDbEntity
  8
0
100
AcDbLine
 10
0.0994593599999991
 20
-1.495139516183175
 30
0.0
 11
-0.0994593600000009
 21
-1.530656178553227
 31
0.0
  0
LINE
  5
231
330
227
100
AcDbEntity
  8
0
100
AcDbLine
 10
-0.0994593600000009
 20
-1.530656178553227
 30
0.0
 11
-0.0624760390166728
 21
-1.509303848227977
 31
0.0
  0
LINE
  5
232
330
227
100
AcDbEntity
  8
0
100
AcDbLine
 10
-0.0624760390166745
 20
-1.509880523487877
 30
0.0
 11
-0.0624760390166728
 21
-1.480398508878475
 31
0.0
  0
LINE
  5
233
330
227
100
AcDbEntity
  8
0
100
AcDbLine
 10
0.062476039016671
 20
-1.444881846508424
 30
0.0
 11
-0.0624760390166728
 21
-1.480398508878477
 31
0.0
  0
LINE
  5
234
330
227
100
AcDbEntity
  8
0
100
AcDbLine
 10
-0.0624760390166728
 20
-1.480398508878477
 30
0.0
 11
-0.0994593600000009
 21
-1.459046178553225
 31
0.0
  0
LINE
  5
235
330
227
100
AcDbEntity
  8
0
100
AcDbLine
 10
0.062476039016671
 20
-1.473787185857925
 30
0.0
 11
-0.0624760390166745
 21
-1.509303848227977
 31
0.0
  0
LINE
  5
236
330
227
100
AcDbEntity
  8
0
100
AcDbLine
 10
0.062476039016671
 20
-1.444305171248525
 30
0.0
 11
0.062476039016671
 21
-1.473787185857927
 31
0.0
  0
LINE
  5
237
330
227
100
AcDbEntity
  8
0
100
AcDbLine
 10
0.062476039016671
 20
-1.473787185857925
 30
0.0
 11
0.0994593599999991
 21
-1.495139516183175
 31
0.0
  0
LINE
  5
238
330
227
100
AcDbEntity
  8
0
100
AcDbLine
 10
0.0994593599999991
 20
-1.495139516183175
 30
0.0
 11
0.062476039016671
 21
-1.516491846508425
 31
0.0
  0
LINE
  5
239
330
227
100
AcDbEntity
  8
0
100
AcDbLine
 10
0.0994593599999991
 20
-1.423529516183174
 30
0.0
 11
-0.0994593600000009
 21
-1.459046178553225
 31
0.0
  0
LINE
  5
23A
330
227
100
AcDbEntity
  8
0
100
AcDbLine
 10
-0.0994593600000009
 20
-1.459046178553225
 30
0.0
 11
-0.0624760390166728
 21
-1.437693848227975
 31
0.0
  0
LINE
  5
23B
330
227
100
AcDbEntity
  8
0
100
AcDbLine
 10
-0.0624760390166745
 20
-1.438270523487875
 30
0.0
 11
-0.0624760390166728
 21
-1.408788508878474
 31
0.0
  0
LINE
  5
23C
330
227
100
AcDbEntity
  8
0
100
AcDbLine
 10
0.062476039016671
 20
-1.373271846508422
 30
0.0
 11
-0.0624760390166728
 21
-1.408788508878476
 31
0.0
  0
LINE
  5
23D
330
227
100
AcDbEntity
  8
0
100
AcDbLine
 10
-0.0624760390166728
 20
-1.408788508878476
 30
0.0
 11
-0.0994593600000009
 21
-1.387436178553224
 31
0.0
  0
LINE
  5
23E
330
227
100
AcDbEntity
  8
0
100
AcDbLine
 10
0.062476039016671
 20
-1.402177185857924
 30
0.0
 11
-0.0624760390166745
 21
-1.437693848227975
 31
0.0
  0
LINE
  5
23F
330
227
100
AcDbEntity
  8
0
100
AcDbLine
 10
0.062476039016671
 20
-1.372695171248524
 30
0.0
 11
0.062476039016671
 21
-1.402177185857925
 31
0.0
  0
LINE
  5
240
330
227
100
AcDbEntity
  8
0
100
AcDbLine
 10
0.062476039016671
 20
-1.402177185857924
 30
0.0
 11
0.0994593599999991
 21
-1.423529516183174
 31
0.0
  0
LINE
  5
241
330
227
100
AcDbEntity
  8
0
100
AcDbLine
 10
0.0994593599999991
 20
-1.423529516183174
 30
0.0
 11
0.062476039016671
 21
-1.444881846508424
 31
0.0
  0
LINE
  5
242
330
227
100
AcDbEntity
  8
0
100
AcDbLine
 10
0.0994593599999991
 20
-1.351919516183172
 30
0.0
 11
-0.0994593600000009
 21
-1.387436178553224
 31
0.0
  0
LINE
  5
243
330
227
100
AcDbEntity
  8
0
100
AcDbLine
 10
-0.0994593600000009
 20
-1.387436178553224
 30
0.0
 11
-0.0624760390166728
 21
-1.366083848227974
 31
0.0
  0
LINE
  5
244
330
227
100
AcDbEntity
  8
0
100
AcDbLine
 10
-0.0624760390166745
 20
-1.366660523487874
 30
0.0
 11
-0.0624760390166728
 21
-1.337178508878472
 31
0.0
  0
LINE
  5
245
330
227
100
AcDbEntity
  8
0
100
AcDbLine
 10
0.062476039016671
 20
-1.301661846508421
 30
0.0
 11
-0.0624760390166728
 21
-1.337178508878474
 31
0.0
  0
LINE
  5
246
330
227
100
AcDbEntity
  8
0
100
AcDbLine
 10
-0.0624760390166728
 20
-1.337178508878474
 30
0.0
 11
-0.0994593600000009
 21
-1.315826178553222
 31
0.0
  0
LINE
  5
247
330
227
100
AcDbEntity
  8
0
100
AcDbLine
 10
0.062476039016671
 20
-1.330567185857922
 30
0.0
 11
-0.0624760390166745
 21
-1.366083848227974
 31
0.0
  0
LINE
  5
248
330
227
100
AcDbEntity
  8
0
100
AcDbLine
 10
0.062476039016671
 20
-1.301085171248522
 30
0.0
 11
0.062476039016671
 21
-1.330567185857925
 31
0.0
  0
LINE
  5
249
330
227
100
AcDbEntity
  8
0
100
AcDbLine
 10
0.062476039016671
 20
-1.330567185857922
 30
0.0
 11
0.0994593599999991
 21
-1.351919516183172
 31
0.0
  0
LINE
  5
24A
330
227
100
AcDbEntity
  8
0
100
AcDbLine
 10
0.0994593599999991
 20
-1.351919516183172
 30
0.0
 11
0.062476039016671
 21
-1.373271846508422
 31
0.0
  0
LINE
  5
24B
330
227
100
AcDbEntity
  8
0
100
AcDbLine
 10
0.0994593599999991
 20
-1.280309516183171
 30
0.0
 11
-0.0994593600000009
 21
-1.315826178553222
 31
0.0
  0
LINE
  5
24C
330
227
100
AcDbEntity
  8
0
100
AcDbLine
 10
-0.0994593600000009
 20
-1.315826178553222
 30
0.0
 11
-0.0624760390166728
 21
-1.294473848227973
 31
0.0
  0
LINE
  5
24D
330
227
100
AcDbEntity
  8
0
100
AcDbLine
 10
0.0994593599999991
 20
-1.280309516183171
 30
0.0
 11
0.062476039016671
 21
-1.301661846508421
 31
0.0
  0
ARC
  5
24E
330
227
100
AcDbEntity
  8
0
100
AcDbCircle
 10
-0.000433840223244
 20
-1.886016649306523
 30
0.0
 40
0.03125
100
AcDbArc
 50
202.499999975583
 51
337.500000024416
  0
LINE
  5
24F
330
227
100
AcDbEntity
  8
0
100
AcDbLine
 10
-0.3039403194853296
 20
0.046875
 30
0.0
 11
0.303509713563022
 21
0.046875
 31
0.0
  0
LINE
  5
250
330
227
100
AcDbEntity
  8
0
100
AcDbLine
 10
-0.3039403194853296
 20
0.03125
 30
0.0
 11
0.303509713563022
 21
0.03125
 31
0.0
  0
LINE
  5
251
330
227
100
AcDbEntity
  8
0
100
AcDbLine
 10
-0.3039403194853296
 20
0.015625
 30
0.0
 11
0.303509713563022
 21
0.015625
 31
0.0
  0
LINE
  5
252
330
227
100
AcDbEntity
  8
0
100
AcDbLine
 10
-0.3039403194853296
 20
0.0
 30
0.0
 11
0.303509713563022
 21
0.0
 31
0.0
  0
LINE
  5
253
330
227
100
AcDbEntity
  8
0
100
AcDbLine
 10
-0.3039403194853296
 20
0.0625
 30
0.0
 11
0.303509713563022
 21
0.0625
 31
0.0
  0
LINE
  5
254
330
227
100
AcDbEntity
  8
0
100
AcDbLine
 10
0.0497083939686434
 20
-1.830307341021394
 30
0.0
 11
0.0657718628324613
 21
-1.846781384353356
 31
0.0
  0
LINE
  5
255
330
227
100
AcDbEntity
  8
0
100
AcDbLine
 10
0.0422488686893967
 20
-1.86463165983539
 30
0.0
 11
0.0657718628324613
 21
-1.846781384353356
 31
0.0
  0
LINE
  5
256
330
227
100
AcDbEntity
  8
0
100
AcDbLine
 10
0.0422488686893967
 20
-1.86463165983539
 30
0.0
 11
0.0284373951728299
 21
-1.897975506555629
 31
0.0
  0
LINE
  5
257
330
227
100
AcDbEntity
  8
0
100
AcDbLine
 10
0.0621773596203248
 20
-1.802675351121907
 30
0.0
 11
0.0497083939686434
 21
-1.830307341021394
 31
0.0
  0
LINE
  5
258
330
227
100
AcDbEntity
  8
0
100
AcDbLine
 10
-0.0337537345876449
 20
-1.887235493726974
 30
0.0
 11
-0.0293050756193178
 21
-1.897975506555629
 31
0.0
  0
LINE
  5
259
330
227
100
AcDbEntity
  8
0
100
AcDbLine
 10
-0.0712623513852755
 20
-1.87236065280221
 30
0.0
 11
-0.0538482121973552
 21
-1.859742505888399
 31
0.0
  0
LINE
  5
25A
330
227
100
AcDbEntity
  8
0
100
AcDbLine
 10
-0.0415053204264329
 20
-1.889540882636582
 30
0.0
 11
-0.0712623513852755
 21
-1.87236065280221
 31
0.0
  0
LINE
  5
25B
330
227
100
AcDbEntity
  8
0
100
AcDbLine
 10
-0.0415053204264329
 20
-1.889540882636582
 30
0.0
 11
0.0422488686893967
 21
-1.86463165983539
 31
0.0
  0
LINE
  5
25C
330
227
100
AcDbEntity
  8
0
100
AcDbLine
 10
-0.0712623513852755
 20
-1.87236065280221
 30
0.0
 11
0.0657718628324613
 21
-1.846781384353356
 31
0.0
  0
LINE
  5
25D
330
227
100
AcDbEntity
  8
0
100
AcDbLine
 10
0.0497083939686434
 20
-1.830307341021394
 30
0.0
 11
-0.0538482121973552
 21
-1.859742505888399
 31
0.0
  0
LINE
  5
25E
330
227
100
AcDbEntity
  8
0
100
AcDbLine
 10
-0.062774718413019
 20
-1.83819201349196
 30
0.0
 11
-0.0538482121973552
 21
-1.859742505888399
 31
0.0
  0
LINE
  5
25F
330
227
100
AcDbEntity
  8
0
100
AcDbLine
 10
0.0994690188352117
 20
-0.0629377916114784
 30
0.0
 11
0.0994690188352117
 21
0.0000024174339757
 31
0.0
  0
LINE
  5
260
330
227
100
AcDbEntity
  8
2
100
AcDbLine
 10
0.0
 20
-1.69306689390373
 30
0.0
 11
0.0
 21
0.3668767342373318
 31
0.0
  0
CIRCLE
  5
261
330
227
100
AcDbEntity
  8
2
100
AcDbCircle
 10
0.0
 20
0.0000000000000053
 30
0.0
 40
0.053398346037536
  0
LINE
  5
262
330
227
100
AcDbEntity
  8
0
100
AcDbLine
 10
-0.0994593600000009
 20
-0.0984561785532012
 30
0.0
 11
-0.0994593600000009
 21
0.0
 31
0.0
  0
LINE
  5
263
330
227
100
AcDbEntity
  8
0
100
AcDbLine
 10
0.0994690188352117
 20
-0.062933939652039
 30
0.0
 11
0.062476039016671
 21
-0.084291846508398
 31
0.0
  0
LINE
  5
264
330
227
100
AcDbEntity
  8
0
100
AcDbLine
 10
0.0994690188352117
 20
-0.0629377916114784
 30
0.0
 11
-0.0994593600000009
 21
-0.0984561785532012
 31
0.0
  0
LINE
  5
265
330
227
100
AcDbEntity
  8
0
100
AcDbLine
 10
0.0994593599999991
 20
-0.1345495161831494
 30
0.0
 11
0.062476039016671
 21
-0.1559018465083994
 31
0.0
  0
LINE
  5
266
330
227
100
AcDbEntity
  8
0
100
AcDbLine
 10
0.062476039016671
 20
-0.1131971858579011
 30
0.0
 11
0.0994593599999991
 21
-0.1345495161831494
 31
0.0
  0
LINE
  5
267
330
227
100
AcDbEntity
  8
0
100
AcDbLine
 10
0.062476039016671
 20
-0.0837151712484996
 30
0.0
 11
0.062476039016671
 21
-0.1131971858579028
 31
0.0
  0
LINE
  5
268
330
227
100
AcDbEntity
  8
0
100
AcDbLine
 10
0.062476039016671
 20
-0.1131971858579011
 30
0.0
 11
-0.0624760390166745
 21
-0.1487138482279526
 31
0.0
  0
LINE
  5
269
330
227
100
AcDbEntity
  8
0
100
AcDbLine
 10
-0.0624760390166728
 20
-0.1198085088784513
 30
0.0
 11
-0.0994593600000009
 21
-0.0984561785532012
 31
0.0
  0
LINE
  5
26A
330
227
100
AcDbEntity
  8
0
100
AcDbLine
 10
0.062476039016671
 20
-0.084291846508398
 30
0.0
 11
-0.0624760390166728
 21
-0.1198085088784513
 31
0.0
  0
LINE
  5
26B
330
227
100
AcDbEntity
  8
0
100
AcDbLine
 10
-0.0624760390166745
 20
-0.149290523487851
 30
0.0
 11
-0.0624760390166728
 21
-0.1198085088784513
 31
0.0
  0
LINE
  5
26C
330
227
100
AcDbEntity
  8
0
100
AcDbLine
 10
-0.0994593600000009
 20
-0.1700661785532009
 30
0.0
 11
-0.0624760390166728
 21
-0.1487138482279526
 31
0.0
  0
LINE
  5
26D
330
227
100
AcDbEntity
  8
0
100
AcDbLine
 10
0.0994593599999991
 20
-0.1345495161831494
 30
0.0
 11
-0.0994593600000009
 21
-0.1700661785532009
 31
0.0
  0
LINE
  5
26E
330
227
100
AcDbEntity
  8
0
100
AcDbLine
 10
0.0994593599999991
 20
-0.2061595161831509
 30
0.0
 11
0.062476039016671
 21
-0.2275118465084009
 31
0.0
  0
LINE
  5
26F
330
227
100
AcDbEntity
  8
0
100
AcDbLine
 10
0.062476039016671
 20
-0.1848071858579008
 30
0.0
 11
0.0994593599999991
 21
-0.2061595161831509
 31
0.0
  0
LINE
  5
270
330
227
100
AcDbEntity
  8
0
100
AcDbLine
 10
0.062476039016671
 20
-0.1553251712485011
 30
0.0
 11
0.062476039016671
 21
-0.1848071858579043
 31
0.0
  0
LINE
  5
271
330
227
100
AcDbEntity
  8
0
100
AcDbLine
 10
0.062476039016671
 20
-0.1848071858579008
 30
0.0
 11
-0.0624760390166745
 21
-0.2203238482279524
 31
0.0
  0
LINE
  5
272
330
227
100
AcDbEntity
  8
0
100
AcDbLine
 10
-0.0624760390166728
 20
-0.1914185088784528
 30
0.0
 11
-0.0994593600000009
 21
-0.1700661785532009
 31
0.0
  0
LINE
  5
273
330
227
100
AcDbEntity
  8
0
100
AcDbLine
 10
0.062476039016671
 20
-0.1559018465083994
 30
0.0
 11
-0.0624760390166728
 21
-0.1914185088784528
 31
0.0
  0
LINE
  5
274
330
227
100
AcDbEntity
  8
0
100
AcDbLine
 10
-0.0624760390166745
 20
-0.2209005234878525
 30
0.0
 11
-0.0624760390166728
 21
-0.191418508878451
 31
0.0
  0
LINE
  5
275
330
227
100
AcDbEntity
  8
0
100
AcDbLine
 10
-0.0994593600000009
 20
-0.2416761785532024
 30
0.0
 11
-0.0624760390166728
 21
-0.2203238482279524
 31
0.0
  0
LINE
  5
276
330
227
100
AcDbEntity
  8
0
100
AcDbLine
 10
0.0994593599999991
 20
-0.2061595161831509
 30
0.0
 11
-0.0994593600000009
 21
-0.2416761785532024
 31
0.0
  0
LINE
  5
277
330
227
100
AcDbEntity
  8
0
100
AcDbLine
 10
0.0994593599999991
 20
-0.2777695161831524
 30
0.0
 11
0.062476039016671
 21
-0.2991218465084024
 31
0.0
  0
LINE
  5
278
330
227
100
AcDbEntity
  8
0
100
AcDbLine
 10
0.062476039016671
 20
-0.2564171858579023
 30
0.0
 11
0.0994593599999991
 21
-0.2777695161831524
 31
0.0
  0
LINE
  5
279
330
227
100
AcDbEntity
  8
0
100
AcDbLine
 10
0.062476039016671
 20
-0.2269351712485026
 30
0.0
 11
0.062476039016671
 21
-0.2564171858579041
 31
0.0
  0
LINE
  5
27A
330
227
100
AcDbEntity
  8
0
100
AcDbLine
 10
0.062476039016671
 20
-0.2564171858579023
 30
0.0
 11
-0.0624760390166745
 21
-0.2919338482279539
 31
0.0
  0
LINE
  5
27B
330
227
100
AcDbEntity
  8
0
100
AcDbLine
 10
-0.0624760390166728
 20
-0.2630285088784543
 30
0.0
 11
-0.0994593600000009
 21
-0.2416761785532024
 31
0.0
  0
LINE
  5
27C
330
227
100
AcDbEntity
  8
0
100
AcDbLine
 10
0.062476039016671
 20
-0.2275118465084009
 30
0.0
 11
-0.0624760390166728
 21
-0.2630285088784543
 31
0.0
  0
LINE
  5
27D
330
227
100
AcDbEntity
  8
0
100
AcDbLine
 10
-0.0624760390166745
 20
-0.292510523487854
 30
0.0
 11
-0.0624760390166728
 21
-0.2630285088784525
 31
0.0
  0
LINE
  5
27E
330
227
100
AcDbEntity
  8
0
100
AcDbLine
 10
-0.0994593600000009
 20
-0.3132861785532039
 30
0.0
 11
-0.0624760390166728
 21
-0.2919338482279539
 31
0.0
  0
LINE
  5
27F
330
227
100
AcDbEntity
  8
0
100
AcDbLine
 10
0.0994593599999991
 20
-0.2777695161831524
 30
0.0
 11
-0.0994593600000009
 21
-0.3132861785532039
 31
0.0
  0
LINE
  5
280
330
227
100
AcDbEntity
  8
0
100
AcDbLine
 10
0.0994593599999991
 20
-0.3493795161831539
 30
0.0
 11
0.062476039016671
 21
-0.370731846508404
 31
0.0
  0
LINE
  5
281
330
227
100
AcDbEntity
  8
0
100
AcDbLine
 10
0.062476039016671
 20
-0.3280271858579038
 30
0.0
 11
0.0994593599999991
 21
-0.3493795161831539
 31
0.0
  0
LINE
  5
282
330
227
100
AcDbEntity
  8
0
100
AcDbLine
 10
0.062476039016671
 20
-0.2985451712485041
 30
0.0
 11
0.062476039016671
 21
-0.3280271858579056
 31
0.0
  0
LINE
  5
283
330
227
100
AcDbEntity
  8
0
100
AcDbLine
 10
0.062476039016671
 20
-0.3280271858579038
 30
0.0
 11
-0.0624760390166745
 21
-0.3635438482279554
 31
0.0
  0
LINE
  5
284
330
227
100
AcDbEntity
  8
0
100
AcDbLine
 10
-0.0624760390166728
 20
-0.3346385088784558
 30
0.0
 11
-0.0994593600000009
 21
-0.3132861785532039
 31
0.0
  0
LINE
  5
285
330
227
100
AcDbEntity
  8
0
100
AcDbLine
 10
0.062476039016671
 20
-0.2991218465084024
 30
0.0
 11
-0.0624760390166728
 21
-0.3346385088784558
 31
0.0
  0
LINE
  5
286
330
227
100
AcDbEntity
  8
0
100
AcDbLine
 10
-0.0624760390166745
 20
-0.3641205234878555
 30
0.0
 11
-0.0624760390166728
 21
-0.334638508878454
 31
0.0
  0
LINE
  5
287
330
227
100
AcDbEntity
  8
0
100
AcDbLine
 10
-0.0994593600000009
 20
-0.3848961785532054
 30
0.0
 11
-0.0624760390166728
 21
-0.3635438482279554
 31
0.0
  0
LINE
  5
288
330
227
100
AcDbEntity
  8
0
100
AcDbLine
 10
0.0994593599999991
 20
-0.3493795161831539
 30
0.0
 11
-0.0994593600000009
 21
-0.3848961785532054
 31
0.0
  0
LINE
  5
289
330
227
100
AcDbEntity
  8
0
100
AcDbLine
 10
0.0994593599999991
 20
-0.4209895161831554
 30
0.0
 11
0.062476039016671
 21
-0.4423418465084055
 31
0.0
  0
LINE
  5
28A
330
227
100
AcDbEntity
  8
0
100
AcDbLine
 10
0.062476039016671
 20
-0.3996371858579053
 30
0.0
 11
0.0994593599999991
 21
-0.4209895161831554
 31
0.0
  0
LINE
  5
28B
330
227
100
AcDbEntity
  8
0
100
AcDbLine
 10
0.062476039016671
 20
-0.3701551712485056
 30
0.0
 11
0.062476039016671
 21
-0.3996371858579071
 31
0.0
  0
LINE
  5
28C
330
227
100
AcDbEntity
  8
0
100
AcDbLine
 10
0.062476039016671
 20
-0.3996371858579053
 30
0.0
 11
-0.0624760390166745
 21
-0.4351538482279569
 31
0.0
  0
LINE
  5
28D
330
227
100
AcDbEntity
  8
0
100
AcDbLine
 10
-0.0624760390166728
 20
-0.4062485088784574
 30
0.0
 11
-0.0994593600000009
 21
-0.3848961785532054
 31
0.0
  0
LINE
  5
28E
330
227
100
AcDbEntity
  8
0
100
AcDbLine
 10
0.062476039016671
 20
-0.370731846508404
 30
0.0
 11
-0.0624760390166728
 21
-0.4062485088784574
 31
0.0
  0
LINE
  5
28F
330
227
100
AcDbEntity
  8
0
100
AcDbLine
 10
-0.0624760390166745
 20
-0.4357305234878571
 30
0.0
 11
-0.0624760390166728
 21
-0.4062485088784556
 31
0.0
  0
LINE
  5
290
330
227
100
AcDbEntity
  8
0
100
AcDbLine
 10
-0.0994593600000009
 20
-0.456506178553207
 30
0.0
 11
-0.0624760390166728
 21
-0.4351538482279569
 31
0.0
  0
LINE
  5
291
330
227
100
AcDbEntity
  8
0
100
AcDbLine
 10
0.0994593599999991
 20
-0.4209895161831554
 30
0.0
 11
-0.0994593600000009
 21
-0.456506178553207
 31
0.0
  0
LINE
  5
292
330
227
100
AcDbEntity
  8
0
100
AcDbLine
 10
0.0994593599999991
 20
-0.4925995161831569
 30
0.0
 11
0.062476039016671
 21
-0.513951846508407
 31
0.0
  0
LINE
  5
293
330
227
100
AcDbEntity
  8
0
100
AcDbLine
 10
0.062476039016671
 20
-0.4712471858579069
 30
0.0
 11
0.0994593599999991
 21
-0.4925995161831569
 31
0.0
  0
LINE
  5
294
330
227
100
AcDbEntity
  8
0
100
AcDbLine
 10
0.062476039016671
 20
-0.4417651712485072
 30
0.0
 11
0.062476039016671
 21
-0.4712471858579086
 31
0.0
  0
LINE
  5
295
330
227
100
AcDbEntity
  8
0
100
AcDbLine
 10
0.062476039016671
 20
-0.4712471858579069
 30
0.0
 11
-0.0624760390166745
 21
-0.5067638482279584
 31
0.0
  0
LINE
  5
296
330
227
100
AcDbEntity
  8
0
100
AcDbLine
 10
-0.0624760390166728
 20
-0.4778585088784589
 30
0.0
 11
-0.0994593600000009
 21
-0.456506178553207
 31
0.0
  0
LINE
  5
297
330
227
100
AcDbEntity
  8
0
100
AcDbLine
 10
0.062476039016671
 20
-0.4423418465084055
 30
0.0
 11
-0.0624760390166728
 21
-0.4778585088784589
 31
0.0
  0
LINE
  5
298
330
227
100
AcDbEntity
  8
0
100
AcDbLine
 10
-0.0624760390166745
 20
-0.5073405234878586
 30
0.0
 11
-0.0624760390166728
 21
-0.4778585088784571
 31
0.0
  0
LINE
  5
299
330
227
100
AcDbEntity
  8
0
100
AcDbLine
 10
-0.0994593600000009
 20
-0.5281161785532085
 30
0.0
 11
-0.0624760390166728
 21
-0.5067638482279584
 31
0.0
  0
LINE
  5
29A
330
227
100
AcDbEntity
  8
0
100
AcDbLine
 10
0.0994593599999991
 20
-0.4925995161831569
 30
0.0
 11
-0.0994593600000009
 21
-0.5281161785532085
 31
0.0
  0
LINE
  5
29B
330
227
100
AcDbEntity
  8
0
100
AcDbLine
 10
0.0994593599999991
 20
-0.5642095161831576
 30
0.0
 11
0.062476039016671
 21
-0.5855618465084076
 31
0.0
  0
LINE
  5
29C
330
227
100
AcDbEntity
  8
0
100
AcDbLine
 10
0.062476039016671
 20
-0.5428571858579084
 30
0.0
 11
0.0994593599999991
 21
-0.5642095161831576
 31
0.0
  0
LINE
  5
29D
330
227
100
AcDbEntity
  8
0
100
AcDbLine
 10
0.062476039016671
 20
-0.5133751712485087
 30
0.0
 11
0.062476039016671
 21
-0.5428571858579101
 31
0.0
  0
LINE
  5
29E
330
227
100
AcDbEntity
  8
0
100
AcDbLine
 10
0.062476039016671
 20
-0.5428571858579084
 30
0.0
 11
-0.0624760390166745
 21
-0.5783738482279599
 31
0.0
  0
LINE
  5
29F
330
227
100
AcDbEntity
  8
0
100
AcDbLine
 10
-0.0624760390166728
 20
-0.5494685088784604
 30
0.0
 11
-0.0994593600000009
 21
-0.5281161785532085
 31
0.0
  0
LINE
  5
2A0
330
227
100
AcDbEntity
  8
0
100
AcDbLine
 10
0.062476039016671
 20
-0.513951846508407
 30
0.0
 11
-0.0624760390166728
 21
-0.5494685088784604
 31
0.0
  0
LINE
  5
2A1
330
227
100
AcDbEntity
  8
0
100
AcDbLine
 10
-0.0624760390166745
 20
-0.5789505234878601
 30
0.0
 11
-0.0624760390166728
 21
-0.5494685088784586
 31
0.0
  0
LINE
  5
2A2
330
227
100
AcDbEntity
  8
0
100
AcDbLine
 10
-0.0994593600000009
 20
-0.59972617855321
 30
0.0
 11
-0.0624760390166728
 21
-0.5783738482279599
 31
0.0
  0
LINE
  5
2A3
330
227
100
AcDbEntity
  8
0
100
AcDbLine
 10
0.0994593599999991
 20
-0.5642095161831576
 30
0.0
 11
-0.0994593600000009
 21
-0.59972617855321
 31
0.0
  0
LINE
  5
2A4
330
227
100
AcDbEntity
  8
0
100
AcDbLine
 10
0.0994593599999991
 20
-0.6358195161831591
 30
0.0
 11
0.062476039016671
 21
-0.6571718465084082
 31
0.0
  0
LINE
  5
2A5
330
227
100
AcDbEntity
  8
0
100
AcDbLine
 10
0.062476039016671
 20
-0.6144671858579099
 30
0.0
 11
0.0994593599999991
 21
-0.6358195161831591
 31
0.0
  0
LINE
  5
2A6
330
227
100
AcDbEntity
  8
0
100
AcDbLine
 10
0.062476039016671
 20
-0.5849851712485102
 30
0.0
 11
0.062476039016671
 21
-0.6144671858579116
 31
0.0
  0
LINE
  5
2A7
330
227
100
AcDbEntity
  8
0
100
AcDbLine
 10
0.062476039016671
 20
-0.6144671858579099
 30
0.0
 11
-0.0624760390166745
 21
-0.6499838482279614
 31
0.0
  0
LINE
  5
2A8
330
227
100
AcDbEntity
  8
0
100
AcDbLine
 10
-0.0624760390166728
 20
-0.6210785088784619
 30
0.0
 11
-0.0994593600000009
 21
-0.59972617855321
 31
0.0
  0
LINE
  5
2A9
330
227
100
AcDbEntity
  8
0
100
AcDbLine
 10
0.062476039016671
 20
-0.5855618465084076
 30
0.0
 11
-0.0624760390166728
 21
-0.6210785088784619
 31
0.0
  0
LINE
  5
2AA
330
227
100
AcDbEntity
  8
0
100
AcDbLine
 10
-0.0624760390166745
 20
-0.6505605234878616
 30
0.0
 11
-0.0624760390166728
 21
-0.6210785088784592
 31
0.0
  0
LINE
  5
2AB
330
227
100
AcDbEntity
  8
0
100
AcDbLine
 10
-0.0994593600000009
 20
-0.6713361785532106
 30
0.0
 11
-0.0624760390166728
 21
-0.6499838482279614
 31
0.0
  0
LINE
  5
2AC
330
227
100
AcDbEntity
  8
0
100
AcDbLine
 10
0.0994593599999991
 20
-0.6358195161831591
 30
0.0
 11
-0.0994593600000009
 21
-0.6713361785532106
 31
0.0
  0
LINE
  5
2AD
330
227
100
AcDbEntity
  8
0
100
AcDbLine
 10
0.0994593599999991
 20
-0.7074295161831606
 30
0.0
 11
0.062476039016671
 21
-0.7287818465084098
 31
0.0
  0
LINE
  5
2AE
330
227
100
AcDbEntity
  8
0
100
AcDbLine
 10
0.062476039016671
 20
-0.6860771858579105
 30
0.0
 11
0.0994593599999991
 21
-0.7074295161831606
 31
0.0
  0
LINE
  5
2AF
330
227
100
AcDbEntity
  8
0
100
AcDbLine
 10
0.062476039016671
 20
-0.6565951712485108
 30
0.0
 11
0.062476039016671
 21
-0.6860771858579131
 31
0.0
  0
LINE
  5
2B0
330
227
100
AcDbEntity
  8
0
100
AcDbLine
 10
0.062476039016671
 20
-0.6860771858579105
 30
0.0
 11
-0.0624760390166745
 21
-0.7215938482279629
 31
0.0
  0
LINE
  5
2B1
330
227
100
AcDbEntity
  8
0
100
AcDbLine
 10
-0.0624760390166728
 20
-0.6926885088784625
 30
0.0
 11
-0.0994593600000009
 21
-0.6713361785532106
 31
0.0
  0
LINE
  5
2B2
330
227
100
AcDbEntity
  8
0
100
AcDbLine
 10
0.062476039016671
 20
-0.6571718465084082
 30
0.0
 11
-0.0624760390166728
 21
-0.6926885088784625
 31
0.0
  0
LINE
  5
2B3
330
227
100
AcDbEntity
  8
0
100
AcDbLine
 10
-0.0624760390166745
 20
-0.7221705234878622
 30
0.0
 11
-0.0624760390166728
 21
-0.6926885088784607
 31
0.0
  0
LINE
  5
2B4
330
227
100
AcDbEntity
  8
0
100
AcDbLine
 10
-0.0994593600000009
 20
-0.7429461785532121
 30
0.0
 11
-0.0624760390166728
 21
-0.7215938482279629
 31
0.0
  0
LINE
  5
2B5
330
227
100
AcDbEntity
  8
0
100
AcDbLine
 10
0.0994593599999991
 20
-0.7074295161831606
 30
0.0
 11
-0.0994593600000009
 21
-0.7429461785532121
 31
0.0
  0
LINE
  5
2B6
330
227
100
AcDbEntity
  8
0
100
AcDbLine
 10
0.0994593599999991
 20
-0.7790395161831621
 30
0.0
 11
0.062476039016671
 21
-0.8003918465084112
 31
0.0
  0
LINE
  5
2B7
330
227
100
AcDbEntity
  8
0
100
AcDbLine
 10
0.062476039016671
 20
-0.757687185857912
 30
0.0
 11
0.0994593599999991
 21
-0.7790395161831621
 31
0.0
  0
LINE
  5
2B8
330
227
100
AcDbEntity
  8
0
100
AcDbLine
 10
0.062476039016671
 20
-0.7282051712485123
 30
0.0
 11
0.062476039016671
 21
-0.7576871858579147
 31
0.0
  0
LINE
  5
2B9
330
227
100
AcDbEntity
  8
0
100
AcDbLine
 10
0.062476039016671
 20
-0.757687185857912
 30
0.0
 11
-0.0624760390166745
 21
-0.7932038482279636
 31
0.0
  0
LINE
  5
2BA
330
227
100
AcDbEntity
  8
0
100
AcDbLine
 10
-0.0624760390166728
 20
-0.764298508878464
 30
0.0
 11
-0.0994593600000009
 21
-0.7429461785532121
 31
0.0
  0
LINE
  5
2BB
330
227
100
AcDbEntity
  8
0
100
AcDbLine
 10
0.062476039016671
 20
-0.7287818465084098
 30
0.0
 11
-0.0624760390166728
 21
-0.764298508878464
 31
0.0
  0
LINE
  5
2BC
330
227
100
AcDbEntity
  8
0
100
AcDbLine
 10
-0.0624760390166745
 20
-0.7937805234878637
 30
0.0
 11
-0.0624760390166728
 21
-0.7642985088784613
 31
0.0
  0
LINE
  5
2BD
330
227
100
AcDbEntity
  8
0
100
AcDbLine
 10
-0.0994593600000009
 20
-0.8145561785532136
 30
0.0
 11
-0.0624760390166728
 21
-0.7932038482279636
 31
0.0
  0
LINE
  5
2BE
330
227
100
AcDbEntity
  8
0
100
AcDbLine
 10
0.0994593599999991
 20
-0.7790395161831621
 30
0.0
 11
-0.0994593600000009
 21
-0.8145561785532136
 31
0.0
  0
LINE
  5
2BF
330
227
100
AcDbEntity
  8
0
100
AcDbLine
 10
0.0994593599999991
 20
-0.8506495161831626
 30
0.0
 11
0.062476039016671
 21
-0.8720018465084127
 31
0.0
  0
LINE
  5
2C0
330
227
100
AcDbEntity
  8
0
100
AcDbLine
 10
0.062476039016671
 20
-0.8292971858579134
 30
0.0
 11
0.0994593599999991
 21
-0.8506495161831626
 31
0.0
  0
LINE
  5
2C1
330
227
100
AcDbEntity
  8
0
100
AcDbLine
 10
0.062476039016671
 20
-0.7998151712485138
 30
0.0
 11
0.062476039016671
 21
-0.8292971858579152
 31
0.0
  0
LINE
  5
2C2
330
227
100
AcDbEntity
  8
0
100
AcDbLine
 10
0.062476039016671
 20
-0.8292971858579134
 30
0.0
 11
-0.0624760390166745
 21
-0.864813848227965
 31
0.0
  0
LINE
  5
2C3
330
227
100
AcDbEntity
  8
0
100
AcDbLine
 10
-0.0624760390166728
 20
-0.8359085088784654
 30
0.0
 11
-0.0994593600000009
 21
-0.8145561785532136
 31
0.0
  0
LINE
  5
2C4
330
227
100
AcDbEntity
  8
0
100
AcDbLine
 10
0.062476039016671
 20
-0.8003918465084112
 30
0.0
 11
-0.0624760390166728
 21
-0.8359085088784654
 31
0.0
  0
LINE
  5
2C5
330
227
100
AcDbEntity
  8
0
100
AcDbLine
 10
-0.0624760390166745
 20
-0.8653905234878651
 30
0.0
 11
-0.0624760390166728
 21
-0.8359085088784627
 31
0.0
  0
LINE
  5
2C6
330
227
100
AcDbEntity
  8
0
100
AcDbLine
 10
-0.0994593600000009
 20
-0.8861661785532151
 30
0.0
 11
-0.0624760390166728
 21
-0.864813848227965
 31
0.0
  0
LINE
  5
2C7
330
227
100
AcDbEntity
  8
0
100
AcDbLine
 10
0.0994593599999991
 20
-0.8506495161831626
 30
0.0
 11
-0.0994593600000009
 21
-0.8861661785532151
 31
0.0
  0
LINE
  5
2C8
330
227
100
AcDbEntity
  8
0
100
AcDbLine
 10
0.0994593599999991
 20
-0.922259516183165
 30
0.0
 11
0.062476039016671
 21
-0.9436118465084142
 31
0.0
  0
LINE
  5
2C9
330
227
100
AcDbEntity
  8
0
100
AcDbLine
 10
0.062476039016671
 20
-0.9009071858579149
 30
0.0
 11
0.0994593599999991
 21
-0.922259516183165
 31
0.0
  0
LINE
  5
2CA
330
227
100
AcDbEntity
  8
0
100
AcDbLine
 10
0.062476039016671
 20
-0.8714251712485143
 30
0.0
 11
0.062476039016671
 21
-0.9009071858579176
 31
0.0
  0
LINE
  5
2CB
330
227
100
AcDbEntity
  8
0
100
AcDbLine
 10
0.062476039016671
 20
-0.9009071858579149
 30
0.0
 11
-0.0624760390166745
 21
-0.9364238482279665
 31
0.0
  0
LINE
  5
2CC
330
227
100
AcDbEntity
  8
0
100
AcDbLine
 10
-0.0624760390166728
 20
-0.907518508878466
 30
0.0
 11
-0.0994593600000009
 21
-0.8861661785532151
 31
0.0
  0
LINE
  5
2CD
330
227
100
AcDbEntity
  8
0
100
AcDbLine
 10
0.062476039016671
 20
-0.8720018465084127
 30
0.0
 11
-0.0624760390166728
 21
-0.907518508878466
 31
0.0
  0
LINE
  5
2CE
330
227
100
AcDbEntity
  8
0
100
AcDbLine
 10
-0.0624760390166745
 20
-0.9370005234878666
 30
0.0
 11
-0.0624760390166728
 21
-0.9075185088784643
 31
0.0
  0
LINE
  5
2CF
330
227
100
AcDbEntity
  8
0
100
AcDbLine
 10
-0.0994593600000009
 20
-0.9577761785532166
 30
0.0
 11
-0.0624760390166728
 21
-0.9364238482279665
 31
0.0
  0
LINE
  5
2D0
330
227
100
AcDbEntity
  8
0
100
AcDbLine
 10
0.0994593599999991
 20
-0.922259516183165
 30
0.0
 11
-0.0994593600000009
 21
-0.9577761785532166
 31
0.0
  0
LINE
  5
2D1
330
227
100
AcDbEntity
  8
0
100
AcDbLine
 10
0.0994593599999991
 20
-0.9938695161831656
 30
0.0
 11
0.062476039016671
 21
-1.015221846508415
 31
0.0
  0
LINE
  5
2D2
330
227
100
AcDbEntity
  8
0
100
AcDbLine
 10
0.062476039016671
 20
-0.9725171858579164
 30
0.0
 11
0.0994593599999991
 21
-0.9938695161831656
 31
0.0
  0
LINE
  5
2D3
330
227
100
AcDbEntity
  8
0
100
AcDbLine
 10
0.062476039016671
 20
-0.9430351712485158
 30
0.0
 11
0.062476039016671
 21
-0.9725171858579182
 31
0.0
  0
LINE
  5
2D4
330
227
100
AcDbEntity
  8
0
100
AcDbLine
 10
0.062476039016671
 20
-0.9725171858579164
 30
0.0
 11
-0.0624760390166745
 21
-1.008033848227968
 31
0.0
  0
LINE
  5
2D5
330
227
100
AcDbEntity
  8
0
100
AcDbLine
 10
-0.0624760390166728
 20
-0.9791285088784675
 30
0.0
 11
-0.0994593600000009
 21
-0.9577761785532166
 31
0.0
  0
LINE
  5
2D6
330
227
100
AcDbEntity
  8
0
100
AcDbLine
 10
0.062476039016671
 20
-0.9436118465084142
 30
0.0
 11
-0.0624760390166728
 21
-0.9791285088784675
 31
0.0
  0
LINE
  5
2D7
330
227
100
AcDbEntity
  8
0
100
AcDbLine
 10
-0.0624760390166745
 20
-1.008610523487868
 30
0.0
 11
-0.0624760390166728
 21
-0.9791285088784658
 31
0.0
  0
LINE
  5
2D8
330
227
100
AcDbEntity
  8
0
100
AcDbLine
 10
-0.0994593600000009
 20
-1.029386178553217
 30
0.0
 11
-0.0624760390166728
 21
-1.008033848227968
 31
0.0
  0
LINE
  5
2D9
330
227
100
AcDbEntity
  8
0
100
AcDbLine
 10
0.0994593599999991
 20
-0.9938695161831656
 30
0.0
 11
-0.0994593600000009
 21
-1.029386178553217
 31
0.0
  0
LINE
  5
2DA
330
227
100
AcDbEntity
  8
0
100
AcDbLine
 10
0.0994593599999991
 20
-1.065479516183167
 30
0.0
 11
0.062476039016671
 21
-1.086831846508417
 31
0.0
  0
LINE
  5
2DB
330
227
100
AcDbEntity
  8
0
100
AcDbLine
 10
0.062476039016671
 20
-1.044127185857917
 30
0.0
 11
0.0994593599999991
 21
-1.065479516183167
 31
0.0
  0
LINE
  5
2DC
330
227
100
AcDbEntity
  8
0
100
AcDbLine
 10
0.062476039016671
 20
-1.014645171248517
 30
0.0
 11
0.062476039016671
 21
-1.044127185857919
 31
0.0
  0
LINE
  5
2DD
330
227
100
AcDbEntity
  8
0
100
AcDbLine
 10
0.062476039016671
 20
-1.044127185857917
 30
0.0
 11
-0.0624760390166745
 21
-1.079643848227968
 31
0.0
  0
LINE
  5
2DE
330
227
100
AcDbEntity
  8
0
100
AcDbLine
 10
-0.0624760390166728
 20
-1.050738508878469
 30
0.0
 11
-0.0994593600000009
 21
-1.029386178553217
 31
0.0
  0
LINE
  5
2DF
330
227
100
AcDbEntity
  8
0
100
AcDbLine
 10
0.062476039016671
 20
-1.015221846508415
 30
0.0
 11
-0.0624760390166728
 21
-1.050738508878469
 31
0.0
  0
LINE
  5
2E0
330
227
100
AcDbEntity
  8
0
100
AcDbLine
 10
-0.0624760390166745
 20
-1.080220523487868
 30
0.0
 11
-0.0624760390166728
 21
-1.050738508878467
 31
0.0
  0
LINE
  5
2E1
330
227
100
AcDbEntity
  8
0
100
AcDbLine
 10
-0.0994593600000009
 20
-1.100996178553218
 30
0.0
 11
-0.0624760390166728
 21
-1.079643848227968
 31
0.0
  0
LINE
  5
2E2
330
227
100
AcDbEntity
  8
0
100
AcDbLine
 10
0.0994593599999991
 20
-1.065479516183167
 30
0.0
 11
-0.0994593600000009
 21
-1.100996178553218
 31
0.0
  0
LINE
  5
2E3
330
227
100
AcDbEntity
  8
0
100
AcDbLine
 10
0.0994593599999991
 20
-1.137089516183168
 30
0.0
 11
0.062476039016671
 21
-1.158441846508418
 31
0.0
  0
LINE
  5
2E4
330
227
100
AcDbEntity
  8
0
100
AcDbLine
 10
0.062476039016671
 20
-1.115737185857918
 30
0.0
 11
0.0994593599999991
 21
-1.137089516183168
 31
0.0
  0
LINE
  5
2E5
330
227
100
AcDbEntity
  8
0
100
AcDbLine
 10
0.062476039016671
 20
-1.086255171248518
 30
0.0
 11
0.062476039016671
 21
-1.11573718585792
 31
0.0
  0
LINE
  5
2E6
330
227
100
AcDbEntity
  8
0
100
AcDbLine
 10
0.062476039016671
 20
-1.115737185857918
 30
0.0
 11
-0.0624760390166745
 21
-1.15125384822797
 31
0.0
  0
LINE
  5
2E7
330
227
100
AcDbEntity
  8
0
100
AcDbLine
 10
-0.0624760390166728
 20
-1.12234850887847
 30
0.0
 11
-0.0994593600000009
 21
-1.100996178553218
 31
0.0
  0
LINE
  5
2E8
330
227
100
AcDbEntity
  8
0
100
AcDbLine
 10
0.062476039016671
 20
-1.086831846508417
 30
0.0
 11
-0.0624760390166728
 21
-1.12234850887847
 31
0.0
  0
LINE
  5
2E9
330
227
100
AcDbEntity
  8
0
100
AcDbLine
 10
-0.0624760390166745
 20
-1.15183052348787
 30
0.0
 11
-0.0624760390166728
 21
-1.122348508878468
 31
0.0
  0
LINE
  5
2EA
330
227
100
AcDbEntity
  8
0
100
AcDbLine
 10
-0.0994593600000009
 20
-1.17260617855322
 30
0.0
 11
-0.0624760390166728
 21
-1.15125384822797
 31
0.0
  0
LINE
  5
2EB
330
227
100
AcDbEntity
  8
0
100
AcDbLine
 10
0.0994593599999991
 20
-1.137089516183168
 30
0.0
 11
-0.0994593600000009
 21
-1.17260617855322
 31
0.0
  0
LINE
  5
2EC
330
227
100
AcDbEntity
  8
0
100
AcDbLine
 10
0.0994593599999991
 20
-1.20869951618317
 30
0.0
 11
0.062476039016671
 21
-1.230051846508419
 31
0.0
  0
LINE
  5
2ED
330
227
100
AcDbEntity
  8
0
100
AcDbLine
 10
0.062476039016671
 20
-1.18734718585792
 30
0.0
 11
0.0994593599999991
 21
-1.20869951618317
 31
0.0
  0
LINE
  5
2EE
330
227
100
AcDbEntity
  8
0
100
AcDbLine
 10
0.062476039016671
 20
-1.15786517124852
 30
0.0
 11
0.062476039016671
 21
-1.187347185857921
 31
0.0
  0
LINE
  5
2EF
330
227
100
AcDbEntity
  8
0
100
AcDbLine
 10
0.062476039016671
 20
-1.18734718585792
 30
0.0
 11
-0.0624760390166745
 21
-1.222863848227971
 31
0.0
  0
LINE
  5
2F0
330
227
100
AcDbEntity
  8
0
100
AcDbLine
 10
-0.0624760390166728
 20
-1.193958508878472
 30
0.0
 11
-0.0994593600000009
 21
-1.17260617855322
 31
0.0
  0
LINE
  5
2F1
330
227
100
AcDbEntity
  8
0
100
AcDbLine
 10
0.062476039016671
 20
-1.158441846508418
 30
0.0
 11
-0.0624760390166728
 21
-1.193958508878472
 31
0.0
  0
LINE
  5
2F2
330
227
100
AcDbEntity
  8
0
100
AcDbLine
 10
-0.0624760390166745
 20
-1.223440523487872
 30
0.0
 11
-0.0624760390166728
 21
-1.19395850887847
 31
0.0
  0
LINE
  5
2F3
330
227
100
AcDbEntity
  8
0
100
AcDbLine
 10
-0.0994593600000009
 20
-1.244216178553221
 30
0.0
 11
-0.0624760390166728
 21
-1.222863848227971
 31
0.0
  0
LINE
  5
2F4
330
227
100
AcDbEntity
  8
0
100
AcDbLine
 10
0.0994593599999991
 20
-1.20869951618317
 30
0.0
 11
-0.0994593600000009
 21
-1.244216178553221
 31
0.0
  0
LINE
  5
2F5
330
227
100
AcDbEntity
  8
0
100
AcDbLine
 10
0.0994593599999991
 20
-1.566749516183176
 30
0.0
 11
0.062476039016671
 21
-1.588101846508426
 31
0.0
  0
LINE
  5
2F6
330
227
100
AcDbEntity
  8
0
100
AcDbLine
 10
0.062476039016671
 20
-1.545397185857927
 30
0.0
 11
0.0994593599999991
 21
-1.566749516183176
 31
0.0
  0
LINE
  5
2F7
330
227
100
AcDbEntity
  8
0
100
AcDbLine
 10
0.062476039016671
 20
-1.515915171248527
 30
0.0
 11
0.062476039016671
 21
-1.545397185857928
 31
0.0
  0
LINE
  5
2F8
330
227
100
AcDbEntity
  8
0
100
AcDbLine
 10
0.062476039016671
 20
-1.545397185857927
 30
0.0
 11
-0.0624760390166745
 21
-1.580913848227979
 31
0.0
  0
LINE
  5
2F9
330
227
100
AcDbEntity
  8
0
100
AcDbLine
 10
-0.0624760390166728
 20
-1.552008508878479
 30
0.0
 11
-0.0994593600000009
 21
-1.530656178553227
 31
0.0
  0
LINE
  5
2FA
330
227
100
AcDbEntity
  8
0
100
AcDbLine
 10
0.062476039016671
 20
-1.516491846508425
 30
0.0
 11
-0.0624760390166728
 21
-1.552008508878479
 31
0.0
  0
LINE
  5
2FB
330
227
100
AcDbEntity
  8
0
100
AcDbLine
 10
-0.0624760390166745
 20
-1.581490523487878
 30
0.0
 11
-0.0624760390166728
 21
-1.552008508878476
 31
0.0
  0
LINE
  5
2FC
330
227
100
AcDbEntity
  8
0
100
AcDbLine
 10
-0.0994593600000009
 20
-1.602266178553228
 30
0.0
 11
-0.0624760390166728
 21
-1.580913848227979
 31
0.0
  0
LINE
  5
2FD
330
227
100
AcDbEntity
  8
0
100
AcDbLine
 10
0.0994593599999991
 20
-1.566749516183176
 30
0.0
 11
-0.0994593600000009
 21
-1.602266178553228
 31
0.0
  0
LINE
  5
2FE
330
227
100
AcDbEntity
  8
0
100
AcDbLine
 10
0.0994593599999991
 20
-1.638359516183178
 30
0.0
 11
0.062476039016671
 21
-1.659711846508428
 31
0.0
  0
LINE
  5
2FF
330
227
100
AcDbEntity
  8
0
100
AcDbLine
 10
0.062476039016671
 20
-1.617007185857928
 30
0.0
 11
0.0994593599999991
 21
-1.638359516183178
 31
0.0
  0
LINE
  5
300
330
227
100
AcDbEntity
  8
0
100
AcDbLine
 10
0.062476039016671
 20
-1.587525171248528
 30
0.0
 11
0.062476039016671
 21
-1.61700718585793
 31
0.0
  0
LINE
  5
301
330
227
100
AcDbEntity
  8
0
100
AcDbLine
 10
0.062476039016671
 20
-1.617007185857928
 30
0.0
 11
-0.0624760390166745
 21
-1.652523848227979
 31
0.0
  0
LINE
  5
302
330
227
100
AcDbEntity
  8
0
100
AcDbLine
 10
-0.0624760390166728
 20
-1.62361850887848
 30
0.0
 11
-0.0994593600000009
 21
-1.602266178553228
 31
0.0
  0
LINE
  5
303
330
227
100
AcDbEntity
  8
0
100
AcDbLine
 10
0.062476039016671
 20
-1.588101846508426
 30
0.0
 11
-0.0624760390166728
 21
-1.62361850887848
 31
0.0
  0
LINE
  5
304
330
227
100
AcDbEntity
  8
0
100
AcDbLine
 10
-0.0624760390166745
 20
-1.65310052348788
 30
0.0
 11
-0.0624760390166728
 21
-1.623618508878478
 31
0.0
  0
LINE
  5
305
330
227
100
AcDbEntity
  8
0
100
AcDbLine
 10
-0.0994593600000009
 20
-1.673876178553229
 30
0.0
 11
-0.0624760390166728
 21
-1.652523848227979
 31
0.0
  0
LINE
  5
306
330
227
100
AcDbEntity
  8
0
100
AcDbLine
 10
0.0994593599999991
 20
-1.638359516183178
 30
0.0
 11
-0.0994593600000009
 21
-1.673876178553229
 31
0.0
  0
LINE
  5
307
330
227
100
AcDbEntity
  8
0
100
AcDbLine
 10
0.0991606806036529
 20
-1.781323020796657
 30
0.0
 11
0.0621773596203248
 21
-1.802675351121906
 31
0.0
  0
LINE
  5
308
330
227
100
AcDbEntity
  8
0
100
AcDbLine
 10
0.062476039016671
 20
-1.68861718585793
 30
0.0
 11
0.0994593599999991
 21
-1.709969516183179
 31
0.0
  0
LINE
  5
309
330
227
100
AcDbEntity
  8
0
100
AcDbLine
 10
0.062476039016671
 20
-1.65913517124853
 30
0.0
 11
0.062476039016671
 21
-1.688617185857931
 31
0.0
  0
LINE
  5
30A
330
227
100
AcDbEntity
  8
0
100
AcDbLine
 10
0.062476039016671
 20
-1.68861718585793
 30
0.0
 11
-0.0624760390166745
 21
-1.724133848227981
 31
0.0
  0
LINE
  5
30B
330
227
100
AcDbEntity
  8
0
100
AcDbLine
 10
-0.0624760390166728
 20
-1.695228508878481
 30
0.0
 11
-0.0994593600000009
 21
-1.673876178553229
 31
0.0
  0
LINE
  5
30C
330
227
100
AcDbEntity
  8
0
100
AcDbLine
 10
0.062476039016671
 20
-1.659711846508428
 30
0.0
 11
-0.0624760390166728
 21
-1.695228508878481
 31
0.0
  0
LINE
  5
30D
330
227
100
AcDbEntity
  8
0
100
AcDbLine
 10
-0.0624760390166745
 20
-1.724710523487881
 30
0.0
 11
-0.0624760390166728
 21
-1.695228508878479
 31
0.0
  0
LINE
  5
30E
330
227
100
AcDbEntity
  8
0
100
AcDbLine
 10
-0.0994593600000009
 20
-1.745486178553231
 30
0.0
 11
-0.0624760390166728
 21
-1.724133848227981
 31
0.0
  0
LINE
  5
30F
330
227
100
AcDbEntity
  8
0
100
AcDbLine
 10
0.0991606806036529
 20
-1.781323020796657
 30
0.0
 11
-0.0997580393963471
 21
-1.816839683166708
 31
0.0
  0
LINE
  5
310
330
227
100
AcDbEntity
  8
0
100
AcDbLine
 10
-0.062774718413019
 20
-1.83819201349196
 30
0.0
 11
-0.0997580393963471
 21
-1.816839683166708
 31
0.0
  0
LINE
  5
311
330
227
100
AcDbEntity
  8
0
100
AcDbLine
 10
0.0621773596203248
 20
-1.802675351121906
 30
0.0
 11
-0.062774718413019
 21
-1.83819201349196
 31
0.0
  0
LINE
  5
312
330
227
100
AcDbEntity
  8
0
100
AcDbLine
 10
-0.1434376223577907
 20
0.2324251306114302
 30
0.0
 11
0.1438992351422099
 21
0.2324251306114267
 31
0.0
  0
LINE
  5
313
330
227
100
AcDbEntity
  8
1
100
AcDbLine
 10
-0.0656249807727516
 20
0.0
 30
0.0
 11
-0.0656249807727516
 21
0.0
 31
0.0
  0
LINE
  5
316
330
227
100
AcDbEntity
  8
0
100
AcDbLine
 10
0.2159062663922082
 20
0.125
 30
0.0
 11
0.2159062663922082
 21
0.1604180993614257
 31
0.0
  0
LINE
  5
317
330
227
100
AcDbEntity
  8
0
100
AcDbLine
 10
-0.2154446536077899
 20
0.125
 30
0.0
 11
-0.2154446536077899
 21
0.1604180993614275
 31
0.0
  0
LINE
  5
318
330
227
100
AcDbEntity
  8
0
100
AcDbLine
 10
-0.0000000000000018
 20
0.0
 30
0.0
 11
-0.0994593600000009
 21
0.0
 31
0.0
  0
LINE
  5
319
330
227
100
AcDbEntity
  8
0
100
AcDbLine
 10
-0.3039403194853296
 20
0.125
 30
0.0
 11
0.303509713563022
 21
0.125
 31
0.0
  0
ARC
  5
31A
330
227
100
AcDbEntity
  8
0
100
AcDbCircle
 10
-0.1434376223577907
 20
0.1604180993614275
 30
0.0
 40
0.07200703125
100
AcDbArc
 50
89.99999999999973
 51
180.0
  0
ARC
  5
31B
330
227
100
AcDbEntity
  8
0
100
AcDbCircle
 10
0.1438992351422099
 20
0.1604180993614275
 30
0.0
 40
0.07200703125
100
AcDbArc
 50
359.9999999999992
 51
89.99999999999968
  0
LINE
  5
31C
330
227
100
AcDbEntity
  8
0
100
AcDbLine
 10
0.303509713563022
 20
0.0
 30
0.0
 11
0.303509713563022
 21
0.125
 31
0.0
  0
LINE
  5
31D
330
227
100
AcDbEntity
  8
0
100
AcDbLine
 10
-0.3039403194853296
 20
0.0
 30
0.0
 11
-0.3039403194853296
 21
0.125
 31
0.0
  0
LINE
  5
31E
330
227
100
AcDbEntity
  8
0
100
AcDbLine
 10
-0.0997580393963471
 20
-1.816839683166708
 30
0.0
 11
-0.062774718413019
 21
-1.795487352841458
 31
0.0
  0
LINE
  5
31F
330
227
100
AcDbEntity
  8
0
100
AcDbLine
 10
0.0621773596203248
 20
-1.759970690471407
 30
0.0
 11
-0.0627747184130207
 21
-1.795487352841458
 31
0.0
  0
LINE
  5
320
330
227
100
AcDbEntity
  8
0
100
AcDbLine
 10
0.0621773596203248
 20
-1.759970690471407
 30
0.0
 11
0.0991606806036529
 21
-1.781323020796657
 31
0.0
  0
LINE
  5
321
330
227
100
AcDbEntity
  8
0
100
AcDbLine
 10
-0.0627747184130207
 20
-1.796064028101359
 30
0.0
 11
-0.062774718413019
 21
-1.766582013491957
 31
0.0
  0
LINE
  5
322
330
227
100
AcDbEntity
  8
0
100
AcDbLine
 10
-0.062774718413019
 20
-1.766582013491959
 30
0.0
 11
-0.0997580393963471
 21
-1.745229683166707
 31
0.0
  0
LINE
  5
323
330
227
100
AcDbEntity
  8
0
100
AcDbLine
 10
0.0621773596203248
 20
-1.731065351121905
 30
0.0
 11
-0.062774718413019
 21
-1.766582013491959
 31
0.0
  0
LINE
  5
324
330
227
100
AcDbEntity
  8
0
100
AcDbLine
 10
0.0991606806036529
 20
-1.709713020796656
 30
0.0
 11
0.0621773596203248
 21
-1.731065351121905
 31
0.0
  0
LINE
  5
325
330
227
100
AcDbEntity
  8
0
100
AcDbLine
 10
0.0621773596203248
 20
-1.730488675862007
 30
0.0
 11
0.0621773596203248
 21
-1.759970690471408
 31
0.0
  0
ENDBLK
  5
326
330
227
100
AcDbEntity
  8
5
100
AcDbBlockEnd
  0
BLOCK
  5
90
330
8F
100
AcDbEntity
  8
0
 62
     0
100
AcDbBlockBegin
  2
purlin fin
 70
     0
 10
0.0
 20
0.0
 30
0.0
  3
purlin fin
  1

  0
LINE
  5
91
330
8F
100
AcDbEntity
  8
0
  6
Continuous
 62
     0
100
AcDbLine
 10
4.887215926865481
 20
-49.52591724314613
 30
0.0
 11
4.887215926865481
 21
-49.94291724314613
 31
0.0
  0
LINE
  5
92
330
8F
100
AcDbEntity
  8
0
  6
Continuous
 62
     0
100
AcDbLine
 10
2.887215926865481
 20
-49.52591724314613
 30
0.0
 11
2.887215926865481
 21
-49.94291724314613
 31
0.0
  0
LINE
  5
93
330
8F
100
AcDbEntity
  8
0
  6
Continuous
 62
     0
100
AcDbLine
 10
3.012215926865481
 20
-48.33991724314614
 30
0.0
 11
3.012215926865481
 21
-49.64091724314613
 31
0.0
  0
LINE
  5
94
330
8F
100
AcDbEntity
  8
0
  6
Continuous
 62
     0
100
AcDbLine
 10
4.762215926865481
 20
-48.33991724314614
 30
0.0
 11
4.762215926865481
 21
-49.64091724314613
 31
0.0
  0
ARC
  5
95
330
8F
100
AcDbEntity
  8
0
  6
Continuous
 62
     0
100
AcDbCircle
 10
3.012215926865481
 20
-49.70291724314613
 30
0.0
 40
0.062
100
AcDbArc
 50
90.00000000000019
 51
269.0605377690504
  0
ARC
  5
96
330
8F
100
AcDbEntity
  8
0
  6
Continuous
 62
     0
100
AcDbCircle
 10
2.897215926865481
 20
-49.94291724314613
 30
0.0
 40
0.01
100
AcDbArc
 50
180.0
 51
270.0000000000135
  0
ARC
  5
97
330
8F
100
AcDbEntity
  8
0
  6
Continuous
 62
     0
100
AcDbCircle
 10
2.911034977793034
 20
-49.94291724314614
 30
0.0
 40
0.01
100
AcDbArc
 50
270.0
 51
333.439999999999
  0
LINE
  5
98
330
8F
100
AcDbEntity
  8
0
  6
Continuous
 62
     0
100
AcDbLine
 10
2.911034977793034
 20
-49.95291724314613
 30
0.0
 11
2.897215926865484
 21
-49.95291724314612
 31
0.0
  0
LINE
  5
99
330
8F
100
AcDbEntity
  8
0
  6
Continuous
 62
     0
100
AcDbLine
 10
2.919979643930309
 20
-49.94738859055968
 30
0.0
 11
3.011199376451242
 21
-49.76490890891867
 31
0.0
  0
LINE
  5
9A
330
8F
100
AcDbEntity
  8
0
  6
Continuous
 62
     0
100
AcDbLine
 10
4.854452209800653
 20
-49.94738859055968
 30
0.0
 11
4.76323247727972
 21
-49.76490890891867
 31
0.0
  0
LINE
  5
9B
330
8F
100
AcDbEntity
  8
0
  6
Continuous
 62
     0
100
AcDbLine
 10
4.863396875937928
 20
-49.95291724314613
 30
0.0
 11
4.877215926865479
 21
-49.95291724314612
 31
0.0
  0
ARC
  5
9C
330
8F
100
AcDbEntity
  8
0
  6
Continuous
 62
     0
100
AcDbCircle
 10
4.863396875937928
 20
-49.94291724314614
 30
0.0
 40
0.01
100
AcDbArc
 50
206.560000000001
 51
270.0
  0
ARC
  5
9D
330
8F
100
AcDbEntity
  8
0
  6
Continuous
 62
     0
100
AcDbCircle
 10
4.877215926865481
 20
-49.94291724314613
 30
0.0
 40
0.01
100
AcDbArc
 50
269.9999999999865
 51
0.0000000000000064
  0
ARC
  5
9E
330
8F
100
AcDbEntity
  8
0
  6
Continuous
 62
     0
100
AcDbCircle
 10
4.762215926865481
 20
-49.70291724314613
 30
0.0
 40
0.062
100
AcDbArc
 50
270.9394622309496
 51
89.9999999999998
  0
LINE
  5
9F
330
8F
100
AcDbEntity
  8
0
  6
Continuous
 62
     0
100
AcDbLine
 10
3.397215926865481
 20
-48.20491724314614
 30
0.0
 11
3.814715926865481
 21
-48.20491724314615
 31
0.0
  0
LINE
  5
A0
330
8F
100
AcDbEntity
  8
0
  6
Continuous
 62
     0
100
AcDbLine
 10
3.022215926865481
 20
-48.32991724314614
 30
0.0
 11
4.752215926865481
 21
-48.32991724314616
 31
0.0
  0
LINE
  5
A1
330
8F
100
AcDbEntity
  8
0
  6
Continuous
 62
     0
100
AcDbLine
 10
3.037215926865481
 20
-48.12991724314614
 30
0.0
 11
3.074715926865481
 21
-48.12991724314614
 31
0.0
  0
LINE
  5
A2
330
8F
100
AcDbEntity
  8
0
  6
Continuous
 62
     0
100
AcDbLine
 10
3.199715926865481
 20
-48.12991724314614
 30
0.0
 11
3.237215926865481
 21
-48.12991724314615
 31
0.0
  0
ARC
  5
A3
330
8F
100
AcDbEntity
  8
0
  6
Continuous
 62
     0
100
AcDbCircle
 10
3.137215926865481
 20
-48.04791724314614
 30
0.0
 40
0.188
100
AcDbArc
 50
237.8650719958524
 51
302.1349280041475
  0
LINE
  5
A4
330
8F
100
AcDbEntity
  8
0
  6
Continuous
 62
     0
100
AcDbLine
 10
3.037215926865481
 20
-48.12991724314614
 30
0.0
 11
3.037215926865481
 21
-48.2071152330832
 31
0.0
  0
LINE
  5
A5
330
8F
100
AcDbEntity
  8
0
  6
Continuous
 62
     0
100
AcDbLine
 10
3.237215926865481
 20
-48.12991724314615
 30
0.0
 11
3.237215926865481
 21
-48.2071152330832
 31
0.0
  0
ARC
  5
A6
330
8F
100
AcDbEntity
  8
0
  6
Continuous
 62
     0
100
AcDbCircle
 10
3.231715926865481
 20
-48.11191724314614
 30
0.0
 40
0.032
100
AcDbArc
 50
90.0
 51
180.0
  0
LINE
  5
A7
330
8F
100
AcDbEntity
  8
0
  6
Continuous
 62
     0
100
AcDbLine
 10
3.199715926865481
 20
-48.11191724314614
 30
0.0
 11
3.199715926865481
 21
-48.12991724314614
 31
0.0
  0
ARC
  5
A8
330
8F
100
AcDbEntity
  8
0
  6
Continuous
 62
     0
100
AcDbCircle
 10
3.042715926865481
 20
-48.11191724314613
 30
0.0
 40
0.032
100
AcDbArc
 50
0.0
 51
90.0
  0
LINE
  5
A9
330
8F
100
AcDbEntity
  8
0
  6
Continuous
 62
     0
100
AcDbLine
 10
3.074715926865481
 20
-48.11191724314613
 30
0.0
 11
3.074715926865481
 21
-48.12991724314614
 31
0.0
  0
ARC
  5
AA
330
8F
100
AcDbEntity
  8
0
  6
Continuous
 62
     0
100
AcDbCircle
 10
3.022215926865481
 20
-48.33991724314614
 30
0.0
 40
0.01
100
AcDbArc
 50
89.99999999999934
 51
180.0
  0
ARC
  5
AB
330
8F
100
AcDbEntity
  8
0
  6
Continuous
 62
     0
100
AcDbCircle
 10
3.397215926865481
 20
-48.19491724314613
 30
0.0
 40
0.01
100
AcDbArc
 50
180.0
 51
269.9999999999989
  0
ARC
  5
AC
330
8F
100
AcDbEntity
  8
0
  6
Continuous
 62
     0
100
AcDbCircle
 10
2.897215926865481
 20
-48.08991724314614
 30
0.0
 40
0.01
100
AcDbArc
 50
90.00000000000261
 51
180.0
  0
LINE
  5
AD
330
8F
100
AcDbEntity
  8
0
  6
Continuous
 62
     0
100
AcDbLine
 10
2.897215926865481
 20
-48.07991724314614
 30
0.0
 11
3.042715926865481
 21
-48.07991724314613
 31
0.0
  0
ARC
  5
AE
330
8F
100
AcDbEntity
  8
0
  6
Continuous
 62
     0
100
AcDbCircle
 10
3.377215926865481
 20
-48.08991724314615
 30
0.0
 40
0.01
100
AcDbArc
 50
0.0
 51
90.0
  0
LINE
  5
AF
330
8F
100
AcDbEntity
  8
0
  6
Continuous
 62
     0
100
AcDbLine
 10
3.387215926865481
 20
-48.08991724314615
 30
0.0
 11
3.387215926865481
 21
-48.19491724314613
 31
0.0
  0
LINE
  5
B0
330
8F
100
AcDbEntity
  8
0
  6
Continuous
 62
     0
100
AcDbLine
 10
3.231715926865481
 20
-48.07991724314614
 30
0.0
 11
3.377215926865481
 21
-48.07991724314614
 31
0.0
  0
LINE
  5
B1
330
8F
100
AcDbEntity
  8
0
  6
Continuous
 62
     0
100
AcDbLine
 10
2.897215926865481
 20
-49.51591724314614
 30
0.0
 11
2.887215926865481
 21
-49.52591724314613
 31
0.0
  0
LINE
  5
B2
330
8F
100
AcDbEntity
  8
0
  6
Continuous
 62
     0
100
AcDbLine
 10
2.897215926865481
 20
-49.51591724314614
 30
0.0
 11
2.887215926865481
 21
-49.50591724314615
 31
0.0
  0
LINE
  5
B3
330
8F
100
AcDbEntity
  8
0
  6
Continuous
 62
     0
100
AcDbLine
 10
2.887215926865481
 20
-48.08991724314614
 30
0.0
 11
2.887215926865481
 21
-49.50591724314615
 31
0.0
  0
LINE
  5
B4
330
8F
100
AcDbEntity
  8
0
  6
Continuous
 62
     0
100
AcDbLine
 10
3.949715926865481
 20
-47.44491724314617
 30
0.0
 11
3.949715926865481
 21
-47.09191724314614
 31
0.0
  0
LINE
  5
B5
330
8F
100
AcDbEntity
  8
0
  6
Continuous
 62
     0
100
AcDbLine
 10
3.834715926865481
 20
-47.08191724314613
 30
0.0
 11
3.939715926865481
 21
-47.08191724314614
 31
0.0
  0
ARC
  5
B6
330
8F
100
AcDbEntity
  8
0
  6
Continuous
 62
     0
100
AcDbCircle
 10
3.939715926865481
 20
-47.09191724314614
 30
0.0
 40
0.01
100
AcDbArc
 50
0.0
 51
89.99999999999646
  0
LINE
  5
B7
330
8F
100
AcDbEntity
  8
0
  6
Continuous
 62
     0
100
AcDbLine
 10
3.824715926865481
 20
-47.44491724314618
 30
0.0
 11
3.824715926865481
 21
-47.09191724314613
 31
0.0
  0
ARC
  5
B8
330
8F
100
AcDbEntity
  8
0
  6
Continuous
 62
     0
100
AcDbCircle
 10
3.834715926865481
 20
-47.09191724314613
 30
0.0
 40
0.01
100
AcDbArc
 50
90.0
 51
180.0
  0
LINE
  5
B9
330
8F
100
AcDbEntity
  8
0
  6
Continuous
 62
     0
100
AcDbLine
 10
3.95971592686548
 20
-48.20491724314614
 30
0.0
 11
4.377215926865481
 21
-48.20491724314615
 31
0.0
  0
LINE
  5
BA
330
8F
100
AcDbEntity
  8
0
  6
Continuous
 62
     0
100
AcDbLine
 10
3.94971592686548
 20
-48.19491724314614
 30
0.0
 11
3.949715926865481
 21
-47.77731274101898
 31
0.0
  0
ARC
  5
BB
330
8F
100
AcDbEntity
  8
0
  6
Continuous
 62
     0
100
AcDbCircle
 10
3.95971592686548
 20
-48.19491724314614
 30
0.0
 40
0.01
100
AcDbArc
 50
180.0
 51
269.999999999999
  0
LINE
  5
BC
330
8F
100
AcDbEntity
  8
0
  6
Continuous
 62
     0
100
AcDbLine
 10
3.824715926865481
 20
-48.19491724314615
 30
0.0
 11
3.824715926865481
 21
-47.77731274101895
 31
0.0
  0
ARC
  5
BD
330
8F
100
AcDbEntity
  8
0
  6
Continuous
 62
     0
100
AcDbCircle
 10
3.814715926865481
 20
-48.19491724314615
 30
0.0
 40
0.01
100
AcDbArc
 50
269.9999999999991
 51
360.0
  0
LINE
  5
BE
330
8F
100
AcDbEntity
  8
0
  6
Continuous
 62
     0
100
AcDbLine
 10
3.824715926865481
 20
-47.75731274101898
 30
0.0
 11
3.824715926865481
 21
-47.46491724314618
 31
0.0
  0
LINE
  5
BF
330
8F
100
AcDbEntity
  8
0
  6
Continuous
 62
     0
100
AcDbLine
 10
3.834715926865471
 20
-47.45491724314617
 30
0.0
 11
3.824715926865472
 21
-47.44491724314617
 31
0.0
  0
LINE
  5
C0
330
8F
100
AcDbEntity
  8
0
  6
Continuous
 62
     0
100
AcDbLine
 10
3.834715926865471
 20
-47.45491724314617
 30
0.0
 11
3.824715926865486
 21
-47.46491724314618
 31
0.0
  0
LINE
  5
C1
330
8F
100
AcDbEntity
  8
0
  6
Continuous
 62
     0
100
AcDbLine
 10
3.834715926865451
 20
-47.76731274101896
 30
0.0
 11
3.824715926865465
 21
-47.77731274101897
 31
0.0
  0
LINE
  5
C2
330
8F
100
AcDbEntity
  8
0
  6
Continuous
 62
     0
100
AcDbLine
 10
3.834715926865451
 20
-47.76731274101895
 30
0.0
 11
3.824715926865451
 21
-47.75731274101896
 31
0.0
  0
LINE
  5
C3
330
8F
100
AcDbEntity
  8
0
  6
Continuous
 62
     0
100
AcDbLine
 10
3.824715926865464
 20
-47.75731274101898
 30
0.0
 11
3.824715926865471
 21
-47.4649172431462
 31
0.0
  0
LINE
  5
C4
330
8F
100
AcDbEntity
  8
0
  6
Continuous
 62
     0
100
AcDbLine
 10
3.949715926865481
 20
-47.75731274101898
 30
0.0
 11
3.949715926865481
 21
-47.4649172431462
 31
0.0
  0
LINE
  5
C5
330
8F
100
AcDbEntity
  8
0
  6
Continuous
 62
     0
100
AcDbLine
 10
3.939715926865494
 20
-47.76731274101895
 30
0.0
 11
3.949715926865493
 21
-47.75731274101896
 31
0.0
  0
LINE
  5
C6
330
8F
100
AcDbEntity
  8
0
  6
Continuous
 62
     0
100
AcDbLine
 10
3.939715926865494
 20
-47.76731274101896
 30
0.0
 11
3.949715926865479
 21
-47.77731274101897
 31
0.0
  0
LINE
  5
C7
330
8F
100
AcDbEntity
  8
0
  6
Continuous
 62
     0
100
AcDbLine
 10
3.939715926865481
 20
-47.45491724314617
 30
0.0
 11
3.949715926865467
 21
-47.46491724314618
 31
0.0
  0
LINE
  5
C8
330
8F
100
AcDbEntity
  8
0
  6
Continuous
 62
     0
100
AcDbLine
 10
3.939715926865481
 20
-47.45491724314617
 30
0.0
 11
3.949715926865481
 21
-47.44491724314617
 31
0.0
  0
LINE
  5
C9
330
8F
100
AcDbEntity
  8
0
  6
Continuous
 62
     0
100
AcDbLine
 10
4.699715926865481
 20
-48.11191724314613
 30
0.0
 11
4.699715926865481
 21
-48.12991724314614
 31
0.0
  0
ARC
  5
CA
330
8F
100
AcDbEntity
  8
0
  6
Continuous
 62
     0
100
AcDbCircle
 10
4.731715926865481
 20
-48.11191724314613
 30
0.0
 40
0.032
100
AcDbArc
 50
90.0
 51
180.0
  0
LINE
  5
CB
330
8F
100
AcDbEntity
  8
0
  6
Continuous
 62
     0
100
AcDbLine
 10
4.574715926865481
 20
-48.11191724314614
 30
0.0
 11
4.574715926865481
 21
-48.12991724314614
 31
0.0
  0
ARC
  5
CC
330
8F
100
AcDbEntity
  8
0
  6
Continuous
 62
     0
100
AcDbCircle
 10
4.542715926865481
 20
-48.11191724314614
 30
0.0
 40
0.032
100
AcDbArc
 50
0.0000000000000064
 51
90.0
  0
LINE
  5
CD
330
8F
100
AcDbEntity
  8
0
  6
Continuous
 62
     0
100
AcDbLine
 10
4.537215926865481
 20
-48.12991724314615
 30
0.0
 11
4.537215926865481
 21
-48.2071152330832
 31
0.0
  0
LINE
  5
CE
330
8F
100
AcDbEntity
  8
0
  6
Continuous
 62
     0
100
AcDbLine
 10
4.737215926865481
 20
-48.12991724314614
 30
0.0
 11
4.737215926865481
 21
-48.2071152330832
 31
0.0
  0
ARC
  5
CF
330
8F
100
AcDbEntity
  8
0
  6
Continuous
 62
     0
100
AcDbCircle
 10
4.637215926865481
 20
-48.04791724314614
 30
0.0
 40
0.188
100
AcDbArc
 50
237.8650719958525
 51
302.1349280041476
  0
LINE
  5
D0
330
8F
100
AcDbEntity
  8
0
  6
Continuous
 62
     0
100
AcDbLine
 10
4.574715926865481
 20
-48.12991724314614
 30
0.0
 11
4.537215926865481
 21
-48.12991724314615
 31
0.0
  0
LINE
  5
D1
330
8F
100
AcDbEntity
  8
0
  6
Continuous
 62
     0
100
AcDbLine
 10
4.737215926865481
 20
-48.12991724314614
 30
0.0
 11
4.699715926865481
 21
-48.12991724314614
 31
0.0
  0
ARC
  5
D2
330
8F
100
AcDbEntity
  8
0
  6
Continuous
 62
     0
100
AcDbCircle
 10
4.752215926865481
 20
-48.33991724314614
 30
0.0
 40
0.01
100
AcDbArc
 50
0.0
 51
90.00000000000133
  0
ARC
  5
D3
330
8F
100
AcDbEntity
  8
0
  6
Continuous
 62
     0
100
AcDbCircle
 10
4.377215926865481
 20
-48.19491724314615
 30
0.0
 40
0.01
100
AcDbArc
 50
270.0
 51
0.0
  0
ARC
  5
D4
330
8F
100
AcDbEntity
  8
0
  6
Continuous
 62
     0
100
AcDbCircle
 10
4.397215926865481
 20
-48.08991724314615
 30
0.0
 40
0.01
100
AcDbArc
 50
90.0
 51
180.0
  0
LINE
  5
D5
330
8F
100
AcDbEntity
  8
0
  6
Continuous
 62
     0
100
AcDbLine
 10
4.542715926865481
 20
-48.07991724314614
 30
0.0
 11
4.397215926865481
 21
-48.07991724314614
 31
0.0
  0
LINE
  5
D6
330
8F
100
AcDbEntity
  8
0
  6
Continuous
 62
     0
100
AcDbLine
 10
4.387215926865481
 20
-48.08991724314615
 30
0.0
 11
4.387215926865481
 21
-48.19491724314615
 31
0.0
  0
ARC
  5
D7
330
8F
100
AcDbEntity
  8
0
  6
Continuous
 62
     0
100
AcDbCircle
 10
4.877215926865481
 20
-48.08991724314615
 30
0.0
 40
0.01
100
AcDbArc
 50
0.0
 51
89.99999999999735
  0
LINE
  5
D8
330
8F
100
AcDbEntity
  8
0
  6
Continuous
 62
     0
100
AcDbLine
 10
4.877215926865481
 20
-48.07991724314614
 30
0.0
 11
4.731715926865481
 21
-48.07991724314613
 31
0.0
  0
LINE
  5
D9
330
8F
100
AcDbEntity
  8
0
  6
Continuous
 62
     0
100
AcDbLine
 10
4.877215926865481
 20
-49.51591724314614
 30
0.0
 11
4.887215926865481
 21
-49.50591724314615
 31
0.0
  0
LINE
  5
DA
330
8F
100
AcDbEntity
  8
0
  6
Continuous
 62
     0
100
AcDbLine
 10
4.877215926865481
 20
-49.51591724314614
 30
0.0
 11
4.887215926865481
 21
-49.52591724314613
 31
0.0
  0
LINE
  5
DB
330
8F
100
AcDbEntity
  8
0
  6
Continuous
 62
     0
100
AcDbLine
 10
4.887215926865481
 20
-48.08991724314615
 30
0.0
 11
4.887215926865481
 21
-49.50591724314615
 31
0.0
  0
ENDBLK
  5
DC
330
8F
100
AcDbEntity
  8
0
 62
     0
100
AcDbBlockEnd
  0
BLOCK
  5
64
330
63
100
AcDbEntity
  8
0
 62
     0
100
AcDbBlockBegin
  2
snap bottom
 70
     0
 10
0.0
 20
0.0
 30
0.0
  3
snap bottom
  1

  0
ARC
  5
65
330
63
100
AcDbEntity
  8
0
  6
Continuous
 62
     0
100
AcDbCircle
 10
8.146588015093087
 20
-55.6325175405397
 30
0.0
 40
0.054
100
AcDbArc
 50
270.0000000000009
 51
89.99999999999909
  0
LINE
  5
66
330
63
100
AcDbEntity
  8
0
  6
Continuous
 62
     0
100
AcDbLine
 10
8.084588015093085
 20
-55.26751754053969
 30
0.0
 11
8.084588015093089
 21
-55.87251754053971
 31
0.0
  0
ARC
  5
67
330
63
100
AcDbEntity
  8
0
  6
Continuous
 62
     0
100
AcDbCircle
 10
6.396588015093087
 20
-55.6325175405397
 30
0.0
 40
0.054
100
AcDbArc
 50
90.0000000000009
 51
269.9999999999991
  0
LINE
  5
68
330
63
100
AcDbEntity
  8
0
  6
Continuous
 62
     0
100
AcDbLine
 10
6.458588015093087
 20
-55.26751754053969
 30
0.0
 11
6.458588015093085
 21
-55.87251754053971
 31
0.0
  0
LINE
  5
69
330
63
100
AcDbEntity
  8
0
  6
Continuous
 62
     0
100
AcDbLine
 10
6.031588015093086
 20
-56.00751754053971
 30
0.0
 11
8.511588015093087
 21
-56.0075175405397
 31
0.0
  0
LINE
  5
6A
330
63
100
AcDbEntity
  8
0
  6
Continuous
 62
     0
100
AcDbLine
 10
6.468588015093085
 20
-55.8825175405397
 30
0.0
 11
8.074588015093087
 21
-55.8825175405397
 31
0.0
  0
ARC
  5
6B
330
63
100
AcDbEntity
  8
0
  6
Continuous
 62
     0
100
AcDbCircle
 10
6.386588015093088
 20
-55.87251754053969
 30
0.0
 40
0.01
100
AcDbArc
 50
270.0
 51
0.0000000000002685
  0
LINE
  5
6C
330
63
100
AcDbEntity
  8
0
  6
Continuous
 62
     0
100
AcDbLine
 10
6.396588015093086
 20
-55.6865175405397
 30
0.0
 11
6.396588015093088
 21
-55.87251754053969
 31
0.0
  0
ARC
  5
6D
330
63
100
AcDbEntity
  8
0
  6
Continuous
 62
     0
100
AcDbCircle
 10
6.468588015093085
 20
-55.87251754053971
 30
0.0
 40
0.01
100
AcDbArc
 50
179.9999999999999
 51
270.0000000000005
  0
ARC
  5
6E
330
63
100
AcDbEntity
  8
0
  6
Continuous
 62
     0
100
AcDbCircle
 10
6.093588015093087
 20
-55.8725175405397
 30
0.0
 40
0.01
100
AcDbArc
 50
180.0000000000002
 51
270.0000000000013
  0
LINE
  5
6F
330
63
100
AcDbEntity
  8
0
  6
Continuous
 62
     0
100
AcDbLine
 10
6.093588015093087
 20
-55.8825175405397
 30
0.0
 11
6.386588015093088
 21
-55.8825175405397
 31
0.0
  0
ARC
  5
70
330
63
100
AcDbEntity
  8
0
  6
Continuous
 62
     0
100
AcDbCircle
 10
6.073588015093087
 20
-55.64251754053969
 30
0.0
 40
0.01
100
AcDbArc
 50
0.0000000000002176
 51
90.00000000000003
  0
LINE
  5
71
330
63
100
AcDbEntity
  8
0
  6
Continuous
 62
     0
100
AcDbLine
 10
6.083588015093087
 20
-55.64251754053969
 30
0.0
 11
6.083588015093087
 21
-55.8725175405397
 31
0.0
  0
ARC
  5
72
330
63
100
AcDbEntity
  8
0
  6
Continuous
 62
     0
100
AcDbCircle
 10
6.031588015093087
 20
-55.64251754053969
 30
0.0
 40
0.01
100
AcDbArc
 50
90.00000000000785
 51
180.0
  0
LINE
  5
73
330
63
100
AcDbEntity
  8
0
  6
Continuous
 62
     0
100
AcDbLine
 10
6.031588015093086
 20
-55.6325175405397
 30
0.0
 11
6.073588015093087
 21
-55.63251754053969
 31
0.0
  0
ARC
  5
74
330
63
100
AcDbEntity
  8
0
  6
Continuous
 62
     0
100
AcDbCircle
 10
6.031588015093086
 20
-55.99751754053971
 30
0.0
 40
0.01
100
AcDbArc
 50
179.9999999999998
 51
270.0
  0
LINE
  5
75
330
63
100
AcDbEntity
  8
0
  6
Continuous
 62
     0
100
AcDbLine
 10
6.021588015093087
 20
-55.99751754053971
 30
0.0
 11
6.021588015093088
 21
-55.64251754053969
 31
0.0
  0
ARC
  5
76
330
63
100
AcDbEntity
  8
0
  6
Continuous
 62
     0
100
AcDbCircle
 10
8.511588015093087
 20
-55.9975175405397
 30
0.0
 40
0.01
100
AcDbArc
 50
270.0000000000002
 51
0.0
  0
ARC
  5
77
330
63
100
AcDbEntity
  8
0
  6
Continuous
 62
     0
100
AcDbCircle
 10
8.449588015093087
 20
-55.87251754053971
 30
0.0
 40
0.01
100
AcDbArc
 50
269.9999999999987
 51
0.0
  0
ARC
  5
78
330
63
100
AcDbEntity
  8
0
  6
Continuous
 62
     0
100
AcDbCircle
 10
8.511588015093087
 20
-55.6425175405397
 30
0.0
 40
0.01
100
AcDbArc
 50
0.0
 51
90.00000000000003
  0
LINE
  5
79
330
63
100
AcDbEntity
  8
0
  6
Continuous
 62
     0
100
AcDbLine
 10
8.521588015093087
 20
-55.9975175405397
 30
0.0
 11
8.521588015093087
 21
-55.6425175405397
 31
0.0
  0
ARC
  5
7A
330
63
100
AcDbEntity
  8
0
  6
Continuous
 62
     0
100
AcDbCircle
 10
8.469588015093089
 20
-55.64251754053969
 30
0.0
 40
0.01
100
AcDbArc
 50
89.99999999999216
 51
180.0
  0
LINE
  5
7B
330
63
100
AcDbEntity
  8
0
  6
Continuous
 62
     0
100
AcDbLine
 10
8.511588015093087
 20
-55.63251754053971
 30
0.0
 11
8.469588015093091
 21
-55.63251754053969
 31
0.0
  0
LINE
  5
7C
330
63
100
AcDbEntity
  8
0
  6
Continuous
 62
     0
100
AcDbLine
 10
8.459588015093089
 20
-55.64251754053969
 30
0.0
 11
8.459588015093087
 21
-55.87251754053971
 31
0.0
  0
ARC
  5
7D
330
63
100
AcDbEntity
  8
0
  6
Continuous
 62
     0
100
AcDbCircle
 10
8.156588015093085
 20
-55.87251754053969
 30
0.0
 40
0.01
100
AcDbArc
 50
179.9999999999997
 51
270.0
  0
LINE
  5
7E
330
63
100
AcDbEntity
  8
0
  6
Continuous
 62
     0
100
AcDbLine
 10
8.146588015093087
 20
-55.6865175405397
 30
0.0
 11
8.146588015093087
 21
-55.87251754053969
 31
0.0
  0
ARC
  5
7F
330
63
100
AcDbEntity
  8
0
  6
Continuous
 62
     0
100
AcDbCircle
 10
8.074588015093087
 20
-55.87251754053971
 30
0.0
 40
0.01
100
AcDbArc
 50
269.9999999999995
 51
0.0000000000000649
  0
LINE
  5
80
330
63
100
AcDbEntity
  8
0
  6
Continuous
 62
     0
100
AcDbLine
 10
8.156588015093085
 20
-55.8825175405397
 30
0.0
 11
8.449588015093087
 21
-55.8825175405397
 31
0.0
  0
ARC
  5
81
330
63
100
AcDbEntity
  8
0
  6
Continuous
 62
     0
100
AcDbCircle
 10
6.406588015093085
 20
-55.31389060749866
 30
0.0
 40
0.01
100
AcDbArc
 50
149.9999999999993
 51
180.0
  0
LINE
  5
82
330
63
100
AcDbEntity
  8
0
  6
Continuous
 62
     0
100
AcDbLine
 10
6.396588015093085
 20
-55.31389060749866
 30
0.0
 11
6.396588015093086
 21
-55.5785175405397
 31
0.0
  0
ARC
  5
83
330
63
100
AcDbEntity
  8
0
  6
Continuous
 62
     0
100
AcDbCircle
 10
6.433361517784994
 20
-55.26751754053969
 30
0.0
 40
0.01
100
AcDbArc
 50
90.00000000000003
 51
150.0000000000011
  0
LINE
  5
84
330
63
100
AcDbEntity
  8
0
  6
Continuous
 62
     0
100
AcDbLine
 10
6.424701263747149
 20
-55.26251754053969
 30
0.0
 11
6.397927761055241
 21
-55.30889060749866
 31
0.0
  0
ARC
  5
85
330
63
100
AcDbEntity
  8
0
  6
Continuous
 62
     0
100
AcDbCircle
 10
6.448588015093087
 20
-55.26751754053969
 30
0.0
 40
0.01
100
AcDbArc
 50
0.0
 51
90.00000000000003
  0
LINE
  5
86
330
63
100
AcDbEntity
  8
0
  6
Continuous
 62
     0
100
AcDbLine
 10
6.433361517784994
 20
-55.2575175405397
 30
0.0
 11
6.448588015093087
 21
-55.2575175405397
 31
0.0
  0
ARC
  5
87
330
63
100
AcDbEntity
  8
0
  6
Continuous
 62
     0
100
AcDbCircle
 10
8.136588015093089
 20
-55.31389060749866
 30
0.0
 40
0.01
100
AcDbArc
 50
0.0
 51
30.00000000000071
  0
LINE
  5
88
330
63
100
AcDbEntity
  8
0
  6
Continuous
 62
     0
100
AcDbLine
 10
8.146588015093088
 20
-55.31389060749866
 30
0.0
 11
8.146588015093087
 21
-55.5785175405397
 31
0.0
  0
ARC
  5
89
330
63
100
AcDbEntity
  8
0
  6
Continuous
 62
     0
100
AcDbCircle
 10
8.109814512401179
 20
-55.26751754053969
 30
0.0
 40
0.01
100
AcDbArc
 50
29.99999999999893
 51
90.00000000000003
  0
LINE
  5
8A
330
63
100
AcDbEntity
  8
0
  6
Continuous
 62
     0
100
AcDbLine
 10
8.118474766439025
 20
-55.26251754053969
 30
0.0
 11
8.145248269130933
 21
-55.30889060749866
 31
0.0
  0
ARC
  5
8B
330
63
100
AcDbEntity
  8
0
  6
Continuous
 62
     0
100
AcDbCircle
 10
8.094588015093087
 20
-55.26751754053969
 30
0.0
 40
0.01
100
AcDbArc
 50
90.00000000000003
 51
180.0
  0
LINE
  5
8C
330
63
100
AcDbEntity
  8
0
  6
Continuous
 62
     0
100
AcDbLine
 10
8.109814512401179
 20
-55.2575175405397
 30
0.0
 11
8.094588015093087
 21
-55.2575175405397
 31
0.0
  0
ENDBLK
  5
8D
330
63
100
AcDbEntity
  8
0
 62
     0
100
AcDbBlockEnd
  0
BLOCK
  5
FE
330
FD
100
AcDbEntity
  8
0
100
AcDbBlockBegin
  2
*X4
 70
     1
 10
0.0
 20
0.0
 30
0.0
  3
*X4
  1

  0
LINE
  5
FF
330
FD
100
AcDbEntity
  8
0
 62
     0
100
AcDbLine
 10
6.455653718588217
 20
3.485805237604717
 30
0.0
 11
6.482008789598947
 21
3.512160308615448
 31
0.0
  0
LINE
  5
100
330
FD
100
AcDbEntity
  8
0
 62
     0
100
AcDbLine
 10
6.420298379528889
 20
3.485805237604717
 30
0.0
 11
6.482008789598947
 21
3.547515647674775
 31
0.0
  0
LINE
  5
101
330
FD
100
AcDbEntity
  8
0
 62
     0
100
AcDbLine
 10
6.384943040469562
 20
3.485805237604717
 30
0.0
 11
6.482008789598947
 21
3.582870986734103
 31
0.0
  0
LINE
  5
102
330
FD
100
AcDbEntity
  8
0
 62
     0
100
AcDbLine
 10
6.349587701410235
 20
3.485805237604717
 30
0.0
 11
6.482008789598947
 21
3.61822632579343
 31
0.0
  0
LINE
  5
103
330
FD
100
AcDbEntity
  8
0
 62
     0
100
AcDbLine
 10
6.314232362350908
 20
3.485805237604717
 30
0.0
 11
6.482008789598947
 21
3.653581664852757
 31
0.0
  0
LINE
  5
104
330
FD
100
AcDbEntity
  8
0
 62
     0
100
AcDbLine
 10
6.27887702329158
 20
3.485805237604717
 30
0.0
 11
6.482008789598947
 21
3.688937003912085
 31
0.0
  0
LINE
  5
105
330
FD
100
AcDbEntity
  8
0
 62
     0
100
AcDbLine
 10
6.243521684232253
 20
3.485805237604717
 30
0.0
 11
6.482008789598947
 21
3.724292342971412
 31
0.0
  0
LINE
  5
106
330
FD
100
AcDbEntity
  8
0
 62
     0
100
AcDbLine
 10
6.208166345172926
 20
3.485805237604717
 30
0.0
 11
6.482008789598947
 21
3.75964768203074
 31
0.0
  0
LINE
  5
107
330
FD
100
AcDbEntity
  8
0
 62
     0
100
AcDbLine
 10
6.172811006113598
 20
3.485805237604717
 30
0.0
 11
6.482008789598947
 21
3.795003021090066
 31
0.0
  0
LINE
  5
108
330
FD
100
AcDbEntity
  8
0
 62
     0
100
AcDbLine
 10
6.13745566705427
 20
3.485805237604717
 30
0.0
 11
6.482008789598947
 21
3.830358360149394
 31
0.0
  0
LINE
  5
109
330
FD
100
AcDbEntity
  8
0
 62
     0
100
AcDbLine
 10
6.107041342511141
 20
3.490746252120915
 30
0.0
 11
6.477067775082751
 21
3.860772684692525
 31
0.0
  0
LINE
  5
10A
330
FD
100
AcDbEntity
  8
0
 62
     0
100
AcDbLine
 10
6.10944813505911
 20
3.528508383728212
 30
0.0
 11
6.439305643475454
 21
3.858365892144556
 31
0.0
  0
LINE
  5
10B
330
FD
100
AcDbEntity
  8
0
 62
     0
100
AcDbLine
 10
6.116884707869568
 20
3.571300295597997
 30
0.0
 11
6.396513731605669
 21
3.850929319334097
 31
0.0
  0
LINE
  5
10C
330
FD
100
AcDbEntity
  8
0
 62
     0
100
AcDbLine
 10
6.132862699926207
 20
3.622633626713963
 30
0.0
 11
6.345180400489703
 21
3.834951327277459
 31
0.0
  0
LINE
  5
10D
330
FD
100
AcDbEntity
  8
0
 62
     0
100
AcDbLine
 10
6.172699196925758
 20
3.697825462772842
 30
0.0
 11
6.269988564430825
 21
3.795114830277908
 31
0.0
  0
LINE
  5
10E
330
FD
100
AcDbEntity
  8
0
 62
     0
100
AcDbLine
 10
6.482008789598947
 20
3.47680496955612
 30
0.0
 11
6.491009057647545
 21
3.485805237604717
 31
0.0
  0
LINE
  5
10F
330
FD
100
AcDbEntity
  8
0
 62
     0
100
AcDbLine
 10
6.482008789598947
 20
3.441449630496793
 30
0.0
 11
6.526364396706872
 21
3.485805237604717
 31
0.0
  0
LINE
  5
110
330
FD
100
AcDbEntity
  8
0
 62
     0
100
AcDbLine
 10
6.482008789598947
 20
3.406094291437466
 30
0.0
 11
6.5617197357662
 21
3.485805237604717
 31
0.0
  0
LINE
  5
111
330
FD
100
AcDbEntity
  8
0
 62
     0
100
AcDbLine
 10
6.482008789598947
 20
3.370738952378138
 30
0.0
 11
6.597075074825526
 21
3.485805237604717
 31
0.0
  0
LINE
  5
112
330
FD
100
AcDbEntity
  8
0
 62
     0
100
AcDbLine
 10
6.482008789598947
 20
3.335383613318811
 30
0.0
 11
6.632430413884853
 21
3.485805237604717
 31
0.0
  0
LINE
  5
113
330
FD
100
AcDbEntity
  8
0
 62
     0
100
AcDbLine
 10
6.482008789598947
 20
3.300028274259484
 30
0.0
 11
6.667785752944181
 21
3.485805237604717
 31
0.0
  0
LINE
  5
114
330
FD
100
AcDbEntity
  8
0
 62
     0
100
AcDbLine
 10
6.482008789598947
 20
3.264672935200156
 30
0.0
 11
6.703141092003509
 21
3.485805237604717
 31
0.0
  0
LINE
  5
115
330
FD
100
AcDbEntity
  8
0
 62
     0
100
AcDbLine
 10
6.482008789598947
 20
3.229317596140829
 30
0.0
 11
6.738496431062836
 21
3.485805237604717
 31
0.0
  0
LINE
  5
116
330
FD
100
AcDbEntity
  8
0
 62
     0
100
AcDbLine
 10
6.482008789598947
 20
3.193962257081501
 30
0.0
 11
6.773851770122163
 21
3.485805237604717
 31
0.0
  0
LINE
  5
117
330
FD
100
AcDbEntity
  8
0
 62
     0
100
AcDbLine
 10
6.482008789598947
 20
3.158606918022174
 30
0.0
 11
6.809207109181491
 21
3.485805237604717
 31
0.0
  0
LINE
  5
118
330
FD
100
AcDbEntity
  8
0
 62
     0
100
AcDbLine
 10
6.482008789598947
 20
3.123251578962847
 30
0.0
 11
6.844562448240818
 21
3.485805237604717
 31
0.0
  0
LINE
  5
119
330
FD
100
AcDbEntity
  8
0
 62
     0
100
AcDbLine
 10
6.505664664989164
 20
3.111552115293735
 30
0.0
 11
6.85626191190993
 21
3.462149362214502
 31
0.0
  0
LINE
  5
11A
330
FD
100
AcDbEntity
  8
0
 62
     0
100
AcDbLine
 10
6.545725937059539
 20
3.116258048304783
 30
0.0
 11
6.851555978898883
 21
3.422088090144127
 31
0.0
  0
LINE
  5
11B
330
FD
100
AcDbEntity
  8
0
 62
     0
100
AcDbLine
 10
6.592175968206674
 20
3.127352740392591
 30
0.0
 11
6.840461286811075
 21
3.375638058996992
 31
0.0
  0
LINE
  5
11C
330
FD
100
AcDbEntity
  8
0
 62
     0
100
AcDbLine
 10
6.651444518775554
 20
3.151265951902144
 30
0.0
 11
6.816548075301522
 21
3.316369508428111
 31
0.0
  0
ENDBLK
  5
11D
330
FD
100
AcDbEntity
  8
0
100
AcDbBlockEnd
  0
BLOCK
  5
FA
330
F9
100
AcDbEntity
  8
0
100
AcDbBlockBegin
  2
work point
 70
     0
 10
0.0
 20
0.0
 30
0.0
  3
work point
  1

  0
LINE
  5
FB
330
F9
100
AcDbEntity
  8
0
100
AcDbLine
 10
0.6056250806605572
 20
-88.19980482706348
 30
0.0
 11
1.070572365767889
 21
-88.19980482706348
 31
0.0
  0
INSERT
  5
FC
330
F9
100
AcDbEntity
  8
0
100
AcDbBlockReference
  2
*X4
 10
-0.7831360848958014
 20
-89.07165010974274
 30
0.0
 41
0.2501130221717222
 42
0.2501130221716889
 43
0.2501130221716889
  0
CIRCLE
  5
11E
330
F9
100
AcDbEntity
  8
0
100
AcDbCircle
 10
0.8380987232142231
 20
-88.19980482706348
 30
0.0
 40
0.0937923833143834
  0
LINE
  5
11F
330
F9
100
AcDbEntity
  8
0
100
AcDbLine
 10
0.8380987232142231
 20
-87.96733118450983
 30
0.0
 11
0.8380987232142231
 21
-88.43227846961726
 31
0.0
  0
ENDBLK
  5
120
330
F9
100
AcDbEntity
  8
0
100
AcDbBlockEnd
  0
BLOCK
  5
418
330
417
100
AcDbEntity
  8
0
100
AcDbBlockBegin
  2
ANCHOR
 70
     0
 10
0.0
 20
0.0
 30
0.0
  3
ANCHOR
  1

  0
LINE
  5
419
330
417
100
AcDbEntity
  8
0
100
AcDbLine
 10
36.61486367758931
 20
-20.49970755084456
 30
0.0
 11
36.6773636775893
 21
-20.56178279941014
 31
0.0
  0
LINE
  5
41A
330
417
100
AcDbEntity
  8
0
100
AcDbLine
 10
36.6773636775893
 20
-20.56178279941014
 30
0.0
 11
36.61486367758931
 21
-20.62427482391687
 31
0.0
  0
LINE
  5
41B
330
417
100
AcDbEntity
  8
0
100
AcDbLine
 10
36.6773636775893
 20
-20.81178279941015
 30
0.0
 11
36.61486367758931
 21
-20.87427482391688
 31
0.0
  0
LINE
  5
41C
330
417
100
AcDbEntity
  8
0
100
AcDbLine
 10
36.61486367758931
 20
-20.74970755084457
 30
0.0
 11
36.6773636775893
 21
-20.81178279941015
 31
0.0
  0
LINE
  5
41D
330
417
100
AcDbEntity
  8
0
100
AcDbLine
 10
36.6773636775893
 20
-21.06178279941016
 30
0.0
 11
36.61486367758931
 21
-21.12427482391689
 31
0.0
  0
LINE
  5
41E
330
417
100
AcDbEntity
  8
0
100
AcDbLine
 10
36.61486367758931
 20
-20.99970755084457
 30
0.0
 11
36.6773636775893
 21
-21.06178279941016
 31
0.0
  0
LINE
  5
41F
330
417
100
AcDbEntity
  8
0
100
AcDbLine
 10
36.6773636775893
 20
-20.42115779941013
 30
0.0
 11
36.61486367758931
 21
-20.48364982391687
 31
0.0
  0
LINE
  5
420
330
417
100
AcDbEntity
  8
0
100
AcDbLine
 10
36.6773636775893
 20
-21.31178279941016
 30
0.0
 11
36.61486367758931
 21
-21.37427482391689
 31
0.0
  0
LINE
  5
421
330
417
100
AcDbEntity
  8
0
100
AcDbLine
 10
36.61486367758931
 20
-21.24970755084458
 30
0.0
 11
36.6773636775893
 21
-21.31178279941016
 31
0.0
  0
LINE
  5
422
330
417
100
AcDbEntity
  8
0
100
AcDbLine
 10
36.6773636775893
 20
-21.56178279941016
 30
0.0
 11
36.61486367758931
 21
-21.6242748239169
 31
0.0
  0
LINE
  5
423
330
417
100
AcDbEntity
  8
0
100
AcDbLine
 10
36.61486367758931
 20
-21.49970755084459
 30
0.0
 11
36.6773636775893
 21
-21.56178279941016
 31
0.0
  0
LINE
  5
424
330
417
100
AcDbEntity
  8
0
100
AcDbLine
 10
36.6773636775893
 20
-21.81178279941017
 30
0.0
 11
36.61486367758931
 21
-21.87427482391691
 31
0.0
  0
LINE
  5
425
330
417
100
AcDbEntity
  8
0
100
AcDbLine
 10
36.61486367758931
 20
-21.74970755084459
 30
0.0
 11
36.6773636775893
 21
-21.81178279941017
 31
0.0
  0
LINE
  5
426
330
417
100
AcDbEntity
  8
0
100
AcDbLine
 10
36.3023636775893
 20
-21.37428279941016
 30
0.0
 11
36.6773636775893
 21
-21.31178279941016
 31
0.0
  0
LINE
  5
427
330
417
100
AcDbEntity
  8
0
100
AcDbLine
 10
36.3023636775893
 20
-21.62428279941017
 30
0.0
 11
36.6773636775893
 21
-21.56178279941016
 31
0.0
  0
LINE
  5
428
330
417
100
AcDbEntity
  8
0
100
AcDbLine
 10
36.3023636775893
 20
-21.87428279941018
 30
0.0
 11
36.6773636775893
 21
-21.81178279941017
 31
0.0
  0
LINE
  5
429
330
417
100
AcDbEntity
  8
0
100
AcDbLine
 10
36.11486367758929
 20
-19.53095755084453
 30
0.0
 11
36.86486367758931
 21
-19.53095755084453
 31
0.0
  0
LINE
  5
42A
330
417
100
AcDbEntity
  8
0
100
AcDbLine
 10
36.86486367758931
 20
-19.26533255084453
 30
0.0
 11
36.11486367758929
 21
-19.26533255084453
 31
0.0
  0
LINE
  5
42B
330
417
100
AcDbEntity
  8
0
100
AcDbLine
 10
36.3023636775893
 20
-19.53095755084453
 30
0.0
 11
36.6773636775893
 21
-19.53095755084453
 31
0.0
  0
LINE
  5
42C
330
417
100
AcDbEntity
  8
0
100
AcDbLine
 10
36.3023636775893
 20
-20.62428279941014
 30
0.0
 11
36.6773636775893
 21
-20.56178279941014
 31
0.0
  0
LINE
  5
42D
330
417
100
AcDbEntity
  8
0
100
AcDbLine
 10
36.3023636775893
 20
-20.87428279941015
 30
0.0
 11
36.6773636775893
 21
-20.81178279941015
 31
0.0
  0
LINE
  5
42E
330
417
100
AcDbEntity
  8
0
100
AcDbLine
 10
36.3023636775893
 20
-21.12428279941016
 30
0.0
 11
36.6773636775893
 21
-21.06178279941016
 31
0.0
  0
LINE
  5
42F
330
417
100
AcDbEntity
  8
0
100
AcDbLine
 10
36.4898636775893
 20
-19.26533255084453
 30
0.0
 11
36.4898636775893
 21
-19.53095755084453
 31
0.0
  0
LINE
  5
430
330
417
100
AcDbEntity
  8
0
100
AcDbLine
 10
36.61486367758931
 20
-20.49970755084456
 30
0.0
 11
36.61486367758931
 21
-20.48364982391687
 31
0.0
  0
LINE
  5
431
330
417
100
AcDbEntity
  8
0
100
AcDbLine
 10
36.61486367758931
 20
-20.74970755084457
 30
0.0
 11
36.61486367758931
 21
-20.62427482391687
 31
0.0
  0
LINE
  5
432
330
417
100
AcDbEntity
  8
0
100
AcDbLine
 10
36.61486367758931
 20
-20.99970755084457
 30
0.0
 11
36.61486367758931
 21
-20.87427482391688
 31
0.0
  0
LINE
  5
433
330
417
100
AcDbEntity
  8
0
100
AcDbLine
 10
36.61486367758931
 20
-21.49970755084459
 30
0.0
 11
36.61486367758931
 21
-21.37427482391689
 31
0.0
  0
LINE
  5
434
330
417
100
AcDbEntity
  8
0
100
AcDbLine
 10
36.61486367758931
 20
-21.74970755084459
 30
0.0
 11
36.61486367758931
 21
-21.6242748239169
 31
0.0
  0
LINE
  5
435
330
417
100
AcDbEntity
  8
0
100
AcDbLine
 10
36.61486367758931
 20
-21.87427482391691
 30
0.0
 11
36.57223315183905
 21
-21.97034108586645
 31
0.0
  0
LINE
  5
436
330
417
100
AcDbEntity
  8
0
100
AcDbLine
 10
36.57223315183905
 20
-21.97034108586645
 30
0.0
 11
36.61806416308243
 21
-22.01651795053903
 31
0.0
  0
LINE
  5
437
330
417
100
AcDbEntity
  8
0
100
AcDbLine
 10
36.61806416308243
 20
-22.01651795053903
 30
0.0
 11
36.54154245815251
 21
-22.03950139217786
 31
0.0
  0
LINE
  5
438
330
417
100
AcDbEntity
  8
0
100
AcDbLine
 10
36.45266116609978
 20
-22.09072436750993
 30
0.0
 11
36.54154245815251
 21
-22.03950139217786
 31
0.0
  0
LINE
  5
439
330
417
100
AcDbEntity
  8
0
100
AcDbLine
 10
36.45266116609978
 20
-22.09072436750993
 30
0.0
 11
36.4898636775893
 21
-22.15595755084461
 31
0.0
  0
LINE
  5
43A
330
417
100
AcDbEntity
  8
0
100
AcDbLine
 10
36.54154245815251
 20
-22.03950139217786
 30
0.0
 11
36.4898636775893
 21
-22.15595755084461
 31
0.0
  0
LINE
  5
43B
330
417
100
AcDbEntity
  8
0
100
AcDbLine
 10
36.61486367758931
 20
-21.24970755084458
 30
0.0
 11
36.61486367758931
 21
-21.12427482391689
 31
0.0
  0
LINE
  5
43C
330
417
100
AcDbEntity
  8
0
100
AcDbLine
 10
36.11486367758929
 20
-19.26533255084453
 30
0.0
 11
36.11486367758929
 21
-19.53095755084453
 31
0.0
  0
LINE
  5
43D
330
417
100
AcDbEntity
  8
0
100
AcDbLine
 10
36.3023636775893
 20
-20.42115779941013
 30
0.0
 11
36.3023636775893
 21
-19.53095755084453
 31
0.0
  0
LINE
  5
43E
330
417
100
AcDbEntity
  8
0
100
AcDbLine
 10
36.3648636775893
 20
-21.06220755084458
 30
0.0
 11
36.3023636775893
 21
-21.12428279941016
 31
0.0
  0
LINE
  5
43F
330
417
100
AcDbEntity
  8
0
100
AcDbLine
 10
36.3648636775893
 20
-20.81220755084457
 30
0.0
 11
36.3023636775893
 21
-20.87428279941015
 31
0.0
  0
LINE
  5
440
330
417
100
AcDbEntity
  8
0
100
AcDbLine
 10
36.3023636775893
 20
-20.87428279941015
 30
0.0
 11
36.3648636775893
 21
-20.93677482391688
 31
0.0
  0
LINE
  5
441
330
417
100
AcDbEntity
  8
0
100
AcDbLine
 10
36.3023636775893
 20
-20.62428279941014
 30
0.0
 11
36.3648636775893
 21
-20.68677482391688
 31
0.0
  0
LINE
  5
442
330
417
100
AcDbEntity
  8
0
100
AcDbLine
 10
36.3648636775893
 20
-20.56220755084456
 30
0.0
 11
36.3023636775893
 21
-20.62428279941014
 31
0.0
  0
LINE
  5
443
330
417
100
AcDbEntity
  8
0
100
AcDbLine
 10
36.3648636775893
 20
-20.56220755084456
 30
0.0
 11
36.3648636775893
 21
-20.48364982391687
 31
0.0
  0
LINE
  5
444
330
417
100
AcDbEntity
  8
0
100
AcDbLine
 10
36.3648636775893
 20
-20.81220755084457
 30
0.0
 11
36.3648636775893
 21
-20.68677482391688
 31
0.0
  0
LINE
  5
445
330
417
100
AcDbEntity
  8
0
100
AcDbLine
 10
36.3648636775893
 20
-21.06220755084458
 30
0.0
 11
36.3648636775893
 21
-20.93677482391688
 31
0.0
  0
LINE
  5
446
330
417
100
AcDbEntity
  8
0
100
AcDbLine
 10
36.3023636775893
 20
-20.42115779941013
 30
0.0
 11
36.3648636775893
 21
-20.48364982391687
 31
0.0
  0
LINE
  5
447
330
417
100
AcDbEntity
  8
0
100
AcDbLine
 10
36.3648636775893
 20
-21.8122075508446
 30
0.0
 11
36.3023636775893
 21
-21.87428279941018
 31
0.0
  0
LINE
  5
448
330
417
100
AcDbEntity
  8
0
100
AcDbLine
 10
36.3023636775893
 20
-21.87428279941018
 30
0.0
 11
36.3648636775893
 21
-21.93677482391692
 31
0.0
  0
LINE
  5
449
330
417
100
AcDbEntity
  8
0
100
AcDbLine
 10
36.3648636775893
 20
-21.56220755084459
 30
0.0
 11
36.3023636775893
 21
-21.62428279941017
 31
0.0
  0
LINE
  5
44A
330
417
100
AcDbEntity
  8
0
100
AcDbLine
 10
36.3023636775893
 20
-21.62428279941017
 30
0.0
 11
36.3648636775893
 21
-21.68677482391691
 31
0.0
  0
LINE
  5
44B
330
417
100
AcDbEntity
  8
0
100
AcDbLine
 10
36.3648636775893
 20
-21.31220755084458
 30
0.0
 11
36.3023636775893
 21
-21.37428279941016
 31
0.0
  0
LINE
  5
44C
330
417
100
AcDbEntity
  8
0
100
AcDbLine
 10
36.3023636775893
 20
-21.37428279941016
 30
0.0
 11
36.3648636775893
 21
-21.4367748239169
 31
0.0
  0
LINE
  5
44D
330
417
100
AcDbEntity
  8
0
100
AcDbLine
 10
36.3648636775893
 20
-21.31220755084458
 30
0.0
 11
36.3648636775893
 21
-21.18677482391689
 31
0.0
  0
LINE
  5
44E
330
417
100
AcDbEntity
  8
0
100
AcDbLine
 10
36.3648636775893
 20
-21.56220755084459
 30
0.0
 11
36.3648636775893
 21
-21.4367748239169
 31
0.0
  0
LINE
  5
44F
330
417
100
AcDbEntity
  8
0
100
AcDbLine
 10
36.3648636775893
 20
-21.8122075508446
 30
0.0
 11
36.3648636775893
 21
-21.68677482391691
 31
0.0
  0
LINE
  5
450
330
417
100
AcDbEntity
  8
0
100
AcDbLine
 10
36.3648636775893
 20
-21.93677482391692
 30
0.0
 11
36.40955514002938
 21
-22.01513959678094
 31
0.0
  0
LINE
  5
451
330
417
100
AcDbEntity
  8
0
100
AcDbLine
 10
36.40955514002938
 20
-22.01513959678094
 30
0.0
 11
36.36166319209618
 21
-22.06339295053903
 31
0.0
  0
LINE
  5
452
330
417
100
AcDbEntity
  8
0
100
AcDbLine
 10
36.3023636775893
 20
-21.12428279941016
 30
0.0
 11
36.3648636775893
 21
-21.18677482391689
 31
0.0
  0
LINE
  5
453
330
417
100
AcDbEntity
  8
0
100
AcDbLine
 10
36.3648636775893
 20
-21.18677482391689
 30
0.0
 11
36.61486367758931
 21
-21.12427482391689
 31
0.0
  0
LINE
  5
454
330
417
100
AcDbEntity
  8
0
100
AcDbLine
 10
36.3648636775893
 20
-21.31220755084458
 30
0.0
 11
36.61486367758931
 21
-21.24970755084458
 31
0.0
  0
LINE
  5
455
330
417
100
AcDbEntity
  8
0
100
AcDbLine
 10
36.3648636775893
 20
-21.4367748239169
 30
0.0
 11
36.61486367758931
 21
-21.37427482391689
 31
0.0
  0
LINE
  5
456
330
417
100
AcDbEntity
  8
0
100
AcDbLine
 10
36.3648636775893
 20
-21.56220755084459
 30
0.0
 11
36.61486367758931
 21
-21.49970755084459
 31
0.0
  0
LINE
  5
457
330
417
100
AcDbEntity
  8
0
100
AcDbLine
 10
36.3648636775893
 20
-21.68677482391691
 30
0.0
 11
36.61486367758931
 21
-21.6242748239169
 31
0.0
  0
LINE
  5
458
330
417
100
AcDbEntity
  8
0
100
AcDbLine
 10
36.3648636775893
 20
-21.8122075508446
 30
0.0
 11
36.61486367758931
 21
-21.74970755084459
 31
0.0
  0
LINE
  5
459
330
417
100
AcDbEntity
  8
0
100
AcDbLine
 10
36.3648636775893
 20
-21.93677482391692
 30
0.0
 11
36.61486367758931
 21
-21.87427482391691
 31
0.0
  0
LINE
  5
45A
330
417
100
AcDbEntity
  8
0
100
AcDbLine
 10
36.36166319209618
 20
-22.06339295053903
 30
0.0
 11
36.45266116609978
 21
-22.09072436750993
 31
0.0
  0
LINE
  5
45B
330
417
100
AcDbEntity
  8
0
100
AcDbLine
 10
36.40955514002938
 20
-22.01513959678094
 30
0.0
 11
36.57223315183905
 21
-21.97034108586645
 31
0.0
  0
LINE
  5
45C
330
417
100
AcDbEntity
  8
0
100
AcDbLine
 10
36.36166319209618
 20
-22.06339295053903
 30
0.0
 11
36.61806416308243
 21
-22.01651795053903
 31
0.0
  0
LINE
  5
45D
330
417
100
AcDbEntity
  8
0
100
AcDbLine
 10
36.3648636775893
 20
-20.56220755084456
 30
0.0
 11
36.61486367758931
 21
-20.49970755084456
 31
0.0
  0
LINE
  5
45E
330
417
100
AcDbEntity
  8
0
100
AcDbLine
 10
36.3648636775893
 20
-20.68677482391688
 30
0.0
 11
36.61486367758931
 21
-20.62427482391687
 31
0.0
  0
LINE
  5
45F
330
417
100
AcDbEntity
  8
0
100
AcDbLine
 10
36.3648636775893
 20
-20.81220755084457
 30
0.0
 11
36.61486367758931
 21
-20.74970755084457
 31
0.0
  0
LINE
  5
460
330
417
100
AcDbEntity
  8
0
100
AcDbLine
 10
36.3648636775893
 20
-20.93677482391688
 30
0.0
 11
36.61486367758931
 21
-20.87427482391688
 31
0.0
  0
LINE
  5
461
330
417
100
AcDbEntity
  8
0
100
AcDbLine
 10
36.3648636775893
 20
-21.06220755084458
 30
0.0
 11
36.61486367758931
 21
-20.99970755084457
 31
0.0
  0
LINE
  5
462
330
417
100
AcDbEntity
  8
0
100
AcDbLine
 10
36.3648636775893
 20
-20.48364982391687
 30
0.0
 11
36.61486367758931
 21
-20.48364982391687
 31
0.0
  0
LINE
  5
463
330
417
100
AcDbEntity
  8
0
100
AcDbLine
 10
36.6773636775893
 20
-20.42115779941013
 30
0.0
 11
36.6773636775893
 21
-19.53095755084453
 31
0.0
  0
LINE
  5
464
330
417
100
AcDbEntity
  8
0
100
AcDbLine
 10
36.86486367758931
 20
-19.53095755084453
 30
0.0
 11
36.86486367758931
 21
-19.26533255084453
 31
0.0
  0
ENDBLK
  5
465
330
417
100
AcDbEntity
  8
0
100
AcDbBlockEnd
  0
ENDSEC
  0
SECTION
  2
ENTITIES
  0
MTEXT
  5
32
102
{ACAD_REACTORS
330
40
102
}
330
2
100
AcDbEntity
  8
0
  6
Continuous
100
AcDbMText
 10
156.1769356824621
 20
-167.3844662710277
 30
0.0
 40
0.1875
 41
4.4125
 71
     1
 72
     1
  1
FORMED ALUMINUM ENCLOSURE
 73
     1
 44
1.0
1001
ACAD
1000
MTEXTBEGIN
1070
    73
1070
     1
1070
    44
1040
1.0
1070
    74
1070
     0
1000
MTEXTEND
  0
MTEXT
  5
33
102
{ACAD_REACTORS
330
E0
102
}
330
2
100
AcDbEntity
  8
0
  6
Continuous
100
AcDbMText
 10
156.1769356824621
 20
-166.221043624177
 30
0.0
 40
0.1875
 41
4.991304347826087
 71
     1
 72
     1
  1
INTER-SKY PURLIN W/ FIN ASSEMBLY
 73
     1
 44
1.0
1001
ACAD
1000
MTEXTBEGIN
1070
    73
1070
     1
1070
    44
1040
1.0
1070
    74
1070
     0
1000
MTEXTEND
  0
MTEXT
  5
34
102
{ACAD_REACTORS
330
E1
102
}
330
2
100
AcDbEntity
  8
0
  6
Continuous
100
AcDbMText
 10
156.1940843545387
 20
-168.1795299458056
 30
0.0
 40
0.1875
 41
4.4125
 71
     1
 72
     1
  1
SILICONE SEAL
 73
     1
 44
1.0
1001
ACAD
1000
MTEXTBEGIN
1070
    73
1070
     1
1070
    44
1040
1.0
1070
    74
1070
     0
1000
MTEXTEND
  0
MTEXT
  5
35
102
{ACAD_REACTORS
330
3E6
102
}
330
2
100
AcDbEntity
  8
0
  6
Continuous
100
AcDbMText
 10
156.1769356824621
 20
-164.7558535061141
 30
0.0
 40
0.1875
 41
4.4125
 71
     1
 72
     1
  1
VERTICAL GLAZING
 73
     1
 44
1.0
1001
ACAD
1000
MTEXTBEGIN
1070
    73
1070
     1
1070
    44
1040
1.0
1070
    74
1070
     0
1000
MTEXTEND
  0
MTEXT
  5
36
102
{ACAD_REACTORS
330
3E5
102
}
330
2
100
AcDbEntity
  8
0
  6
Continuous
100
AcDbMText
 10
156.1769356824621
 20
-165.8844114991015
 30
0.0
 40
0.1875
 41
4.4125
 71
     1
 72
     1
  1
EPDM SETTING BLOCK
 73
     1
 44
1.0
1001
ACAD
1000
MTEXTBEGIN
1070
    73
1070
     1
1070
    44
1040
1.0
1070
    74
1070
     0
1000
MTEXTEND
  0
MTEXT
  5
37
102
{ACAD_REACTORS
330
E2
102
}
330
2
100
AcDbEntity
  8
0
  6
Continuous
100
AcDbMText
 10
156.1769356824621
 20
-166.7938433390383
 30
0.0
 40
0.1875
 41
4.4125
 71
     1
 72
     1
  1
EPDM GLAZING GASKET
 73
     1
 44
1.0
1001
ACAD
1000
MTEXTBEGIN
1070
    73
1070
     1
1070
    44
1040
1.0
1070
    74
1070
     0
1000
MTEXTEND
  0
MTEXT
  5
38
102
{ACAD_REACTORS
330
3E4
102
}
330
2
100
AcDbEntity
  8
0
  6
Continuous
100
AcDbMText
 10
156.1769356824621
 20
-165.5957282141671
 30
0.0
 40
0.1875
 41
4.4125
 71
     1
 72
     1
  1
SILICONE SEAL
 73
     1
 44
1.0
1001
ACAD
1000
MTEXTBEGIN
1070
    73
1070
     1
1070
    44
1040
1.0
1070
    74
1070
     0
1000
MTEXTEND
  0
MTEXT
  5
39
102
{ACAD_REACTORS
330
3E3
102
}
330
2
100
AcDbEntity
  8
0
  6
Continuous
100
AcDbMText
 10
156.1769356824621
 20
-162.7663651857984
 30
0.0
 40
0.1875
 41
4.4125
 71
     1
 72
     1
  1
ALUMINUM SNAP CAP BEYOND
 73
     1
 44
1.0
1001
ACAD
1000
MTEXTBEGIN
1070
    73
1070
     1
1070
    44
1040
1.0
1070
    74
1070
     0
1000
MTEXTEND
  0
MTEXT
  5
3A
102
{ACAD_REACTORS
330
327
102
}
330
2
100
AcDbEntity
  8
0
  6
Continuous
100
AcDbMText
 10
156.1769356824621
 20
-167.8849805136641
 30
0.0
 40
0.1875
 41
4.4125
 71
     1
 72
     1
  1
ALUMINUM FLASHING
 73
     1
 44
1.0
1001
ACAD
1000
MTEXTBEGIN
1070
    73
1070
     1
1070
    44
1040
1.0
1070
    74
1070
     0
1000
MTEXTEND
  0
MTEXT
  5
3B
102
{ACAD_REACTORS
330
332
102
}
330
2
100
AcDbEntity
  8
0
  6
Continuous
100
AcDbMText
 10
156.1769356824621
 20
-163.4178144794038
 30
0.0
 40
0.1875
 41
4.4125
 71
     1
 72
     1
  1
{\fArial|b0|i0|c0|p34;INTER-SKY RAFTER} BEYOND
 73
     1
 44
1.0
1001
ACAD
1000
MTEXTBEGIN
1070
    73
1070
     1
1070
    44
1040
1.0
1070
    74
1070
     0
1000
MTEXTEND
  0
MTEXT
  5
3C
102
{ACAD_REACTORS
330
E3
102
}
330
2
100
AcDbEntity
  8
0
  6
Continuous
100
AcDbMText
 10
156.1769356824621
 20
-168.5583225499552
 30
0.0
 40
0.1875
 41
4.4125
 71
     1
 72
     1
  1
WORKPOINT
 73
     1
 44
1.0
1001
ACAD
1000
MTEXTBEGIN
1070
    73
1070
     1
1070
    44
1040
1.0
1070
    74
1070
     0
1000
MTEXTEND
  0
MTEXT
  5
3D
102
{ACAD_REACTORS
330
E4
102
}
330
2
100
AcDbEntity
  8
0
  6
Continuous
100
AcDbMText
 10
156.1769356824621
 20
-169.242536669796
 30
0.0
 40
0.1875
 41
4.4125
 71
     1
 72
     1
  1
ANCHOR
 73
     1
 44
1.0
1001
ACAD
1000
MTEXTBEGIN
1070
    73
1070
     1
1070
    44
1040
1.0
1070
    74
1070
     0
1000
MTEXTEND
  0
MTEXT
  5
3E
102
{ACAD_REACTORS
330
328
102
}
330
2
100
AcDbEntity
  8
0
  6
Continuous
100
AcDbMText
 10
156.1769356824621
 20
-169.8220558630668
 30
0.0
 40
0.1875
 41
4.4125
 71
     1
 72
     1
  1
SILL FLASHING
 73
     1
 44
1.0
1001
ACAD
1000
MTEXTBEGIN
1070
    73
1070
     1
1070
    44
1040
1.0
1070
    74
1070
     0
1000
MTEXTEND
  0
MTEXT
  5
3F
102
{ACAD_REACTORS
330
E5
102
}
330
2
100
AcDbEntity
  8
0
  6
Continuous
100
AcDbMText
 10
156.1769356824621
 20
-171.0249308111506
 30
0.0
 40
0.1875
 41
4.4125
 71
     1
 72
     1
  1
CURB BY OTHERS
 73
     1
 44
1.0
1001
ACAD
1000
MTEXTBEGIN
1070
    73
1070
     1
1070
    44
1040
1.0
1070
    74
1070
     0
1000
MTEXTEND
  0
LEADER
  5
40
330
2
100
AcDbEntity
  8
0
  6
Continuous
100
AcDbLeader
  3
STANDARD
 73
     0
 40
0.1940228512960437
 41
4.272211800818553
 76
     2
 10
147.973712482566
 20
-167.4782162710277
 30
0.0
 10
156.0869356824621
 20
-167.4782162710277
 30
0.0
340
32
213
0.0
223
-0.09375
233
0.0
1001
ACAD
1000
DSTYLE
1002
{
1070
   147
1040
0.09
1070
    77
1070
     0
1002
}
  0
LINE
  5
41
330
2
100
AcDbEntity
  8
.050 Flashing
  6
Continuous
100
AcDbLine
 10
149.1251612226864
 20
-168.3374640082176
 30
0.0
 11
147.973712482566
 21
-168.3374640082176
 31
0.0
  0
LINE
  5
43
330
2
100
AcDbEntity
  8
.050 Flashing
  6
Continuous
100
AcDbLine
 10
149.1251612226864
 20
-168.3874640082176
 30
0.0
 11
147.9237124825659
 21
-168.3874640082176
 31
0.0
  0
LINE
  5
44
330
2
100
AcDbEntity
  8
.050 Flashing
  6
Continuous
100
AcDbLine
 10
151.4221192299288
 20
-164.793897568329
 30
0.0
 11
147.9237124825659
 21
-164.7938975683291
 31
0.0
  0
LINE
  5
45
330
2
100
AcDbEntity
  8
.050 Flashing
  6
Continuous
100
AcDbLine
 10
151.3721192299288
 20
-164.8438975683291
 30
0.0
 11
147.973712482566
 21
-164.8438975683291
 31
0.0
  0
LINE
  5
46
330
2
100
AcDbEntity
  8
0
  6
Continuous
100
AcDbLine
 10
147.173712482566
 20
-161.7310726561082
 30
0.0
 11
150.2550867513204
 21
-161.7310726561082
 31
0.0
  0
LINE
  5
47
102
{ACAD_REACTORS
330
4A
102
}
330
2
100
AcDbEntity
  8
.050 Flashing
  6
Continuous
100
AcDbLine
 10
147.009494987328
 20
-168.6379449750859
 30
0.0
 11
152.999494987328
 21
-168.6379449750859
 31
0.0
  0
LINE
  5
48
330
2
100
AcDbEntity
  8
.050 Flashing
  6
Continuous
100
AcDbLine
 10
147.2487124825659
 20
-168.6879449750859
 30
0.0
 11
152.9494949873279
 21
-168.6879449750859
 31
0.0
  0
LINE
  5
49
102
{ACAD_REACTORS
330
4A
102
}
330
2
100
AcDbEntity
  8
0
  6
Continuous
100
AcDbLine
 10
147.7987124825659
 20
-168.3879449750859
 30
0.0
 11
151.4237124825659
 21
-168.3879449750859
 31
0.0
  0
HATCH
  5
4A
330
2
100
AcDbEntity
  8
0
  6
Continuous
100
AcDbHatch
 10
0.0
 20
0.0
 30
0.0
210
0.0
220
0.0
230
1.0
  2
ANSI31
 70
     0
 71
     1
 91
        1
 92
        7
 72
     0
 73
     1
 93
        4
 10
147.7987124825659
 20
-168.3879449750859
 10
147.7987124825659
 20
-168.6379449750859
 10
151.4237124825659
 20
-168.6379449750859
 10
151.4237124825659
 20
-168.3879449750859
 97
        4
330
49
330
58
330
47
330
DF
 75
     0
 76
     1
 52
0.0
 41
0.5
 77
     0
 78
     1
 53
45.0
 43
93.64319014533492
 44
-161.9854139683469
 45
-0.0441941738241592
 46
0.0441941738241592
 79
     0
 47
0.0050533780529914
 98
        1
 10
148.7038064590739
 20
-168.5064981958458
  0
LINE
  5
4B
330
2
100
AcDbEntity
  8
Curb
  6
DASHED
100
AcDbLine
 10
146.9494949873279
 20
-168.6879449750859
 30
0.0
 11
152.4494949873279
 21
-168.6879449750859
 31
0.0
  0
LINE
  5
4F
330
2
100
AcDbEntity
  8
Curb
  6
DASHED
100
AcDbLine
 10
146.9494949873279
 20
-171.6879449750859
 30
0.0
 11
152.4494949873279
 21
-171.6879449750859
 31
0.0
  0
LINE
  5
50
330
2
100
AcDbEntity
  8
Curb
  6
DASHED
100
AcDbLine
 10
146.9494949873279
 20
-170.1879449750859
 30
0.0
 11
152.4494949873279
 21
-170.1879449750859
 31
0.0
  0
LINE
  5
51
330
2
100
AcDbEntity
  8
0
  6
Continuous
100
AcDbLine
 10
146.9494949873279
 20
-168.6879449750859
 30
0.0
 11
152.4494949873279
 21
-170.1879449750859
 31
0.0
  0
LINE
  5
52
330
2
100
AcDbEntity
  8
0
  6
Continuous
100
AcDbLine
 10
152.4494949873279
 20
-170.1879449750859
 30
0.0
 11
146.9494949873279
 21
-171.6879449750859
 31
0.0
  0
LINE
  5
53
330
2
100
AcDbEntity
  8
0
  6
Continuous
100
AcDbLine
 10
152.4494949873279
 20
-171.6879449750859
 30
0.0
 11
146.9494949873279
 21
-170.1879449750859
 31
0.0
  0
LINE
  5
54
330
2
100
AcDbEntity
  8
0
  6
Continuous
100
AcDbLine
 10
146.9494949873279
 20
-170.1879449750859
 30
0.0
 11
152.4494949873279
 21
-168.6879449750859
 31
0.0
  0
LINE
  5
55
330
2
100
AcDbEntity
  8
.050 Flashing
  6
Continuous
100
AcDbLine
 10
147.973712482566
 20
-164.8438975683291
 30
0.0
 11
147.973712482566
 21
-168.3374640082176
 31
0.0
  0
LINE
  5
56
330
2
100
AcDbEntity
  8
.050 Flashing
  6
Continuous
100
AcDbLine
 10
147.9237124825659
 20
-164.7938975683291
 30
0.0
 11
147.9237124825659
 21
-168.3874640082176
 31
0.0
  0
LINE
  5
57
330
2
100
AcDbEntity
  8
0
  6
Continuous
100
AcDbLine
 10
147.423712482566
 20
-161.7310726561082
 30
0.0
 11
147.423712482566
 21
-168.6379449750859
 31
0.0
  0
LINE
  5
58
102
{ACAD_REACTORS
330
4A
102
}
330
2
100
AcDbEntity
  8
0
  6
Continuous
100
AcDbLine
 10
147.7987124825659
 20
-161.7310726561082
 30
0.0
 11
147.7987124825659
 21
-168.6379449750859
 31
0.0
  0
LINE
  5
59
330
2
100
AcDbEntity
  8
.050 Flashing
  6
Continuous
100
AcDbLine
 10
146.999494987328
 20
-167.6379449750859
 30
0.0
 11
146.999494987328
 21
-168.6279449750859
 31
0.0
  0
LINE
  5
5A
330
2
100
AcDbEntity
  8
.050 Flashing
  6
Continuous
100
AcDbLine
 10
146.9494949873279
 20
-167.6379449750859
 30
0.0
 11
146.9494949873279
 21
-168.6879449750859
 31
0.0
  0
LINE
  5
5B
330
2
100
AcDbEntity
  8
.050 Flashing
  6
Continuous
100
AcDbLine
 10
146.9494949873279
 20
-167.6379449750859
 30
0.0
 11
146.999494987328
 21
-167.6379449750859
 31
0.0
  0
LINE
  5
5C
330
2
100
AcDbEntity
  8
Curb
  6
DASHED
100
AcDbLine
 10
146.9494949873279
 20
-168.6879449750859
 30
0.0
 11
146.9494949873279
 21
-171.6879449750859
 31
0.0
  0
LINE
  5
5D
330
2
100
AcDbEntity
  8
0
  6
Continuous
 62
     0
100
AcDbLine
 10
151.1737124780345
 20
-165.2707605985797
 30
0.0
 11
151.1737124870973
 21
-167.005129351592
 31
0.0
  0
LINE
  5
5E
330
2
100
AcDbEntity
  8
.050 Flashing
  6
Continuous
100
AcDbLine
 10
153.111994987328
 20
-166.0211562997816
 30
0.0
 11
153.1119949873279
 21
-170.379213914963
 31
0.0
  0
LINE
  5
5F
330
2
100
AcDbEntity
  8
.050 Flashing
  6
Continuous
100
AcDbLine
 10
153.061994987328
 20
-166.0711562997816
 30
0.0
 11
153.061994987328
 21
-170.3999245930816
 31
0.0
  0
LINE
  5
60
330
2
100
AcDbEntity
  8
0
  6
Continuous
 62
     0
100
AcDbLine
 10
150.2619187880275
 20
-167.0051289668608
 30
0.0
 11
150.2619187881345
 21
-165.270760227758
 31
0.0
  0
LINE
  5
61
330
2
100
AcDbEntity
  8
0
  6
Continuous
 62
     0
100
AcDbLine
 10
150.2619187880275
 20
-167.0051289668608
 30
0.0
 11
150.2619187881345
 21
-165.270760227758
 31
0.0
  0
INSERT
  5
62
330
2
100
AcDbEntity
  8
0
  6
Continuous
 62
     0
100
AcDbBlockReference
  2
snap bottom
 10
205.4332300231056
 20
-158.8663569599928
 30
0.0
 50
270.0
  0
INSERT
  5
8E
330
2
100
AcDbEntity
  8
0
  6
Continuous
 62
     0
100
AcDbBlockReference
  2
purlin fin
 10
199.5036297257121
 20
-162.2507290482204
 30
0.0
 50
270.0
  0
HATCH
  5
DD
330
2
100
AcDbEntity
  8
HIDDEN
  6
Continuous
100
AcDbHatch
 10
0.0
 20
0.0
 30
0.0
210
0.0
220
0.0
230
1.0
  2
ANSI31
 70
     0
 71
     0
 91
        4
 92
        7
 72
     0
 73
     1
 93
       10
 10
151.1737124786877
 20
-165.3957601466128
 10
151.1737124780345
 20
-165.2707598430268
 10
150.8464454822808
 20
-165.270760004234
 10
150.8464454757978
 20
-165.2721068053795
 10
150.8108965131112
 20
-165.2923838631848
 10
150.8107512286567
 20
-165.3200846791777
 10
150.8460864669391
 20
-165.3407321221392
 10
150.8105365160584
 20
-165.3610093460684
 10
150.8103912354918
 20
-165.3887094207562
 10
150.8224574752932
 20
-165.3957603416598
 97
        0
 92
        7
 72
     0
 73
     1
 93
       11
 10
150.6906076313831
 20
-165.3957603610588
 10
150.6906117749404
 20
-165.3949703235698
 10
150.6552765413259
 20
-165.3743219893906
 10
150.6908256647604
 20
-165.3540459194638
 10
150.6909717523652
 20
-165.3263455728146
 10
150.6556365386952
 20
-165.3056965074556
 10
150.6911859534355
 20
-165.2854202713774
 10
150.6556617153241
 20
-165.2751210683771
 10
150.6556617363157
 20
-165.27076019674
 10
150.2619187881345
 20
-165.270760227758
 10
150.2619187881268
 20
-165.3957605161708
 97
        0
 92
        7
 72
     0
 73
     1
 93
       10
 10
150.8224574752932
 20
-166.880128852959
 10
150.8103912354918
 20
-166.8871797738626
 10
150.8105365160584
 20
-166.9148798485503
 10
150.8460864669391
 20
-166.9351570724796
 10
150.8107512286567
 20
-166.9558045154411
 10
150.8108965131112
 20
-166.9835053314339
 10
150.8464454757978
 20
-167.0037823892393
 10
150.8464454822808
 20
-167.0051291903848
 10
151.1737124870973
 20
-167.005129351592
 10
151.1737124864441
 20
-166.880129048006
 97
        0
 92
        7
 72
     0
 73
     1
 93
       11
 10
150.6556617363157
 20
-167.0051289978788
 10
150.6556617153241
 20
-167.0007681262416
 10
150.6911859534355
 20
-166.9904689232414
 10
150.6556365386952
 20
-166.9701926871631
 10
150.6909717523652
 20
-166.9495436218041
 10
150.6908256647604
 20
-166.9218432751549
 10
150.6552765413259
 20
-166.9015672052282
 10
150.6906117749404
 20
-166.880918871049
 10
150.6906076313831
 20
-166.88012883356
 10
150.2619187880352
 20
-166.8801286784479
 10
150.2619187880275
 20
-167.0051289668608
 97
        0
 75
     0
 76
     1
 52
-90.00000000000001
 41
0.25
 77
     0
 78
     1
 53
315.0
 43
187.149675437732
 44
-146.3850544419284
 45
0.0220970869120796
 46
0.0220970869120796
 79
     0
 47
0.0029273141127875
 98
        4
 10
150.9743583057576
 20
-165.3360613153659
 10
150.5294062871499
 20
-165.3507034307603
 10
150.9977768330528
 20
-166.9174001270515
 10
150.5118425357783
 20
-166.9496123613143
  0
LINE
  5
DF
102
{ACAD_REACTORS
330
4A
102
}
330
2
100
AcDbEntity
  8
0
  6
Continuous
100
AcDbLine
 10
151.423712482566
 20
-161.7310726561082
 30
0.0
 11
151.4237124825659
 21
-168.6379449750859
 31
0.0
  0
LEADER
  5
E0
330
2
100
AcDbEntity
  8
0
  6
Continuous
100
AcDbLeader
  3
STANDARD
 73
     0
 40
0.1938949522510232
 41
4.776517735334242
 76
     2
 10
151.17371248349
 20
-166.3147936257802
 30
0.0
 10
156.0869356824621
 20
-166.314793624177
 30
0.0
340
33
213
0.0
223
-0.09375
233
0.0
1001
ACAD
1000
DSTYLE
1002
{
1070
   147
1040
0.09
1070
    77
1070
     0
1002
}
  0
LEADER
  5
E1
330
2
100
AcDbEntity
  8
0
  6
Continuous
100
AcDbLeader
  3
STANDARD
 73
     0
 40
0.1940228512960437
 41
1.94419338335607
 76
     2
 10
150.0499078065511
 20
-168.2732799458056
 30
0.0
 10
156.1040843545387
 20
-168.2732799458056
 30
0.0
340
34
213
0.0
223
-0.09375
233
0.0
1001
ACAD
1000
DSTYLE
1002
{
1070
   147
1040
0.09
1070
    77
1070
     0
1002
}
  0
LEADER
  5
E2
330
2
100
AcDbEntity
  8
0
  6
Continuous
100
AcDbLeader
  3
STANDARD
 73
     0
 40
0.1938949522510232
 41
3.088761937244202
 76
     2
 10
151.4805028365655
 20
-166.8875933390383
 30
0.0
 10
156.0869356824621
 20
-166.8875933390383
 30
0.0
340
37
213
0.0
223
-0.09375
233
0.0
1001
ACAD
1000
DSTYLE
1002
{
1070
   147
1040
0.09
1070
    77
1070
     0
1002
}
  0
LEADER
  5
E3
330
2
100
AcDbEntity
  8
0
  6
Continuous
100
AcDbLeader
  3
STANDARD
 73
     0
 40
0.1940228512960437
 41
1.606795702592087
 76
     2
 10
151.5166121612945
 20
-168.6520725499552
 30
0.0
 10
156.0869356824621
 20
-168.6520725499552
 30
0.0
340
3C
213
0.0
223
-0.09375
233
0.0
1001
ACAD
1000
DSTYLE
1002
{
1070
   147
1040
0.09
1070
    77
1070
     0
1002
}
  0
LEADER
  5
E4
330
2
100
AcDbEntity
  8
0
  6
Continuous
100
AcDbLeader
  3
STANDARD
 73
     0
 40
0.1940228512960437
 41
1.132546043656207
 76
     2
 10
149.6566996496968
 20
-169.336286669796
 30
0.0
 10
156.0869356824621
 20
-169.336286669796
 30
0.0
340
3D
213
0.0
223
-0.09375
233
0.0
1001
ACAD
1000
DSTYLE
1002
{
1070
   147
1040
0.09
1070
    77
1070
     0
1002
}
  0
LEADER
  5
E5
330
2
100
AcDbEntity
  8
0
  6
Continuous
100
AcDbLeader
  3
STANDARD
 73
     0
 40
0.1940228512960437
 41
2.301927012278308
 76
     2
 10
151.6248987995113
 20
-171.1186808111506
 30
0.0
 10
156.0869356824621
 20
-171.1186808111506
 30
0.0
340
3F
213
0.0
223
-0.09375
233
0.0
1001
ACAD
1000
DSTYLE
1002
{
1070
   147
1040
0.09
1070
    77
1070
     0
1002
}
  0
INSERT
  5
F8
330
2
100
AcDbEntity
  8
0
  6
Continuous
100
AcDbBlockReference
  2
work point
 10
150.5856137593517
 20
-80.43814014802242
 30
0.0
  0
LINE
  5
121
330
2
100
AcDbEntity
  8
.050 Flashing
  6
Continuous
100
AcDbLine
 10
149.1251612226864
 20
-168.3874640082176
 30
0.0
 11
149.1251612226864
 21
-168.3374640082176
 31
0.0
  0
LINE
  5
122
330
2
100
AcDbEntity
  8
0
  6
Continuous
 62
     0
100
AcDbLine
 10
150.7691494507219
 20
-166.444699703913
 30
0.0
 11
150.7691500372199
 21
-166.5164061183486
 31
0.0
  0
LINE
  5
123
330
2
100
AcDbEntity
  8
0
  6
Continuous
 62
     0
100
AcDbLine
 10
150.7271494421447
 20
-166.4447000318227
 30
0.0
 11
150.7271500289591
 21
-166.5164064453096
 31
0.0
  0
ARC
  5
124
330
2
100
AcDbEntity
  8
Glazing
  6
Continuous
 62
     5
100
AcDbCircle
 10
150.7481503640037
 20
-166.5584062877186
 30
0.0
 40
0.156336
100
AcDbArc
 50
293.9162030999993
 51
248.2719830700003
  0
LINE
  5
126
330
2
100
AcDbEntity
  8
0
  6
Continuous
 62
     0
100
AcDbLine
 10
150.7691494507219
 20
-166.444699703913
 30
0.0
 11
150.7691500372199
 21
-166.5164061183486
 31
0.0
  0
LINE
  5
127
330
2
100
AcDbEntity
  8
0
  6
Continuous
 62
     0
100
AcDbLine
 10
150.7271494421447
 20
-166.4447000318227
 30
0.0
 11
150.7271500289591
 21
-166.5164064453096
 31
0.0
  0
ARC
  5
128
330
2
100
AcDbEntity
  8
0
  6
Continuous
 62
     0
100
AcDbCircle
 10
150.7481500659687
 20
-166.5747980185405
 30
0.0
 40
0.131782
100
AcDbArc
 50
80.83101309999911
 51
99.16988509999891
  0
ARC
  5
129
330
2
100
AcDbEntity
  8
0
  6
Continuous
 62
     0
100
AcDbCircle
 10
150.7481500659687
 20
-166.5747980185405
 30
0.0
 40
0.131782
100
AcDbArc
 50
80.83101309999911
 51
99.16988509999891
  0
ARC
  5
12A
330
2
100
AcDbEntity
  8
0
  6
Continuous
 62
     0
100
AcDbCircle
 10
150.8070584705122
 20
-167.1379447944813
 30
0.0
 40
0.1302118990505079
100
AcDbArc
 50
269.9999999999968
 51
359.9999999999969
  0
LINE
  5
12B
330
2
100
AcDbEntity
  8
0
  6
Continuous
 62
     0
100
AcDbLine
 10
150.6924822686132
 20
-167.2681566935319
 30
0.0
 11
150.8070584705123
 21
-167.2681566935319
 31
0.0
  0
LINE
  5
12C
330
2
100
AcDbEntity
  8
0
  6
Continuous
 62
     0
100
AcDbLine
 10
150.6904825228814
 20
-166.7432830273111
 30
0.0
 11
150.6903438105699
 21
-166.7169125141073
 31
0.0
  0
LINE
  5
12D
330
2
100
AcDbEntity
  8
0
  6
Continuous
 62
     0
100
AcDbLine
 10
150.6903438105699
 20
-166.7169125141073
 30
0.0
 11
150.6816989661057
 21
-166.711982158855
 31
0.0
  0
LINE
  5
12E
330
2
100
AcDbEntity
  8
0
  6
Continuous
 62
     0
100
AcDbLine
 10
151.1737125167482
 20
-166.880129048006
 30
0.0
 11
150.8224574752932
 21
-166.880128852959
 31
0.0
  0
LINE
  5
12F
330
2
100
AcDbEntity
  8
0
  6
Continuous
 62
     0
100
AcDbLine
 10
150.8464313768949
 20
-167.0051291903778
 30
0.0
 11
151.1737124870973
 21
-167.005129351592
 31
0.0
  0
LINE
  5
130
330
2
100
AcDbEntity
  8
0
  6
Continuous
 62
     0
100
AcDbLine
 10
150.6901037379708
 20
-166.7840404246885
 30
0.0
 11
150.6545546050498
 21
-166.7637643515984
 31
0.0
  0
LINE
  5
131
330
2
100
AcDbEntity
  8
0
  6
Continuous
 62
     0
100
AcDbLine
 10
150.6545546050498
 20
-166.7637643515984
 30
0.0
 11
150.6898889905118
 21
-166.7431157781678
 31
0.0
  0
LINE
  5
132
330
2
100
AcDbEntity
  8
0
  6
Continuous
 62
     0
100
AcDbLine
 10
150.6906119054957
 20
-166.8809187947583
 30
0.0
 11
150.8101775071997
 21
-166.8462545317906
 31
0.0
  0
LINE
  5
133
330
2
100
AcDbEntity
  8
0
  6
Continuous
 62
     0
100
AcDbLine
 10
150.6904664954701
 20
-166.8532189453252
 30
0.0
 11
150.8100320968577
 21
-166.8185546833062
 31
0.0
  0
LINE
  5
134
330
2
100
AcDbEntity
  8
0
  6
Continuous
 62
     0
100
AcDbLine
 10
150.6908256647604
 20
-166.921843275155
 30
0.0
 11
150.6552765413259
 21
-166.9015672052282
 31
0.0
  0
LINE
  5
135
330
2
100
AcDbEntity
  8
0
  6
Continuous
 62
     0
100
AcDbLine
 10
150.6552765413259
 20
-166.9015672052282
 30
0.0
 11
150.8457264698862
 21
-166.866531589596
 31
0.0
  0
LINE
  5
136
330
2
100
AcDbEntity
  8
0
  6
Continuous
 62
     0
100
AcDbLine
 10
150.6549175324672
 20
-166.8329418884685
 30
0.0
 11
150.6902517476948
 21
-166.8122942997532
 31
0.0
  0
LINE
  5
137
330
2
100
AcDbEntity
  8
0
  6
Continuous
 62
     0
100
AcDbLine
 10
150.6902517476948
 20
-166.8122942997532
 30
0.0
 11
150.6901037379708
 21
-166.7840404246885
 31
0.0
  0
LINE
  5
138
330
2
100
AcDbEntity
  8
0
  6
Continuous
 62
     0
100
AcDbLine
 10
150.6906146751122
 20
-166.8814718366232
 30
0.0
 11
150.6904664954701
 21
-166.8532189453252
 31
0.0
  0
LINE
  5
139
330
2
100
AcDbEntity
  8
0
  6
Continuous
 62
     0
100
AcDbLine
 10
150.6904664954701
 20
-166.8532189453252
 30
0.0
 11
150.6549175324672
 21
-166.8329418884685
 31
0.0
  0
LINE
  5
13A
330
2
100
AcDbEntity
  8
0
  6
Continuous
 62
     0
100
AcDbLine
 10
150.6552765413259
 20
-166.9015672052282
 30
0.0
 11
150.6906119054957
 21
-166.8809187947583
 31
0.0
  0
LINE
  5
13B
330
2
100
AcDbEntity
  8
0
  6
Continuous
 62
     0
100
AcDbLine
 10
150.8107483331527
 20
-166.9552524410845
 30
0.0
 11
150.8108965131112
 21
-166.983505331434
 31
0.0
  0
LINE
  5
13C
330
2
100
AcDbEntity
  8
0
  6
Continuous
 62
     0
100
AcDbLine
 10
150.8108965131112
 20
-166.983505331434
 30
0.0
 11
150.740954902022
 21
-167.0037822366658
 31
0.0
  0
LINE
  5
13D
330
2
100
AcDbEntity
  8
0
  6
Continuous
 62
     0
100
AcDbLine
 10
150.8100293272412
 20
-166.8180016414412
 30
0.0
 11
150.8101775071997
 21
-166.8462545317906
 31
0.0
  0
LINE
  5
13E
330
2
100
AcDbEntity
  8
0
  6
Continuous
 62
     0
100
AcDbLine
 10
150.6911856621297
 20
-166.99046875709
 30
0.0
 11
150.6556365386952
 21
-166.9701926871631
 31
0.0
  0
LINE
  5
13F
330
2
100
AcDbEntity
  8
0
  6
Continuous
 62
     0
100
AcDbLine
 10
150.6556365386952
 20
-166.9701926871631
 30
0.0
 11
150.6909709143544
 21
-166.9495441115179
 31
0.0
  0
LINE
  5
140
330
2
100
AcDbEntity
  8
0
  6
Continuous
 62
     0
100
AcDbLine
 10
150.8101775071997
 20
-166.8462545317906
 30
0.0
 11
150.8457264698862
 21
-166.866531589596
 31
0.0
  0
LINE
  5
141
330
2
100
AcDbEntity
  8
0
  6
Continuous
 62
     0
100
AcDbLine
 10
150.6556617153241
 20
-167.0007681262416
 30
0.0
 11
150.8107512635174
 21
-166.955804495071
 31
0.0
  0
LINE
  5
142
330
2
100
AcDbEntity
  8
0
  6
Continuous
 62
     0
100
AcDbLine
 10
150.6909746724815
 20
-166.9500973185582
 30
0.0
 11
150.6908256647604
 21
-166.921843275155
 31
0.0
  0
LINE
  5
143
330
2
100
AcDbEntity
  8
0
  6
Continuous
 62
     0
100
AcDbLine
 10
150.8457264698862
 20
-166.866531589596
 30
0.0
 11
150.8103922546586
 21
-166.8871791783113
 31
0.0
  0
LINE
  5
144
330
2
100
AcDbEntity
  8
0
  6
Continuous
 62
     0
100
AcDbLine
 10
150.8103883360999
 20
-166.8866269582009
 30
0.0
 11
150.8105365160584
 21
-166.9148798485503
 31
0.0
  0
LINE
  5
145
330
2
100
AcDbEntity
  8
0
  6
Continuous
 62
     0
100
AcDbLine
 10
150.8105365160584
 20
-166.9148798485503
 30
0.0
 11
150.8460864669391
 21
-166.9351570724796
 31
0.0
  0
LINE
  5
146
330
2
100
AcDbEntity
  8
0
  6
Continuous
 62
     0
100
AcDbLine
 10
150.6909709143544
 20
-166.9495441115179
 30
0.0
 11
150.8105365160584
 21
-166.9148798485503
 31
0.0
  0
LINE
  5
147
330
2
100
AcDbEntity
  8
0
  6
Continuous
 62
     0
100
AcDbLine
 10
150.6556365386952
 20
-166.9701926871631
 30
0.0
 11
150.8460864669391
 21
-166.9351570724796
 31
0.0
  0
LINE
  5
148
330
2
100
AcDbEntity
  8
0
  6
Continuous
 62
     0
100
AcDbLine
 10
150.8460864669391
 20
-166.9351570724796
 30
0.0
 11
150.8107512635174
 21
-166.955804495071
 31
0.0
  0
LINE
  5
149
330
2
100
AcDbEntity
  8
0
  6
Continuous
 62
     0
100
AcDbLine
 10
150.6908256647604
 20
-166.921843275155
 30
0.0
 11
150.8103922546586
 21
-166.8871791783113
 31
0.0
  0
LINE
  5
14A
330
2
100
AcDbEntity
  8
0
  6
Continuous
 62
     0
100
AcDbLine
 10
150.8108965131112
 20
-166.983505331434
 30
0.0
 11
150.8464454757978
 21
-167.0037823892393
 31
0.0
  0
LINE
  5
14B
330
2
100
AcDbEntity
  8
0
  6
Continuous
 62
     0
100
AcDbLine
 10
150.8464454757978
 20
-167.0037823892393
 30
0.0
 11
150.740954902022
 21
-167.0037822366658
 31
0.0
  0
LINE
  5
14C
330
2
100
AcDbEntity
  8
0
  6
Continuous
 62
     0
100
AcDbLine
 10
150.6545546050498
 20
-166.7637643515984
 30
0.0
 11
150.8450035549023
 21
-166.7287285730056
 31
0.0
  0
LINE
  5
14D
330
2
100
AcDbEntity
  8
0
  6
Continuous
 62
     0
100
AcDbLine
 10
150.8096664093102
 20
-166.7488241077344
 30
0.0
 11
150.8098145797822
 21
-166.7770769949206
 31
0.0
  0
LINE
  5
14E
330
2
100
AcDbEntity
  8
0
  6
Continuous
 62
     0
100
AcDbLine
 10
150.6901037379708
 20
-166.7840404246885
 30
0.0
 11
150.8096693301883
 21
-166.7493761585576
 31
0.0
  0
LINE
  5
14F
330
2
100
AcDbEntity
  8
0
  6
Continuous
 62
     0
100
AcDbLine
 10
150.8450035549023
 20
-166.7287285730056
 30
0.0
 11
150.8096693301883
 21
-166.7493761585576
 31
0.0
  0
LINE
  5
150
330
2
100
AcDbEntity
  8
0
  6
Continuous
 62
     0
100
AcDbLine
 10
150.6902517476948
 20
-166.8122942997532
 30
0.0
 11
150.8098173493988
 21
-166.7776300367855
 31
0.0
  0
LINE
  5
151
330
2
100
AcDbEntity
  8
0
  6
Continuous
 62
     0
100
AcDbLine
 10
150.6549175324672
 20
-166.8329418884685
 30
0.0
 11
150.8453664728333
 21
-166.7979061067123
 31
0.0
  0
LINE
  5
152
330
2
100
AcDbEntity
  8
0
  6
Continuous
 62
     0
100
AcDbLine
 10
150.8098173493988
 20
-166.7776300367855
 30
0.0
 11
150.8453664728333
 21
-166.7979061067123
 31
0.0
  0
LINE
  5
153
330
2
100
AcDbEntity
  8
0
  6
Continuous
 62
     0
100
AcDbLine
 10
150.8453664728333
 20
-166.7979061067123
 30
0.0
 11
150.8100320968577
 21
-166.8185546833062
 31
0.0
  0
LINE
  5
154
330
2
100
AcDbEntity
  8
0
  6
Continuous
 62
     0
100
AcDbLine
 10
150.749777727133
 20
-166.6330788595784
 30
0.0
 11
150.6900844418203
 21
-166.6674930129472
 31
0.0
  0
LINE
  5
155
330
2
100
AcDbEntity
  8
0
  6
Continuous
 62
     0
100
AcDbLine
 10
150.8115635510648
 20
-166.7081119195743
 30
0.0
 11
150.8113490635619
 21
-166.6670463857049
 31
0.0
  0
LINE
  5
156
330
2
100
AcDbEntity
  8
0
  6
Continuous
 62
     0
100
AcDbLine
 10
150.7271506907875
 20
-166.6004064570886
 30
0.0
 11
150.72715041069
 21
-166.6461243437668
 31
0.0
  0
LINE
  5
157
330
2
100
AcDbEntity
  8
0
  6
Continuous
 62
     0
100
AcDbLine
 10
150.7691506898781
 20
-166.6004061260156
 30
0.0
 11
150.7691504674258
 21
-166.6437666975484
 31
0.0
  0
LINE
  5
158
330
2
100
AcDbEntity
  8
0
  6
Continuous
 62
     0
100
AcDbLine
 10
150.8113490635619
 20
-166.6670463857049
 30
0.0
 11
150.749777727133
 21
-166.6330788595784
 31
0.0
  0
ARC
  5
159
330
2
100
AcDbEntity
  8
0
  6
Continuous
 62
     0
100
AcDbCircle
 10
150.7642116523614
 20
-166.5584060363521
 30
0.0
 40
0.131782
100
AcDbArc
 50
170.8310130709985
 51
189.1698850699999
  0
LINE
  5
15A
330
2
100
AcDbEntity
  8
0
  6
Continuous
 62
     0
100
AcDbLine
 10
150.7061505260224
 20
-166.5794066189689
 30
0.0
 11
150.6341146497266
 21
-166.5794068291455
 31
0.0
  0
ARC
  5
15B
330
2
100
AcDbEntity
  8
0
  6
Continuous
 62
     0
100
AcDbCircle
 10
150.7061506868152
 20
-166.6004066200948
 30
0.0
 40
0.021
100
AcDbArc
 50
0.0004490999989998
 51
90.00044910000102
  0
ARC
  5
15C
330
2
100
AcDbEntity
  8
0
  6
Continuous
 62
     0
100
AcDbCircle
 10
150.7901500415085
 20
-166.5164059543937
 30
0.0
 40
0.021
100
AcDbArc
 50
180.0004490700002
 51
270.0004491000002
  0
LINE
  5
15D
330
2
100
AcDbEntity
  8
0
  6
Continuous
 62
     0
100
AcDbLine
 10
150.8618367222342
 20
-166.5794050266636
 30
0.0
 11
150.7901505333738
 21
-166.5794059609348
 31
0.0
  0
LINE
  5
15E
330
2
100
AcDbEntity
  8
0
  6
Continuous
 62
     0
100
AcDbLine
 10
150.8618364006485
 20
-166.5374050244118
 30
0.0
 11
150.7901502023014
 21
-166.5374059555197
 31
0.0
  0
ARC
  5
15F
330
2
100
AcDbEntity
  8
0
  6
Continuous
 62
     0
100
AcDbCircle
 10
150.7317392277791
 20
-166.5584068019206
 30
0.0
 40
0.131782
100
AcDbArc
 50
350.8310130999987
 51
9.169885099999762
  0
ARC
  5
160
330
2
100
AcDbEntity
  8
0
  6
Continuous
 62
     0
100
AcDbCircle
 10
150.7061500246706
 20
-166.5164066092645
 30
0.0
 40
0.021
100
AcDbArc
 50
270.0004491000002
 51
0.0004490999989998
  0
LINE
  5
161
330
2
100
AcDbEntity
  8
2
  6
CENTER
 62
     4
100
AcDbLine
 10
150.7481498182206
 20
-166.4942250740096
 30
0.0
 11
150.7481499215926
 21
-166.6225873353035
 31
0.0
  0
ARC
  5
164
330
2
100
AcDbEntity
  8
0
  6
Continuous
 62
     0
100
AcDbCircle
 10
150.7901506941666
 20
-166.6004059620608
 30
0.0
 40
0.021
100
AcDbArc
 50
90.00044910000102
 51
180.0004490700002
  0
LINE
  5
165
330
2
100
AcDbEntity
  8
0
  6
Continuous
 62
     0
100
AcDbLine
 10
150.7061501949501
 20
-166.5374066135537
 30
0.0
 11
150.6341143186543
 21
-166.5374068237303
 31
0.0
  0
LINE
  5
166
330
2
100
AcDbEntity
  8
2
  6
CENTER
 62
     4
100
AcDbLine
 10
150.8123305910997
 20
-166.5584055742305
 30
0.0
 11
150.6839691487135
 21
-166.5584068350826
 31
0.0
  0
LINE
  5
167
330
2
100
AcDbEntity
  8
0
  6
Continuous
 62
     0
100
AcDbLine
 10
150.6898889905118
 20
-166.7431157781678
 30
0.0
 11
150.8094545918995
 21
-166.7084515161488
 31
0.0
  0
LINE
  5
168
330
2
100
AcDbEntity
  8
0
  6
Continuous
 62
     0
100
AcDbLine
 10
150.8094545918995
 20
-166.7084515161488
 30
0.0
 11
150.8450035549023
 21
-166.7287285730056
 31
0.0
  0
LINE
  5
169
330
2
100
AcDbEntity
  8
0
  6
Continuous
 62
     0
100
AcDbLine
 10
150.6903438105699
 20
-166.7169125141073
 30
0.0
 11
150.7181869636983
 21
-166.7117905062243
 31
0.0
  0
LINE
  5
16A
330
2
100
AcDbEntity
  8
0
  6
Continuous
 62
     0
100
AcDbLine
 10
150.6816989661057
 20
-166.711982158855
 30
0.0
 11
150.7181869636983
 21
-166.7117905062243
 31
0.0
  0
LINE
  5
16B
330
2
100
AcDbEntity
  8
0
  6
Continuous
 62
     0
100
AcDbLine
 10
150.6903176125931
 20
-166.7119369586601
 30
0.0
 11
150.6900844418203
 21
-166.6674930129472
 31
0.0
  0
LINE
  5
16C
330
2
100
AcDbEntity
  8
0
  6
Continuous
 62
     0
100
AcDbLine
 10
150.6556617363157
 20
-167.0051289978788
 30
0.0
 11
150.6556617153241
 21
-167.0007681262416
 31
0.0
  0
LINE
  5
16D
330
2
100
AcDbEntity
  8
0
  6
Continuous
 62
     0
100
AcDbLine
 10
150.8464454822808
 20
-167.0051291903848
 30
0.0
 11
150.8464454757978
 21
-167.0037823892393
 31
0.0
  0
ARC
  5
16E
330
2
100
AcDbEntity
  8
0
  6
Continuous
 62
     0
100
AcDbCircle
 10
150.8070584705122
 20
-167.1379447944813
 30
0.0
 40
0.1302118990505079
100
AcDbArc
 50
269.9999999999968
 51
359.9999999999969
  0
LINE
  5
16F
330
2
100
AcDbEntity
  8
0
  6
Continuous
 62
     0
100
AcDbLine
 10
150.6924822686132
 20
-167.2681566935319
 30
0.0
 11
150.8070584705123
 21
-167.2681566935319
 31
0.0
  0
LINE
  5
170
330
2
100
AcDbEntity
  8
0
  6
Continuous
 62
     0
100
AcDbLine
 10
150.6904825228814
 20
-166.7432830273111
 30
0.0
 11
150.6903438105699
 21
-166.7169125141073
 31
0.0
  0
LINE
  5
171
330
2
100
AcDbEntity
  8
0
  6
Continuous
 62
     0
100
AcDbLine
 10
150.6903438105699
 20
-166.7169125141073
 30
0.0
 11
150.6816989661057
 21
-166.711982158855
 31
0.0
  0
LINE
  5
172
330
2
100
AcDbEntity
  8
0
  6
Continuous
 62
     0
100
AcDbLine
 10
151.1737125167482
 20
-166.880129048006
 30
0.0
 11
150.8224574752932
 21
-166.880128852959
 31
0.0
  0
LINE
  5
173
330
2
100
AcDbEntity
  8
0
  6
Continuous
 62
     0
100
AcDbLine
 10
150.8464313768949
 20
-167.0051291903778
 30
0.0
 11
151.1737124870973
 21
-167.005129351592
 31
0.0
  0
LINE
  5
174
330
2
100
AcDbEntity
  8
0
  6
Continuous
 62
     0
100
AcDbLine
 10
150.6901037379708
 20
-166.7840404246885
 30
0.0
 11
150.6545546050498
 21
-166.7637643515984
 31
0.0
  0
LINE
  5
175
330
2
100
AcDbEntity
  8
0
  6
Continuous
 62
     0
100
AcDbLine
 10
150.6545546050498
 20
-166.7637643515984
 30
0.0
 11
150.6898889905118
 21
-166.7431157781678
 31
0.0
  0
LINE
  5
176
330
2
100
AcDbEntity
  8
0
  6
Continuous
 62
     0
100
AcDbLine
 10
150.6906119054957
 20
-166.8809187947583
 30
0.0
 11
150.8101775071997
 21
-166.8462545317906
 31
0.0
  0
LINE
  5
177
330
2
100
AcDbEntity
  8
0
  6
Continuous
 62
     0
100
AcDbLine
 10
150.6904664954701
 20
-166.8532189453252
 30
0.0
 11
150.8100320968577
 21
-166.8185546833062
 31
0.0
  0
LINE
  5
178
330
2
100
AcDbEntity
  8
0
  6
Continuous
 62
     0
100
AcDbLine
 10
150.6908256647604
 20
-166.921843275155
 30
0.0
 11
150.6552765413259
 21
-166.9015672052282
 31
0.0
  0
LINE
  5
179
330
2
100
AcDbEntity
  8
0
  6
Continuous
 62
     0
100
AcDbLine
 10
150.6552765413259
 20
-166.9015672052282
 30
0.0
 11
150.8457264698862
 21
-166.866531589596
 31
0.0
  0
LINE
  5
17A
330
2
100
AcDbEntity
  8
0
  6
Continuous
 62
     0
100
AcDbLine
 10
150.6549175324672
 20
-166.8329418884685
 30
0.0
 11
150.6902517476948
 21
-166.8122942997532
 31
0.0
  0
LINE
  5
17B
330
2
100
AcDbEntity
  8
0
  6
Continuous
 62
     0
100
AcDbLine
 10
150.6902517476948
 20
-166.8122942997532
 30
0.0
 11
150.6901037379708
 21
-166.7840404246885
 31
0.0
  0
LINE
  5
17C
330
2
100
AcDbEntity
  8
0
  6
Continuous
 62
     0
100
AcDbLine
 10
150.6906146751122
 20
-166.8814718366232
 30
0.0
 11
150.6904664954701
 21
-166.8532189453252
 31
0.0
  0
LINE
  5
17D
330
2
100
AcDbEntity
  8
0
  6
Continuous
 62
     0
100
AcDbLine
 10
150.6904664954701
 20
-166.8532189453252
 30
0.0
 11
150.6549175324672
 21
-166.8329418884685
 31
0.0
  0
LINE
  5
17E
330
2
100
AcDbEntity
  8
0
  6
Continuous
 62
     0
100
AcDbLine
 10
150.6552765413259
 20
-166.9015672052282
 30
0.0
 11
150.6906119054957
 21
-166.8809187947583
 31
0.0
  0
LINE
  5
17F
330
2
100
AcDbEntity
  8
0
  6
Continuous
 62
     0
100
AcDbLine
 10
150.8107483331527
 20
-166.9552524410845
 30
0.0
 11
150.8108965131112
 21
-166.983505331434
 31
0.0
  0
LINE
  5
180
330
2
100
AcDbEntity
  8
0
  6
Continuous
 62
     0
100
AcDbLine
 10
150.8108965131112
 20
-166.983505331434
 30
0.0
 11
150.740954902022
 21
-167.0037822366658
 31
0.0
  0
LINE
  5
181
330
2
100
AcDbEntity
  8
0
  6
Continuous
 62
     0
100
AcDbLine
 10
150.8100293272412
 20
-166.8180016414412
 30
0.0
 11
150.8101775071997
 21
-166.8462545317906
 31
0.0
  0
LINE
  5
182
330
2
100
AcDbEntity
  8
0
  6
Continuous
 62
     0
100
AcDbLine
 10
150.6911856621297
 20
-166.99046875709
 30
0.0
 11
150.6556365386952
 21
-166.9701926871631
 31
0.0
  0
LINE
  5
183
330
2
100
AcDbEntity
  8
0
  6
Continuous
 62
     0
100
AcDbLine
 10
150.6556365386952
 20
-166.9701926871631
 30
0.0
 11
150.6909709143544
 21
-166.9495441115179
 31
0.0
  0
LINE
  5
184
330
2
100
AcDbEntity
  8
0
  6
Continuous
 62
     0
100
AcDbLine
 10
150.8101775071997
 20
-166.8462545317906
 30
0.0
 11
150.8457264698862
 21
-166.866531589596
 31
0.0
  0
LINE
  5
185
330
2
100
AcDbEntity
  8
0
  6
Continuous
 62
     0
100
AcDbLine
 10
150.6556617153241
 20
-167.0007681262416
 30
0.0
 11
150.8107512635174
 21
-166.955804495071
 31
0.0
  0
LINE
  5
186
330
2
100
AcDbEntity
  8
0
  6
Continuous
 62
     0
100
AcDbLine
 10
150.6909746724815
 20
-166.9500973185582
 30
0.0
 11
150.6908256647604
 21
-166.921843275155
 31
0.0
  0
LINE
  5
187
330
2
100
AcDbEntity
  8
0
  6
Continuous
 62
     0
100
AcDbLine
 10
150.8457264698862
 20
-166.866531589596
 30
0.0
 11
150.8103922546586
 21
-166.8871791783113
 31
0.0
  0
LINE
  5
188
330
2
100
AcDbEntity
  8
0
  6
Continuous
 62
     0
100
AcDbLine
 10
150.8103883360999
 20
-166.8866269582009
 30
0.0
 11
150.8105365160584
 21
-166.9148798485503
 31
0.0
  0
LINE
  5
189
330
2
100
AcDbEntity
  8
0
  6
Continuous
 62
     0
100
AcDbLine
 10
150.8105365160584
 20
-166.9148798485503
 30
0.0
 11
150.8460864669391
 21
-166.9351570724796
 31
0.0
  0
LINE
  5
18A
330
2
100
AcDbEntity
  8
0
  6
Continuous
 62
     0
100
AcDbLine
 10
150.6909709143544
 20
-166.9495441115179
 30
0.0
 11
150.8105365160584
 21
-166.9148798485503
 31
0.0
  0
LINE
  5
18B
330
2
100
AcDbEntity
  8
0
  6
Continuous
 62
     0
100
AcDbLine
 10
150.6556365386952
 20
-166.9701926871631
 30
0.0
 11
150.8460864669391
 21
-166.9351570724796
 31
0.0
  0
LINE
  5
18C
330
2
100
AcDbEntity
  8
0
  6
Continuous
 62
     0
100
AcDbLine
 10
150.8460864669391
 20
-166.9351570724796
 30
0.0
 11
150.8107512635174
 21
-166.955804495071
 31
0.0
  0
LINE
  5
18D
330
2
100
AcDbEntity
  8
0
  6
Continuous
 62
     0
100
AcDbLine
 10
150.6908256647604
 20
-166.921843275155
 30
0.0
 11
150.8103922546586
 21
-166.8871791783113
 31
0.0
  0
LINE
  5
18E
330
2
100
AcDbEntity
  8
0
  6
Continuous
 62
     0
100
AcDbLine
 10
150.8108965131112
 20
-166.983505331434
 30
0.0
 11
150.8464454757978
 21
-167.0037823892393
 31
0.0
  0
LINE
  5
18F
330
2
100
AcDbEntity
  8
0
  6
Continuous
 62
     0
100
AcDbLine
 10
150.8464454757978
 20
-167.0037823892393
 30
0.0
 11
150.740954902022
 21
-167.0037822366658
 31
0.0
  0
LINE
  5
190
330
2
100
AcDbEntity
  8
0
  6
Continuous
 62
     0
100
AcDbLine
 10
150.6545546050498
 20
-166.7637643515984
 30
0.0
 11
150.8450035549023
 21
-166.7287285730056
 31
0.0
  0
LINE
  5
191
330
2
100
AcDbEntity
  8
0
  6
Continuous
 62
     0
100
AcDbLine
 10
150.8096664093102
 20
-166.7488241077344
 30
0.0
 11
150.8098145797822
 21
-166.7770769949206
 31
0.0
  0
LINE
  5
192
330
2
100
AcDbEntity
  8
0
  6
Continuous
 62
     0
100
AcDbLine
 10
150.6901037379708
 20
-166.7840404246885
 30
0.0
 11
150.8096693301883
 21
-166.7493761585576
 31
0.0
  0
LINE
  5
193
330
2
100
AcDbEntity
  8
0
  6
Continuous
 62
     0
100
AcDbLine
 10
150.8450035549023
 20
-166.7287285730056
 30
0.0
 11
150.8096693301883
 21
-166.7493761585576
 31
0.0
  0
LINE
  5
194
330
2
100
AcDbEntity
  8
0
  6
Continuous
 62
     0
100
AcDbLine
 10
150.6902517476948
 20
-166.8122942997532
 30
0.0
 11
150.8098173493988
 21
-166.7776300367855
 31
0.0
  0
LINE
  5
195
330
2
100
AcDbEntity
  8
0
  6
Continuous
 62
     0
100
AcDbLine
 10
150.6549175324672
 20
-166.8329418884685
 30
0.0
 11
150.8453664728333
 21
-166.7979061067123
 31
0.0
  0
LINE
  5
196
330
2
100
AcDbEntity
  8
0
  6
Continuous
 62
     0
100
AcDbLine
 10
150.8098173493988
 20
-166.7776300367855
 30
0.0
 11
150.8453664728333
 21
-166.7979061067123
 31
0.0
  0
LINE
  5
197
330
2
100
AcDbEntity
  8
0
  6
Continuous
 62
     0
100
AcDbLine
 10
150.8453664728333
 20
-166.7979061067123
 30
0.0
 11
150.8100320968577
 21
-166.8185546833062
 31
0.0
  0
LINE
  5
198
330
2
100
AcDbEntity
  8
0
  6
Continuous
 62
     0
100
AcDbLine
 10
150.749777727133
 20
-166.6330788595784
 30
0.0
 11
150.6900844418203
 21
-166.6674930129472
 31
0.0
  0
LINE
  5
199
330
2
100
AcDbEntity
  8
0
  6
Continuous
 62
     0
100
AcDbLine
 10
150.8115635510648
 20
-166.7081119195743
 30
0.0
 11
150.8113490635619
 21
-166.6670463857049
 31
0.0
  0
LINE
  5
19A
330
2
100
AcDbEntity
  8
0
  6
Continuous
 62
     0
100
AcDbLine
 10
150.7271506907875
 20
-166.6004064570886
 30
0.0
 11
150.72715041069
 21
-166.6461243437668
 31
0.0
  0
LINE
  5
19B
330
2
100
AcDbEntity
  8
0
  6
Continuous
 62
     0
100
AcDbLine
 10
150.7691506898781
 20
-166.6004061260156
 30
0.0
 11
150.7691504674258
 21
-166.6437666975484
 31
0.0
  0
LINE
  5
19C
330
2
100
AcDbEntity
  8
0
  6
Continuous
 62
     0
100
AcDbLine
 10
150.8113490635619
 20
-166.6670463857049
 30
0.0
 11
150.749777727133
 21
-166.6330788595784
 31
0.0
  0
ARC
  5
19D
330
2
100
AcDbEntity
  8
0
  6
Continuous
 62
     0
100
AcDbCircle
 10
150.7642116523614
 20
-166.5584060363521
 30
0.0
 40
0.131782
100
AcDbArc
 50
170.8310130709985
 51
189.1698850699999
  0
LINE
  5
19E
330
2
100
AcDbEntity
  8
0
  6
Continuous
 62
     0
100
AcDbLine
 10
150.7061505260224
 20
-166.5794066189689
 30
0.0
 11
150.6341146497266
 21
-166.5794068291455
 31
0.0
  0
ARC
  5
19F
330
2
100
AcDbEntity
  8
0
  6
Continuous
 62
     0
100
AcDbCircle
 10
150.7061506868152
 20
-166.6004066200948
 30
0.0
 40
0.021
100
AcDbArc
 50
0.0004490999989998
 51
90.00044910000102
  0
ARC
  5
1A0
330
2
100
AcDbEntity
  8
0
  6
Continuous
 62
     0
100
AcDbCircle
 10
150.7901500415085
 20
-166.5164059543937
 30
0.0
 40
0.021
100
AcDbArc
 50
180.0004490700002
 51
270.0004491000002
  0
LINE
  5
1A1
330
2
100
AcDbEntity
  8
0
  6
Continuous
 62
     0
100
AcDbLine
 10
150.8618367222342
 20
-166.5794050266636
 30
0.0
 11
150.7901505333738
 21
-166.5794059609348
 31
0.0
  0
LINE
  5
1A2
330
2
100
AcDbEntity
  8
0
  6
Continuous
 62
     0
100
AcDbLine
 10
150.8618364006485
 20
-166.5374050244118
 30
0.0
 11
150.7901502023014
 21
-166.5374059555197
 31
0.0
  0
ARC
  5
1A3
330
2
100
AcDbEntity
  8
0
  6
Continuous
 62
     0
100
AcDbCircle
 10
150.7317392277791
 20
-166.5584068019206
 30
0.0
 40
0.131782
100
AcDbArc
 50
350.8310130999987
 51
9.169885099999762
  0
ARC
  5
1A4
330
2
100
AcDbEntity
  8
0
  6
Continuous
 62
     0
100
AcDbCircle
 10
150.7061500246706
 20
-166.5164066092645
 30
0.0
 40
0.021
100
AcDbArc
 50
270.0004491000002
 51
0.0004490999989998
  0
LINE
  5
1A5
330
2
100
AcDbEntity
  8
2
  6
CENTER
 62
     4
100
AcDbLine
 10
150.7481498182206
 20
-166.4942250740096
 30
0.0
 11
150.7481499215926
 21
-166.6225873353035
 31
0.0
  0
ARC
  5
1A6
330
2
100
AcDbEntity
  8
0
  6
Continuous
 62
     0
100
AcDbCircle
 10
150.7901506941666
 20
-166.6004059620608
 30
0.0
 40
0.021
100
AcDbArc
 50
90.00044910000102
 51
180.0004490700002
  0
LINE
  5
1A7
330
2
100
AcDbEntity
  8
0
  6
Continuous
 62
     0
100
AcDbLine
 10
150.7061501949501
 20
-166.5374066135537
 30
0.0
 11
150.6341143186543
 21
-166.5374068237303
 31
0.0
  0
LINE
  5
1A8
330
2
100
AcDbEntity
  8
2
  6
CENTER
 62
     4
100
AcDbLine
 10
150.8123305910997
 20
-166.5584055742305
 30
0.0
 11
150.6839691487135
 21
-166.5584068350826
 31
0.0
  0
LINE
  5
1A9
330
2
100
AcDbEntity
  8
0
  6
Continuous
 62
     0
100
AcDbLine
 10
150.6898889905118
 20
-166.7431157781678
 30
0.0
 11
150.8094545918995
 21
-166.7084515161488
 31
0.0
  0
LINE
  5
1AA
330
2
100
AcDbEntity
  8
0
  6
Continuous
 62
     0
100
AcDbLine
 10
150.8094545918995
 20
-166.7084515161488
 30
0.0
 11
150.8450035549023
 21
-166.7287285730056
 31
0.0
  0
LINE
  5
1AB
330
2
100
AcDbEntity
  8
0
  6
Continuous
 62
     0
100
AcDbLine
 10
150.6903438105699
 20
-166.7169125141073
 30
0.0
 11
150.7181869636983
 21
-166.7117905062243
 31
0.0
  0
LINE
  5
1AC
330
2
100
AcDbEntity
  8
0
  6
Continuous
 62
     0
100
AcDbLine
 10
150.6816989661057
 20
-166.711982158855
 30
0.0
 11
150.7181869636983
 21
-166.7117905062243
 31
0.0
  0
LINE
  5
1AD
330
2
100
AcDbEntity
  8
0
  6
Continuous
 62
     0
100
AcDbLine
 10
150.6903176125931
 20
-166.7119369586601
 30
0.0
 11
150.6900844418203
 21
-166.6674930129472
 31
0.0
  0
LINE
  5
1AE
330
2
100
AcDbEntity
  8
0
  6
Continuous
 62
     0
100
AcDbLine
 10
150.6556617363157
 20
-167.0051289978788
 30
0.0
 11
150.6556617153241
 21
-167.0007681262416
 31
0.0
  0
LINE
  5
1AF
330
2
100
AcDbEntity
  8
0
  6
Continuous
 62
     0
100
AcDbLine
 10
150.8464454822808
 20
-167.0051291903848
 30
0.0
 11
150.8464454757978
 21
-167.0037823892393
 31
0.0
  0
ARC
  5
1B0
330
2
100
AcDbEntity
  8
Glazing
  6
Continuous
 62
     5
100
AcDbCircle
 10
150.7481503640037
 20
-166.5584062877186
 30
0.0
 40
0.156336
100
AcDbArc
 50
293.9162030999993
 51
248.2719830700003
  0
INSERT
  5
1B1
330
2
100
AcDbEntity
  8
0
  6
Continuous
 62
     0
100
AcDbBlockReference
  2
epdm
 10
146.2352964641414
 20
-163.0679959408793
 30
0.0
 41
-1.0
 50
270.0
  0
ARC
  5
21E
330
2
100
AcDbEntity
  8
0
  6
Continuous
 62
     0
100
AcDbCircle
 10
150.6924822686132
 20
-167.1379447944813
 30
0.0
 40
0.1302118990505079
100
AcDbArc
 50
180.0
 51
270.0
  0
LINE
  5
21F
330
2
100
AcDbEntity
  8
0
  6
Continuous
 62
     0
100
AcDbLine
 10
150.6906076313832
 20
-166.88012883356
 30
0.0
 11
150.2619187880352
 21
-166.8801286784479
 31
0.0
  0
LINE
  5
220
330
2
100
AcDbEntity
  8
0
  6
Continuous
 62
     0
100
AcDbLine
 10
150.2619187880275
 20
-167.0051289668608
 30
0.0
 11
150.6556617363157
 21
-167.0051289978788
 31
0.0
  0
LINE
  5
221
330
2
100
AcDbEntity
  8
0
  6
Continuous
 62
     0
100
AcDbLine
 10
150.9372703695628
 20
-167.1379447944814
 30
0.0
 11
150.5622703695627
 21
-167.1379447944814
 31
0.0
  0
ARC
  5
222
330
2
100
AcDbEntity
  8
0
  6
Continuous
 62
     0
100
AcDbCircle
 10
150.6924822686132
 20
-167.1379447944813
 30
0.0
 40
0.1302118990505079
100
AcDbArc
 50
180.0
 51
270.0
  0
LINE
  5
223
330
2
100
AcDbEntity
  8
0
  6
Continuous
 62
     0
100
AcDbLine
 10
150.6906076313832
 20
-166.88012883356
 30
0.0
 11
150.2619187880352
 21
-166.8801286784479
 31
0.0
  0
LINE
  5
224
330
2
100
AcDbEntity
  8
0
  6
Continuous
 62
     0
100
AcDbLine
 10
150.2619187880275
 20
-167.0051289668608
 30
0.0
 11
150.6556617363157
 21
-167.0051289978788
 31
0.0
  0
LINE
  5
225
330
2
100
AcDbEntity
  8
0
  6
Continuous
 62
     0
100
AcDbLine
 10
150.9372703695628
 20
-167.1379447944814
 30
0.0
 11
150.5622703695627
 21
-167.1379447944814
 31
0.0
  0
LEADER
  5
327
330
2
100
AcDbEntity
  8
0
  6
Continuous
100
AcDbLeader
  3
STANDARD
 73
     0
 40
0.1938949522510232
 41
2.764154160982264
 76
     2
 10
153.1119949873279
 20
-167.9787305136641
 30
0.0
 10
156.0869356824621
 20
-167.9787305136641
 30
0.0
340
3A
213
0.0
223
-0.09375
233
0.0
1001
ACAD
1000
DSTYLE
1002
{
1070
   147
1040
0.09
1070
    77
1070
     0
1002
}
  0
LEADER
  5
328
330
2
100
AcDbEntity
  8
0
  6
Continuous
100
AcDbLeader
  3
STANDARD
 73
     0
 40
0.1938949522510232
 41
1.893417462482946
 76
     2
 10
152.9994949873279
 20
-169.9158058630668
 30
0.0
 10
156.0869356824621
 20
-169.9158058630668
 30
0.0
340
3E
213
0.0
223
-0.09375
233
0.0
1001
ACAD
1000
DSTYLE
1002
{
1070
   147
1040
0.09
1070
    77
1070
     0
1002
}
  0
LINE
  5
329
330
2
100
AcDbEntity
  8
.050 Flashing
  6
Continuous
100
AcDbLine
 10
152.999494987328
 20
-168.6379449750859
 30
0.0
 11
152.999494987328
 21
-170.42581294073
 31
0.0
  0
LINE
  5
32A
330
2
100
AcDbEntity
  8
.050 Flashing
  6
Continuous
100
AcDbLine
 10
152.9494949873279
 20
-168.6879449750859
 30
0.0
 11
152.949494987328
 21
-170.4465236188486
 31
0.0
  0
LINE
  5
32B
330
2
100
AcDbEntity
  8
Curb
  6
DASHED
100
AcDbLine
 10
152.4494949873279
 20
-168.6879449750859
 30
0.0
 11
152.4494949873279
 21
-171.6879449750859
 31
0.0
  0
LINE
  5
32C
330
2
100
AcDbEntity
  8
.050 Flashing
  6
Continuous
100
AcDbLine
 10
153.1762716826246
 20
-170.6025896360266
 30
0.0
 11
152.999494987328
 21
-170.42581294073
 31
0.0
  0
LINE
  5
32D
330
2
100
AcDbEntity
  8
.050 Flashing
  6
Continuous
100
AcDbLine
 10
153.1409163435652
 20
-170.6379449750859
 30
0.0
 11
152.949494987328
 21
-170.4465236188486
 31
0.0
  0
LINE
  5
32E
330
2
100
AcDbEntity
  8
.050 Flashing
  6
Continuous
100
AcDbLine
 10
153.1762716826246
 20
-170.6025896360266
 30
0.0
 11
153.1409163435652
 21
-170.6379449750859
 31
0.0
  0
LINE
  5
32F
330
2
100
AcDbEntity
  8
.050 Flashing
  6
Continuous
100
AcDbLine
 10
153.2534163435652
 20
-170.5913459493189
 30
0.0
 11
153.061994987328
 21
-170.3999245930816
 31
0.0
  0
LINE
  5
330
330
2
100
AcDbEntity
  8
.050 Flashing
  6
Continuous
100
AcDbLine
 10
153.2887716826246
 20
-170.5559906102596
 30
0.0
 11
153.1119949873279
 21
-170.379213914963
 31
0.0
  0
LINE
  5
331
330
2
100
AcDbEntity
  8
.050 Flashing
  6
Continuous
100
AcDbLine
 10
153.2887716826246
 20
-170.5559906102596
 30
0.0
 11
153.2534163435652
 21
-170.5913459493189
 31
0.0
  0
LEADER
  5
332
330
2
100
AcDbEntity
  8
0
  6
Continuous
100
AcDbLeader
  3
STANDARD
 73
     0
 40
0.1940228512960437
 41
3.658296384720327
 76
     2
 10
150.3963126568645
 20
-163.5115644794038
 30
0.0
 10
156.0869356824621
 20
-163.5115644794038
 30
0.0
340
3B
213
0.0
223
-0.09375
233
0.0
1001
ACAD
1000
DSTYLE
1002
{
1070
   147
1040
0.09
1070
    77
1070
     0
1002
}
  0
LINE
  5
333
330
2
100
AcDbEntity
  8
0
  6
Continuous
100
AcDbLine
 10
150.590591208314
 20
-161.7310726561082
 30
0.0
 11
153.6719654770684
 21
-161.7310726561082
 31
0.0
  0
LINE
  5
334
330
2
100
AcDbEntity
  8
0
  6
Continuous
100
AcDbLine
 10
152.6037654770684
 20
-165.1380609272084
 30
0.0
 11
152.1037654770684
 21
-165.6380609272084
 31
0.0
  0
LINE
  5
335
330
2
100
AcDbEntity
  8
0
  6
Continuous
100
AcDbLine
 10
152.6037654770684
 20
-165.6380609272084
 30
0.0
 11
152.1037654770684
 21
-165.1380609272084
 31
0.0
  0
LINE
  5
336
330
2
100
AcDbEntity
  8
Glazing
  6
Continuous
100
AcDbLine
 10
152.6037654770684
 20
-165.1380609272084
 30
0.0
 11
152.1037654770684
 21
-165.1380609272084
 31
0.0
  0
LINE
  5
337
330
2
100
AcDbEntity
  8
Glazing
  6
Continuous
100
AcDbLine
 10
152.8537654770684
 20
-165.6380609272084
 30
0.0
 11
151.5437654770684
 21
-165.6380609272084
 31
0.0
  0
LINE
  5
338
330
2
100
AcDbEntity
  8
0
  6
Continuous
 62
     0
100
AcDbLine
 10
152.6017354935597
 20
-165.644205583679
 30
0.0
 11
151.3073522236206
 21
-166.019205583679
 31
0.0
  0
LINE
  5
339
330
2
100
AcDbEntity
  8
5
  6
Continuous
100
AcDbLine
 10
151.3073522236206
 20
-165.644205583679
 30
0.0
 11
152.6017354935597
 21
-165.644205583679
 31
0.0
  0
LINE
  5
33A
330
2
100
AcDbEntity
  8
0
  6
Continuous
 62
     0
100
AcDbLine
 10
151.3073522236206
 20
-165.644205583679
 30
0.0
 11
152.6017354935597
 21
-166.019205583679
 31
0.0
  0
LINE
  5
33B
330
2
100
AcDbEntity
  8
5
  6
Continuous
100
AcDbLine
 10
152.6017354935597
 20
-166.019205583679
 30
0.0
 11
151.3073522236206
 21
-166.019205583679
 31
0.0
  0
LINE
  5
33C
330
2
100
AcDbEntity
  8
.050 Flashing
  6
Continuous
100
AcDbLine
 10
151.3042028642932
 20
-166.0211562997816
 30
0.0
 11
153.111994987328
 21
-166.0211562997816
 31
0.0
  0
LINE
  5
33D
330
2
100
AcDbEntity
  8
.050 Flashing
  6
Continuous
100
AcDbLine
 10
151.3042028642932
 20
-166.0711562997816
 30
0.0
 11
153.061994987328
 21
-166.0711562997816
 31
0.0
  0
LINE
  5
33E
330
2
100
AcDbEntity
  8
0
  6
Continuous
100
AcDbLine
 10
150.590591208314
 20
-161.7310726561082
 30
0.0
 11
150.590591208314
 21
-161.4810726561082
 31
0.0
  0
LINE
  5
33F
330
2
100
AcDbEntity
  8
0
  6
Continuous
100
AcDbLine
 10
150.590591208314
 20
-161.4810726561082
 30
0.0
 11
150.2550867513204
 21
-161.9810726561082
 31
0.0
  0
LINE
  5
340
330
2
100
AcDbEntity
  8
0
  6
Continuous
100
AcDbLine
 10
150.2550867513204
 20
-161.9810726561082
 30
0.0
 11
150.2550867513204
 21
-161.7310726561082
 31
0.0
  0
LINE
  5
341
330
2
100
AcDbEntity
  8
.050 Flashing
  6
Continuous
100
AcDbLine
 10
151.3721192299288
 20
-165.1355363100468
 30
0.0
 11
151.3721192299288
 21
-164.8438975683291
 31
0.0
  0
LINE
  5
342
330
2
100
AcDbEntity
  8
.050 Flashing
  6
Continuous
100
AcDbLine
 10
151.3721192299288
 20
-165.1355363100468
 30
0.0
 11
151.4221192299288
 21
-165.1355363100468
 31
0.0
  0
LINE
  5
343
330
2
100
AcDbEntity
  8
.050 Flashing
  6
Continuous
100
AcDbLine
 10
151.4221192299288
 20
-165.1355363100468
 30
0.0
 11
151.4221192299288
 21
-164.793897568329
 31
0.0
  0
LINE
  5
344
330
2
100
AcDbEntity
  8
0
  6
Continuous
100
AcDbLine
 10
151.5137522284428
 20
-161.7310726561082
 30
0.0
 11
151.5137522284428
 21
-165.1379449750859
 31
0.0
  0
LINE
  5
345
330
2
100
AcDbEntity
  8
0
  6
Continuous
100
AcDbLine
 10
151.4837389798172
 20
-161.7310726561082
 30
0.0
 11
151.4837389798172
 21
-165.1379449750859
 31
0.0
  0
LINE
  5
346
330
2
100
AcDbEntity
  8
0
  6
Continuous
100
AcDbLine
 10
151.4537257311916
 20
-161.7310726561082
 30
0.0
 11
151.4537257311916
 21
-165.1379449750859
 31
0.0
  0
LINE
  5
347
330
2
100
AcDbEntity
  8
5
  6
Continuous
100
AcDbLine
 10
151.3073522236206
 20
-165.644205583679
 30
0.0
 11
151.3073522236206
 21
-166.019205583679
 31
0.0
  0
LINE
  5
348
330
2
100
AcDbEntity
  8
Glazing
  6
Continuous
100
AcDbLine
 10
151.5437654770684
 20
-165.6380609272084
 30
0.0
 11
151.5437654770684
 21
-161.7310726561082
 31
0.0
  0
LINE
  5
349
330
2
100
AcDbEntity
  8
Glazing
  6
Continuous
100
AcDbLine
 10
152.1037654770684
 20
-165.6380609272084
 30
0.0
 11
152.1037654770684
 21
-161.7310726561082
 31
0.0
  0
LINE
  5
34A
330
2
100
AcDbEntity
  8
0
  6
Continuous
 62
     0
100
AcDbLine
 10
150.8464454822808
 20
-165.270760004234
 30
0.0
 11
150.8464454757978
 21
-165.2721068053795
 31
0.0
  0
LINE
  5
34B
330
2
100
AcDbEntity
  8
0
  6
Continuous
 62
     0
100
AcDbLine
 10
150.6556617363157
 20
-165.27076019674
 30
0.0
 11
150.6556617153241
 21
-165.2751210683771
 31
0.0
  0
LINE
  5
34C
330
2
100
AcDbEntity
  8
0
  6
Continuous
 62
     0
100
AcDbLine
 10
150.6903176125931
 20
-165.5639522359587
 30
0.0
 11
150.6900844418203
 21
-165.6083961816716
 31
0.0
  0
LINE
  5
34D
330
2
100
AcDbEntity
  8
0
  6
Continuous
 62
     0
100
AcDbLine
 10
150.6816989661057
 20
-165.5639070357637
 30
0.0
 11
150.7181869636983
 21
-165.5640986883945
 31
0.0
  0
LINE
  5
34E
330
2
100
AcDbEntity
  8
0
  6
Continuous
 62
     0
100
AcDbLine
 10
150.6903438105699
 20
-165.5589766805115
 30
0.0
 11
150.7181869636983
 21
-165.5640986883945
 31
0.0
  0
LINE
  5
34F
330
2
100
AcDbEntity
  8
0
  6
Continuous
 62
     0
100
AcDbLine
 10
150.8094545918995
 20
-165.56743767847
 30
0.0
 11
150.8450035549023
 21
-165.5471606216132
 31
0.0
  0
LINE
  5
350
330
2
100
AcDbEntity
  8
0
  6
Continuous
 62
     0
100
AcDbLine
 10
150.6898889905118
 20
-165.5327734164509
 30
0.0
 11
150.8094545918995
 21
-165.56743767847
 31
0.0
  0
LINE
  5
351
330
2
100
AcDbEntity
  8
2
  6
CENTER
 62
     4
100
AcDbLine
 10
150.8123305910997
 20
-165.7174836203882
 30
0.0
 11
150.6839691487135
 21
-165.7174823595362
 31
0.0
  0
LINE
  5
352
330
2
100
AcDbEntity
  8
0
  6
Continuous
 62
     0
100
AcDbLine
 10
150.7061501949501
 20
-165.7384825810651
 30
0.0
 11
150.6341143186543
 21
-165.7384823708884
 31
0.0
  0
ARC
  5
353
330
2
100
AcDbEntity
  8
0
  6
Continuous
 62
     0
100
AcDbCircle
 10
150.7901506941666
 20
-165.675483232558
 30
0.0
 40
0.021
100
AcDbArc
 50
179.9995509299998
 51
269.999550899999
  0
LINE
  5
354
330
2
100
AcDbEntity
  8
2
  6
CENTER
 62
     4
100
AcDbLine
 10
150.7481498182206
 20
-165.7816641206092
 30
0.0
 11
150.7481499215926
 21
-165.6533018593152
 31
0.0
  0
ARC
  5
355
330
2
100
AcDbEntity
  8
0
  6
Continuous
 62
     0
100
AcDbCircle
 10
150.7061500246706
 20
-165.7594825853543
 30
0.0
 40
0.021
100
AcDbArc
 50
359.999550900001
 51
89.99955089999977
  0
ARC
  5
356
330
2
100
AcDbEntity
  8
0
  6
Continuous
 62
     0
100
AcDbCircle
 10
150.7317392277791
 20
-165.7174823926982
 30
0.0
 40
0.131782
100
AcDbArc
 50
350.8301149000002
 51
9.168986900001279
  0
LINE
  5
357
330
2
100
AcDbEntity
  8
0
  6
Continuous
 62
     0
100
AcDbLine
 10
150.8618364006485
 20
-165.738484170207
 30
0.0
 11
150.7901502023014
 21
-165.7384832390991
 31
0.0
  0
LINE
  5
358
330
2
100
AcDbEntity
  8
0
  6
Continuous
 62
     0
100
AcDbLine
 10
150.8618367222342
 20
-165.6964841679551
 30
0.0
 11
150.7901505333738
 21
-165.696483233684
 31
0.0
  0
ARC
  5
359
330
2
100
AcDbEntity
  8
0
  6
Continuous
 62
     0
100
AcDbCircle
 10
150.7901500415085
 20
-165.7594832402251
 30
0.0
 40
0.021
100
AcDbArc
 50
89.99955089999977
 51
179.9995509299998
  0
ARC
  5
35A
330
2
100
AcDbEntity
  8
0
  6
Continuous
 62
     0
100
AcDbCircle
 10
150.7061506868152
 20
-165.675482574524
 30
0.0
 40
0.021
100
AcDbArc
 50
269.999550899999
 51
359.999550900001
  0
LINE
  5
35B
330
2
100
AcDbEntity
  8
0
  6
Continuous
 62
     0
100
AcDbLine
 10
150.7061505260224
 20
-165.69648257565
 30
0.0
 11
150.6341146497266
 21
-165.6964823654733
 31
0.0
  0
ARC
  5
35C
330
2
100
AcDbEntity
  8
0
  6
Continuous
 62
     0
100
AcDbCircle
 10
150.7642116523614
 20
-165.7174831582668
 30
0.0
 40
0.131782
100
AcDbArc
 50
170.8301149300001
 51
189.1689869290015
  0
LINE
  5
35D
330
2
100
AcDbEntity
  8
0
  6
Continuous
 62
     0
100
AcDbLine
 10
150.8113490635619
 20
-165.6088428089139
 30
0.0
 11
150.749777727133
 21
-165.6428103350404
 31
0.0
  0
LINE
  5
35E
330
2
100
AcDbEntity
  8
0
  6
Continuous
 62
     0
100
AcDbLine
 10
150.7691506898781
 20
-165.6754830686032
 30
0.0
 11
150.7691504674258
 21
-165.6321224970704
 31
0.0
  0
LINE
  5
35F
330
2
100
AcDbEntity
  8
0
  6
Continuous
 62
     0
100
AcDbLine
 10
150.7271506907875
 20
-165.6754827375302
 30
0.0
 11
150.72715041069
 21
-165.6297648508519
 31
0.0
  0
LINE
  5
360
330
2
100
AcDbEntity
  8
0
  6
Continuous
 62
     0
100
AcDbLine
 10
150.8115635510648
 20
-165.5677772750445
 30
0.0
 11
150.8113490635619
 21
-165.6088428089139
 31
0.0
  0
LINE
  5
361
330
2
100
AcDbEntity
  8
0
  6
Continuous
 62
     0
100
AcDbLine
 10
150.749777727133
 20
-165.6428103350404
 30
0.0
 11
150.6900844418203
 21
-165.6083961816716
 31
0.0
  0
LINE
  5
362
330
2
100
AcDbEntity
  8
0
  6
Continuous
 62
     0
100
AcDbLine
 10
150.8453664728333
 20
-165.4779830879065
 30
0.0
 11
150.8100320968577
 21
-165.4573345113126
 31
0.0
  0
LINE
  5
363
330
2
100
AcDbEntity
  8
0
  6
Continuous
 62
     0
100
AcDbLine
 10
150.8098173493988
 20
-165.4982591578332
 30
0.0
 11
150.8453664728333
 21
-165.4779830879065
 31
0.0
  0
LINE
  5
364
330
2
100
AcDbEntity
  8
0
  6
Continuous
 62
     0
100
AcDbLine
 10
150.6549175324672
 20
-165.4429473061503
 30
0.0
 11
150.8453664728333
 21
-165.4779830879065
 31
0.0
  0
LINE
  5
365
330
2
100
AcDbEntity
  8
0
  6
Continuous
 62
     0
100
AcDbLine
 10
150.6902517476948
 20
-165.4635948948656
 30
0.0
 11
150.8098173493988
 21
-165.4982591578332
 31
0.0
  0
LINE
  5
366
330
2
100
AcDbEntity
  8
0
  6
Continuous
 62
     0
100
AcDbLine
 10
150.8450035549023
 20
-165.5471606216132
 30
0.0
 11
150.8096693301883
 21
-165.5265130360612
 31
0.0
  0
LINE
  5
367
330
2
100
AcDbEntity
  8
0
  6
Continuous
 62
     0
100
AcDbLine
 10
150.6901037379708
 20
-165.4918487699303
 30
0.0
 11
150.8096693301883
 21
-165.5265130360612
 31
0.0
  0
LINE
  5
368
330
2
100
AcDbEntity
  8
0
  6
Continuous
 62
     0
100
AcDbLine
 10
150.8096664093102
 20
-165.5270650868843
 30
0.0
 11
150.8098145797822
 21
-165.4988121996982
 31
0.0
  0
LINE
  5
369
330
2
100
AcDbEntity
  8
0
  6
Continuous
 62
     0
100
AcDbLine
 10
150.6545546050498
 20
-165.5121248430203
 30
0.0
 11
150.8450035549023
 21
-165.5471606216132
 31
0.0
  0
LINE
  5
36A
330
2
100
AcDbEntity
  8
0
  6
Continuous
 62
     0
100
AcDbLine
 10
150.8464454757978
 20
-165.2721068053795
 30
0.0
 11
150.740954902022
 21
-165.272106957953
 31
0.0
  0
LINE
  5
36B
330
2
100
AcDbEntity
  8
0
  6
Continuous
 62
     0
100
AcDbLine
 10
150.8108965131112
 20
-165.2923838631848
 30
0.0
 11
150.8464454757978
 21
-165.2721068053795
 31
0.0
  0
LINE
  5
36C
330
2
100
AcDbEntity
  8
0
  6
Continuous
 62
     0
100
AcDbLine
 10
150.6908256647604
 20
-165.3540459194638
 30
0.0
 11
150.8103922546586
 21
-165.3887100163075
 31
0.0
  0
LINE
  5
36D
330
2
100
AcDbEntity
  8
0
  6
Continuous
 62
     0
100
AcDbLine
 10
150.8460864669391
 20
-165.3407321221392
 30
0.0
 11
150.8107512635174
 21
-165.3200846995478
 31
0.0
  0
LINE
  5
36E
330
2
100
AcDbEntity
  8
0
  6
Continuous
 62
     0
100
AcDbLine
 10
150.6556365386952
 20
-165.3056965074556
 30
0.0
 11
150.8460864669391
 21
-165.3407321221392
 31
0.0
  0
LINE
  5
36F
330
2
100
AcDbEntity
  8
0
  6
Continuous
 62
     0
100
AcDbLine
 10
150.6909709143544
 20
-165.3263450831009
 30
0.0
 11
150.8105365160584
 21
-165.3610093460685
 31
0.0
  0
LINE
  5
370
330
2
100
AcDbEntity
  8
0
  6
Continuous
 62
     0
100
AcDbLine
 10
150.8105365160584
 20
-165.3610093460685
 30
0.0
 11
150.8460864669391
 21
-165.3407321221392
 31
0.0
  0
LINE
  5
371
330
2
100
AcDbEntity
  8
0
  6
Continuous
 62
     0
100
AcDbLine
 10
150.8103883360999
 20
-165.3892622364179
 30
0.0
 11
150.8105365160584
 21
-165.3610093460685
 31
0.0
  0
LINE
  5
372
330
2
100
AcDbEntity
  8
0
  6
Continuous
 62
     0
100
AcDbLine
 10
150.8457264698862
 20
-165.4093576050228
 30
0.0
 11
150.8103922546586
 21
-165.3887100163075
 31
0.0
  0
LINE
  5
373
330
2
100
AcDbEntity
  8
0
  6
Continuous
 62
     0
100
AcDbLine
 10
150.6909746724815
 20
-165.3257918760606
 30
0.0
 11
150.6908256647604
 21
-165.3540459194638
 31
0.0
  0
LINE
  5
374
330
2
100
AcDbEntity
  8
0
  6
Continuous
 62
     0
100
AcDbLine
 10
150.6556617153241
 20
-165.2751210683771
 30
0.0
 11
150.8107512635174
 21
-165.3200846995478
 31
0.0
  0
LINE
  5
375
330
2
100
AcDbEntity
  8
0
  6
Continuous
 62
     0
100
AcDbLine
 10
150.8101775071997
 20
-165.4296346628282
 30
0.0
 11
150.8457264698862
 21
-165.4093576050228
 31
0.0
  0
LINE
  5
376
330
2
100
AcDbEntity
  8
0
  6
Continuous
 62
     0
100
AcDbLine
 10
150.6556365386952
 20
-165.3056965074556
 30
0.0
 11
150.6909709143544
 21
-165.3263450831009
 31
0.0
  0
LINE
  5
377
330
2
100
AcDbEntity
  8
0
  6
Continuous
 62
     0
100
AcDbLine
 10
150.6911856621297
 20
-165.2854204375288
 30
0.0
 11
150.6556365386952
 21
-165.3056965074556
 31
0.0
  0
LINE
  5
378
330
2
100
AcDbEntity
  8
0
  6
Continuous
 62
     0
100
AcDbLine
 10
150.8100293272412
 20
-165.4578875531776
 30
0.0
 11
150.8101775071997
 21
-165.4296346628282
 31
0.0
  0
LINE
  5
379
330
2
100
AcDbEntity
  8
0
  6
Continuous
 62
     0
100
AcDbLine
 10
150.8108965131112
 20
-165.2923838631848
 30
0.0
 11
150.740954902022
 21
-165.272106957953
 31
0.0
  0
LINE
  5
37A
330
2
100
AcDbEntity
  8
0
  6
Continuous
 62
     0
100
AcDbLine
 10
150.8107483331527
 20
-165.3206367535342
 30
0.0
 11
150.8108965131112
 21
-165.2923838631848
 31
0.0
  0
LINE
  5
37B
330
2
100
AcDbEntity
  8
0
  6
Continuous
 62
     0
100
AcDbLine
 10
150.6552765413259
 20
-165.3743219893906
 30
0.0
 11
150.6906119054957
 21
-165.3949703998605
 31
0.0
  0
LINE
  5
37C
330
2
100
AcDbEntity
  8
0
  6
Continuous
 62
     0
100
AcDbLine
 10
150.6904664954701
 20
-165.4226702492936
 30
0.0
 11
150.6549175324672
 21
-165.4429473061503
 31
0.0
  0
LINE
  5
37D
330
2
100
AcDbEntity
  8
0
  6
Continuous
 62
     0
100
AcDbLine
 10
150.6906146751122
 20
-165.3944173579955
 30
0.0
 11
150.6904664954701
 21
-165.4226702492936
 31
0.0
  0
LINE
  5
37E
330
2
100
AcDbEntity
  8
0
  6
Continuous
 62
     0
100
AcDbLine
 10
150.6902517476948
 20
-165.4635948948656
 30
0.0
 11
150.6901037379708
 21
-165.4918487699303
 31
0.0
  0
LINE
  5
37F
330
2
100
AcDbEntity
  8
0
  6
Continuous
 62
     0
100
AcDbLine
 10
150.6549175324672
 20
-165.4429473061503
 30
0.0
 11
150.6902517476948
 21
-165.4635948948656
 31
0.0
  0
LINE
  5
380
330
2
100
AcDbEntity
  8
0
  6
Continuous
 62
     0
100
AcDbLine
 10
150.6552765413259
 20
-165.3743219893906
 30
0.0
 11
150.8457264698862
 21
-165.4093576050228
 31
0.0
  0
LINE
  5
381
330
2
100
AcDbEntity
  8
0
  6
Continuous
 62
     0
100
AcDbLine
 10
150.6908256647604
 20
-165.3540459194638
 30
0.0
 11
150.6552765413259
 21
-165.3743219893906
 31
0.0
  0
LINE
  5
382
330
2
100
AcDbEntity
  8
0
  6
Continuous
 62
     0
100
AcDbLine
 10
150.6904664954701
 20
-165.4226702492936
 30
0.0
 11
150.8100320968577
 21
-165.4573345113126
 31
0.0
  0
LINE
  5
383
330
2
100
AcDbEntity
  8
0
  6
Continuous
 62
     0
100
AcDbLine
 10
150.6906119054957
 20
-165.3949703998605
 30
0.0
 11
150.8101775071997
 21
-165.4296346628282
 31
0.0
  0
LINE
  5
384
330
2
100
AcDbEntity
  8
0
  6
Continuous
 62
     0
100
AcDbLine
 10
150.6545546050498
 20
-165.5121248430203
 30
0.0
 11
150.6898889905118
 21
-165.5327734164509
 31
0.0
  0
LINE
  5
385
330
2
100
AcDbEntity
  8
0
  6
Continuous
 62
     0
100
AcDbLine
 10
150.6901037379708
 20
-165.4918487699303
 30
0.0
 11
150.6545546050498
 21
-165.5121248430203
 31
0.0
  0
LINE
  5
386
330
2
100
AcDbEntity
  8
0
  6
Continuous
 62
     0
100
AcDbLine
 10
150.8464313768949
 20
-165.270760004241
 30
0.0
 11
151.1737124870973
 21
-165.2707598430268
 31
0.0
  0
LINE
  5
387
330
2
100
AcDbEntity
  8
0
  6
Continuous
 62
     0
100
AcDbLine
 10
151.1737125167482
 20
-165.3957601466128
 30
0.0
 11
150.8224574752932
 21
-165.3957603416598
 31
0.0
  0
LINE
  5
388
330
2
100
AcDbEntity
  8
0
  6
Continuous
 62
     0
100
AcDbLine
 10
150.6903438105699
 20
-165.5589766805115
 30
0.0
 11
150.6816989661057
 21
-165.5639070357637
 31
0.0
  0
LINE
  5
389
330
2
100
AcDbEntity
  8
0
  6
Continuous
 62
     0
100
AcDbLine
 10
150.6904825228814
 20
-165.5326061673077
 30
0.0
 11
150.6903438105699
 21
-165.5589766805115
 31
0.0
  0
LINE
  5
38A
330
2
100
AcDbEntity
  8
0
  6
Continuous
 62
     0
100
AcDbLine
 10
150.6924822686132
 20
-165.0077325010869
 30
0.0
 11
150.8070584705123
 21
-165.0077325010869
 31
0.0
  0
ARC
  5
38B
330
2
100
AcDbEntity
  8
0
  6
Continuous
 62
     0
100
AcDbCircle
 10
150.8070584705122
 20
-165.1379444001374
 30
0.0
 40
0.1302118990505079
100
AcDbArc
 50
0.0000000000030406
 51
90.00000000000319
  0
LINE
  5
38C
330
2
100
AcDbEntity
  8
0
  6
Continuous
 62
     0
100
AcDbLine
 10
150.8464454822808
 20
-165.270760004234
 30
0.0
 11
150.8464454757978
 21
-165.2721068053795
 31
0.0
  0
LINE
  5
38D
330
2
100
AcDbEntity
  8
0
  6
Continuous
 62
     0
100
AcDbLine
 10
150.6556617363157
 20
-165.27076019674
 30
0.0
 11
150.6556617153241
 21
-165.2751210683771
 31
0.0
  0
LINE
  5
38E
330
2
100
AcDbEntity
  8
0
  6
Continuous
 62
     0
100
AcDbLine
 10
150.6903176125931
 20
-165.5639522359587
 30
0.0
 11
150.6900844418203
 21
-165.6083961816716
 31
0.0
  0
LINE
  5
38F
330
2
100
AcDbEntity
  8
0
  6
Continuous
 62
     0
100
AcDbLine
 10
150.6816989661057
 20
-165.5639070357637
 30
0.0
 11
150.7181869636983
 21
-165.5640986883945
 31
0.0
  0
LINE
  5
390
330
2
100
AcDbEntity
  8
0
  6
Continuous
 62
     0
100
AcDbLine
 10
150.6903438105699
 20
-165.5589766805115
 30
0.0
 11
150.7181869636983
 21
-165.5640986883945
 31
0.0
  0
LINE
  5
391
330
2
100
AcDbEntity
  8
0
  6
Continuous
 62
     0
100
AcDbLine
 10
150.8094545918995
 20
-165.56743767847
 30
0.0
 11
150.8450035549023
 21
-165.5471606216132
 31
0.0
  0
LINE
  5
392
330
2
100
AcDbEntity
  8
0
  6
Continuous
 62
     0
100
AcDbLine
 10
150.6898889905118
 20
-165.5327734164509
 30
0.0
 11
150.8094545918995
 21
-165.56743767847
 31
0.0
  0
LINE
  5
393
330
2
100
AcDbEntity
  8
2
  6
CENTER
 62
     4
100
AcDbLine
 10
150.8123305910997
 20
-165.7174836203882
 30
0.0
 11
150.6839691487135
 21
-165.7174823595362
 31
0.0
  0
LINE
  5
394
330
2
100
AcDbEntity
  8
0
  6
Continuous
 62
     0
100
AcDbLine
 10
150.7061501949501
 20
-165.7384825810651
 30
0.0
 11
150.6341143186543
 21
-165.7384823708884
 31
0.0
  0
ARC
  5
395
330
2
100
AcDbEntity
  8
0
  6
Continuous
 62
     0
100
AcDbCircle
 10
150.7901506941666
 20
-165.675483232558
 30
0.0
 40
0.021
100
AcDbArc
 50
179.9995509299998
 51
269.999550899999
  0
LINE
  5
396
330
2
100
AcDbEntity
  8
2
  6
CENTER
 62
     4
100
AcDbLine
 10
150.7481498182206
 20
-165.7816641206092
 30
0.0
 11
150.7481499215926
 21
-165.6533018593152
 31
0.0
  0
ARC
  5
397
330
2
100
AcDbEntity
  8
0
  6
Continuous
 62
     0
100
AcDbCircle
 10
150.7061500246706
 20
-165.7594825853543
 30
0.0
 40
0.021
100
AcDbArc
 50
359.999550900001
 51
89.99955089999977
  0
ARC
  5
398
330
2
100
AcDbEntity
  8
0
  6
Continuous
 62
     0
100
AcDbCircle
 10
150.7317392277791
 20
-165.7174823926982
 30
0.0
 40
0.131782
100
AcDbArc
 50
350.8301149000002
 51
9.168986900001279
  0
LINE
  5
399
330
2
100
AcDbEntity
  8
0
  6
Continuous
 62
     0
100
AcDbLine
 10
150.8618364006485
 20
-165.738484170207
 30
0.0
 11
150.7901502023014
 21
-165.7384832390991
 31
0.0
  0
LINE
  5
39A
330
2
100
AcDbEntity
  8
0
  6
Continuous
 62
     0
100
AcDbLine
 10
150.8618367222342
 20
-165.6964841679551
 30
0.0
 11
150.7901505333738
 21
-165.696483233684
 31
0.0
  0
ARC
  5
39B
330
2
100
AcDbEntity
  8
0
  6
Continuous
 62
     0
100
AcDbCircle
 10
150.7901500415085
 20
-165.7594832402251
 30
0.0
 40
0.021
100
AcDbArc
 50
89.99955089999977
 51
179.9995509299998
  0
ARC
  5
39C
330
2
100
AcDbEntity
  8
0
  6
Continuous
 62
     0
100
AcDbCircle
 10
150.7061506868152
 20
-165.675482574524
 30
0.0
 40
0.021
100
AcDbArc
 50
269.999550899999
 51
359.999550900001
  0
LINE
  5
39D
330
2
100
AcDbEntity
  8
0
  6
Continuous
 62
     0
100
AcDbLine
 10
150.7061505260224
 20
-165.69648257565
 30
0.0
 11
150.6341146497266
 21
-165.6964823654733
 31
0.0
  0
ARC
  5
39E
330
2
100
AcDbEntity
  8
0
  6
Continuous
 62
     0
100
AcDbCircle
 10
150.7642116523614
 20
-165.7174831582668
 30
0.0
 40
0.131782
100
AcDbArc
 50
170.8301149300001
 51
189.1689869290015
  0
LINE
  5
39F
330
2
100
AcDbEntity
  8
0
  6
Continuous
 62
     0
100
AcDbLine
 10
150.8113490635619
 20
-165.6088428089139
 30
0.0
 11
150.749777727133
 21
-165.6428103350404
 31
0.0
  0
LINE
  5
3A0
330
2
100
AcDbEntity
  8
0
  6
Continuous
 62
     0
100
AcDbLine
 10
150.7691506898781
 20
-165.6754830686032
 30
0.0
 11
150.7691504674258
 21
-165.6321224970704
 31
0.0
  0
LINE
  5
3A1
330
2
100
AcDbEntity
  8
0
  6
Continuous
 62
     0
100
AcDbLine
 10
150.7271506907875
 20
-165.6754827375302
 30
0.0
 11
150.72715041069
 21
-165.6297648508519
 31
0.0
  0
LINE
  5
3A2
330
2
100
AcDbEntity
  8
0
  6
Continuous
 62
     0
100
AcDbLine
 10
150.8115635510648
 20
-165.5677772750445
 30
0.0
 11
150.8113490635619
 21
-165.6088428089139
 31
0.0
  0
LINE
  5
3A3
330
2
100
AcDbEntity
  8
0
  6
Continuous
 62
     0
100
AcDbLine
 10
150.749777727133
 20
-165.6428103350404
 30
0.0
 11
150.6900844418203
 21
-165.6083961816716
 31
0.0
  0
LINE
  5
3A4
330
2
100
AcDbEntity
  8
0
  6
Continuous
 62
     0
100
AcDbLine
 10
150.8453664728333
 20
-165.4779830879065
 30
0.0
 11
150.8100320968577
 21
-165.4573345113126
 31
0.0
  0
LINE
  5
3A5
330
2
100
AcDbEntity
  8
0
  6
Continuous
 62
     0
100
AcDbLine
 10
150.8098173493988
 20
-165.4982591578332
 30
0.0
 11
150.8453664728333
 21
-165.4779830879065
 31
0.0
  0
LINE
  5
3A6
330
2
100
AcDbEntity
  8
0
  6
Continuous
 62
     0
100
AcDbLine
 10
150.6549175324672
 20
-165.4429473061503
 30
0.0
 11
150.8453664728333
 21
-165.4779830879065
 31
0.0
  0
LINE
  5
3A7
330
2
100
AcDbEntity
  8
0
  6
Continuous
 62
     0
100
AcDbLine
 10
150.6902517476948
 20
-165.4635948948656
 30
0.0
 11
150.8098173493988
 21
-165.4982591578332
 31
0.0
  0
LINE
  5
3A8
330
2
100
AcDbEntity
  8
0
  6
Continuous
 62
     0
100
AcDbLine
 10
150.8450035549023
 20
-165.5471606216132
 30
0.0
 11
150.8096693301883
 21
-165.5265130360612
 31
0.0
  0
LINE
  5
3A9
330
2
100
AcDbEntity
  8
0
  6
Continuous
 62
     0
100
AcDbLine
 10
150.6901037379708
 20
-165.4918487699303
 30
0.0
 11
150.8096693301883
 21
-165.5265130360612
 31
0.0
  0
LINE
  5
3AA
330
2
100
AcDbEntity
  8
0
  6
Continuous
 62
     0
100
AcDbLine
 10
150.8096664093102
 20
-165.5270650868843
 30
0.0
 11
150.8098145797822
 21
-165.4988121996982
 31
0.0
  0
LINE
  5
3AB
330
2
100
AcDbEntity
  8
0
  6
Continuous
 62
     0
100
AcDbLine
 10
150.6545546050498
 20
-165.5121248430203
 30
0.0
 11
150.8450035549023
 21
-165.5471606216132
 31
0.0
  0
LINE
  5
3AC
330
2
100
AcDbEntity
  8
0
  6
Continuous
 62
     0
100
AcDbLine
 10
150.8464454757978
 20
-165.2721068053795
 30
0.0
 11
150.740954902022
 21
-165.272106957953
 31
0.0
  0
LINE
  5
3AD
330
2
100
AcDbEntity
  8
0
  6
Continuous
 62
     0
100
AcDbLine
 10
150.8108965131112
 20
-165.2923838631848
 30
0.0
 11
150.8464454757978
 21
-165.2721068053795
 31
0.0
  0
LINE
  5
3AE
330
2
100
AcDbEntity
  8
0
  6
Continuous
 62
     0
100
AcDbLine
 10
150.6908256647604
 20
-165.3540459194638
 30
0.0
 11
150.8103922546586
 21
-165.3887100163075
 31
0.0
  0
LINE
  5
3AF
330
2
100
AcDbEntity
  8
0
  6
Continuous
 62
     0
100
AcDbLine
 10
150.8460864669391
 20
-165.3407321221392
 30
0.0
 11
150.8107512635174
 21
-165.3200846995478
 31
0.0
  0
LINE
  5
3B0
330
2
100
AcDbEntity
  8
0
  6
Continuous
 62
     0
100
AcDbLine
 10
150.6556365386952
 20
-165.3056965074556
 30
0.0
 11
150.8460864669391
 21
-165.3407321221392
 31
0.0
  0
LINE
  5
3B1
330
2
100
AcDbEntity
  8
0
  6
Continuous
 62
     0
100
AcDbLine
 10
150.6909709143544
 20
-165.3263450831009
 30
0.0
 11
150.8105365160584
 21
-165.3610093460685
 31
0.0
  0
LINE
  5
3B2
330
2
100
AcDbEntity
  8
0
  6
Continuous
 62
     0
100
AcDbLine
 10
150.8105365160584
 20
-165.3610093460685
 30
0.0
 11
150.8460864669391
 21
-165.3407321221392
 31
0.0
  0
LINE
  5
3B3
330
2
100
AcDbEntity
  8
0
  6
Continuous
 62
     0
100
AcDbLine
 10
150.8103883360999
 20
-165.3892622364179
 30
0.0
 11
150.8105365160584
 21
-165.3610093460685
 31
0.0
  0
LINE
  5
3B4
330
2
100
AcDbEntity
  8
0
  6
Continuous
 62
     0
100
AcDbLine
 10
150.8457264698862
 20
-165.4093576050228
 30
0.0
 11
150.8103922546586
 21
-165.3887100163075
 31
0.0
  0
LINE
  5
3B5
330
2
100
AcDbEntity
  8
0
  6
Continuous
 62
     0
100
AcDbLine
 10
150.6909746724815
 20
-165.3257918760606
 30
0.0
 11
150.6908256647604
 21
-165.3540459194638
 31
0.0
  0
LINE
  5
3B6
330
2
100
AcDbEntity
  8
0
  6
Continuous
 62
     0
100
AcDbLine
 10
150.6556617153241
 20
-165.2751210683771
 30
0.0
 11
150.8107512635174
 21
-165.3200846995478
 31
0.0
  0
LINE
  5
3B7
330
2
100
AcDbEntity
  8
0
  6
Continuous
 62
     0
100
AcDbLine
 10
150.8101775071997
 20
-165.4296346628282
 30
0.0
 11
150.8457264698862
 21
-165.4093576050228
 31
0.0
  0
LINE
  5
3B8
330
2
100
AcDbEntity
  8
0
  6
Continuous
 62
     0
100
AcDbLine
 10
150.6556365386952
 20
-165.3056965074556
 30
0.0
 11
150.6909709143544
 21
-165.3263450831009
 31
0.0
  0
LINE
  5
3B9
330
2
100
AcDbEntity
  8
0
  6
Continuous
 62
     0
100
AcDbLine
 10
150.6911856621297
 20
-165.2854204375288
 30
0.0
 11
150.6556365386952
 21
-165.3056965074556
 31
0.0
  0
LINE
  5
3BA
330
2
100
AcDbEntity
  8
0
  6
Continuous
 62
     0
100
AcDbLine
 10
150.8100293272412
 20
-165.4578875531776
 30
0.0
 11
150.8101775071997
 21
-165.4296346628282
 31
0.0
  0
LINE
  5
3BB
330
2
100
AcDbEntity
  8
0
  6
Continuous
 62
     0
100
AcDbLine
 10
150.8108965131112
 20
-165.2923838631848
 30
0.0
 11
150.740954902022
 21
-165.272106957953
 31
0.0
  0
LINE
  5
3BC
330
2
100
AcDbEntity
  8
0
  6
Continuous
 62
     0
100
AcDbLine
 10
150.8107483331527
 20
-165.3206367535342
 30
0.0
 11
150.8108965131112
 21
-165.2923838631848
 31
0.0
  0
LINE
  5
3BD
330
2
100
AcDbEntity
  8
0
  6
Continuous
 62
     0
100
AcDbLine
 10
150.6552765413259
 20
-165.3743219893906
 30
0.0
 11
150.6906119054957
 21
-165.3949703998605
 31
0.0
  0
LINE
  5
3BE
330
2
100
AcDbEntity
  8
0
  6
Continuous
 62
     0
100
AcDbLine
 10
150.6904664954701
 20
-165.4226702492936
 30
0.0
 11
150.6549175324672
 21
-165.4429473061503
 31
0.0
  0
LINE
  5
3BF
330
2
100
AcDbEntity
  8
0
  6
Continuous
 62
     0
100
AcDbLine
 10
150.6906146751122
 20
-165.3944173579955
 30
0.0
 11
150.6904664954701
 21
-165.4226702492936
 31
0.0
  0
LINE
  5
3C0
330
2
100
AcDbEntity
  8
0
  6
Continuous
 62
     0
100
AcDbLine
 10
150.6902517476948
 20
-165.4635948948656
 30
0.0
 11
150.6901037379708
 21
-165.4918487699303
 31
0.0
  0
LINE
  5
3C1
330
2
100
AcDbEntity
  8
0
  6
Continuous
 62
     0
100
AcDbLine
 10
150.6549175324672
 20
-165.4429473061503
 30
0.0
 11
150.6902517476948
 21
-165.4635948948656
 31
0.0
  0
LINE
  5
3C2
330
2
100
AcDbEntity
  8
0
  6
Continuous
 62
     0
100
AcDbLine
 10
150.6552765413259
 20
-165.3743219893906
 30
0.0
 11
150.8457264698862
 21
-165.4093576050228
 31
0.0
  0
LINE
  5
3C3
330
2
100
AcDbEntity
  8
0
  6
Continuous
 62
     0
100
AcDbLine
 10
150.6908256647604
 20
-165.3540459194638
 30
0.0
 11
150.6552765413259
 21
-165.3743219893906
 31
0.0
  0
LINE
  5
3C4
330
2
100
AcDbEntity
  8
0
  6
Continuous
 62
     0
100
AcDbLine
 10
150.6904664954701
 20
-165.4226702492936
 30
0.0
 11
150.8100320968577
 21
-165.4573345113126
 31
0.0
  0
LINE
  5
3C5
330
2
100
AcDbEntity
  8
0
  6
Continuous
 62
     0
100
AcDbLine
 10
150.6906119054957
 20
-165.3949703998605
 30
0.0
 11
150.8101775071997
 21
-165.4296346628282
 31
0.0
  0
LINE
  5
3C6
330
2
100
AcDbEntity
  8
0
  6
Continuous
 62
     0
100
AcDbLine
 10
150.6545546050498
 20
-165.5121248430203
 30
0.0
 11
150.6898889905118
 21
-165.5327734164509
 31
0.0
  0
LINE
  5
3C7
330
2
100
AcDbEntity
  8
0
  6
Continuous
 62
     0
100
AcDbLine
 10
150.6901037379708
 20
-165.4918487699303
 30
0.0
 11
150.6545546050498
 21
-165.5121248430203
 31
0.0
  0
LINE
  5
3C8
330
2
100
AcDbEntity
  8
0
  6
Continuous
 62
     0
100
AcDbLine
 10
150.8464313768949
 20
-165.270760004241
 30
0.0
 11
151.1737124870973
 21
-165.2707598430268
 31
0.0
  0
LINE
  5
3C9
330
2
100
AcDbEntity
  8
0
  6
Continuous
 62
     0
100
AcDbLine
 10
151.1737125167482
 20
-165.3957601466128
 30
0.0
 11
150.8224574752932
 21
-165.3957603416598
 31
0.0
  0
LINE
  5
3CA
330
2
100
AcDbEntity
  8
0
  6
Continuous
 62
     0
100
AcDbLine
 10
150.6903438105699
 20
-165.5589766805115
 30
0.0
 11
150.6816989661057
 21
-165.5639070357637
 31
0.0
  0
LINE
  5
3CB
330
2
100
AcDbEntity
  8
0
  6
Continuous
 62
     0
100
AcDbLine
 10
150.6904825228814
 20
-165.5326061673077
 30
0.0
 11
150.6903438105699
 21
-165.5589766805115
 31
0.0
  0
LINE
  5
3CC
330
2
100
AcDbEntity
  8
0
  6
Continuous
 62
     0
100
AcDbLine
 10
150.6924822686132
 20
-165.0077325010869
 30
0.0
 11
150.8070584705123
 21
-165.0077325010869
 31
0.0
  0
ARC
  5
3CD
330
2
100
AcDbEntity
  8
0
  6
Continuous
 62
     0
100
AcDbCircle
 10
150.8070584705122
 20
-165.1379444001374
 30
0.0
 40
0.1302118990505079
100
AcDbArc
 50
0.0000000000030406
 51
90.00000000000319
  0
ARC
  5
3CE
330
2
100
AcDbEntity
  8
0
  6
Continuous
 62
     0
100
AcDbCircle
 10
150.7481500659687
 20
-165.7010911760783
 30
0.0
 40
0.131782
100
AcDbArc
 50
260.830114900001
 51
279.1689869000009
  0
ARC
  5
3CF
330
2
100
AcDbEntity
  8
0
  6
Continuous
 62
     0
100
AcDbCircle
 10
150.7481500659687
 20
-165.7010911760783
 30
0.0
 40
0.131782
100
AcDbArc
 50
260.830114900001
 51
279.1689869000009
  0
ARC
  5
3D0
330
2
100
AcDbEntity
  8
Glazing
  6
Continuous
 62
     5
100
AcDbCircle
 10
150.7481503640037
 20
-165.7174829069002
 30
0.0
 40
0.156336
100
AcDbArc
 50
111.7280169299996
 51
66.08379690000072
  0
LINE
  5
3D1
330
2
100
AcDbEntity
  8
0
  6
Continuous
 62
     0
100
AcDbLine
 10
150.7271494421447
 20
-165.8311891627961
 30
0.0
 11
150.7271500289591
 21
-165.7594827493092
 31
0.0
  0
LINE
  5
3D2
330
2
100
AcDbEntity
  8
0
  6
Continuous
 62
     0
100
AcDbLine
 10
150.7691494507219
 20
-165.8311894907058
 30
0.0
 11
150.7691500372199
 21
-165.7594830762702
 31
0.0
  0
LINE
  5
3D3
330
2
100
AcDbEntity
  8
0
  6
Continuous
 62
     0
100
AcDbLine
 10
150.7271494421447
 20
-165.8311891627961
 30
0.0
 11
150.7271500289591
 21
-165.7594827493092
 31
0.0
  0
LINE
  5
3D4
330
2
100
AcDbEntity
  8
0
  6
Continuous
 62
     0
100
AcDbLine
 10
150.7691494507219
 20
-165.8311894907058
 30
0.0
 11
150.7691500372199
 21
-165.7594830762702
 31
0.0
  0
ARC
  5
3D5
330
2
100
AcDbEntity
  8
Glazing
  6
Continuous
 62
     5
100
AcDbCircle
 10
150.7481503640037
 20
-165.7174829069002
 30
0.0
 40
0.156336
100
AcDbArc
 50
111.7280169299996
 51
66.08379690000072
  0
INSERT
  5
3D6
330
2
100
AcDbEntity
  8
0
  6
Continuous
 62
     0
100
AcDbBlockReference
  2
epdm
 10
146.2352964641414
 20
-169.2078940092924
 30
0.0
 50
270.0
  0
LINE
  5
3D7
330
2
100
AcDbEntity
  8
.050 Flashing
  6
Continuous
100
AcDbLine
 10
151.3042028642932
 20
-166.0711562997816
 30
0.0
 11
151.3042028642932
 21
-166.0211562997816
 31
0.0
  0
LINE
  5
3D8
330
2
100
AcDbEntity
  8
0
  6
Continuous
 62
     0
100
AcDbLine
 10
150.9372703695628
 20
-165.1379444001374
 30
0.0
 11
150.5622703695627
 21
-165.1379444001374
 31
0.0
  0
LINE
  5
3D9
330
2
100
AcDbEntity
  8
0
  6
Continuous
 62
     0
100
AcDbLine
 10
150.2619187880275
 20
-165.270760227758
 30
0.0
 11
150.6556617363157
 21
-165.27076019674
 31
0.0
  0
LINE
  5
3DA
330
2
100
AcDbEntity
  8
0
  6
Continuous
 62
     0
100
AcDbLine
 10
150.6906076313832
 20
-165.3957603610588
 30
0.0
 11
150.2619187880352
 21
-165.3957605161708
 31
0.0
  0
ARC
  5
3DB
330
2
100
AcDbEntity
  8
0
  6
Continuous
 62
     0
100
AcDbCircle
 10
150.6924822686132
 20
-165.1379444001374
 30
0.0
 40
0.1302118990505079
100
AcDbArc
 50
89.99999999999998
 51
180.0
  0
LINE
  5
3DC
330
2
100
AcDbEntity
  8
0
  6
Continuous
 62
     0
100
AcDbLine
 10
150.9372703695628
 20
-165.1379444001374
 30
0.0
 11
150.5622703695627
 21
-165.1379444001374
 31
0.0
  0
LINE
  5
3DD
330
2
100
AcDbEntity
  8
0
  6
Continuous
 62
     0
100
AcDbLine
 10
150.2619187880275
 20
-165.270760227758
 30
0.0
 11
150.6556617363157
 21
-165.27076019674
 31
0.0
  0
LINE
  5
3DE
330
2
100
AcDbEntity
  8
0
  6
Continuous
 62
     0
100
AcDbLine
 10
150.6906076313832
 20
-165.3957603610588
 30
0.0
 11
150.2619187880352
 21
-165.3957605161708
 31
0.0
  0
ARC
  5
3DF
330
2
100
AcDbEntity
  8
0
  6
Continuous
 62
     0
100
AcDbCircle
 10
150.6924822686132
 20
-165.1379444001374
 30
0.0
 40
0.1302118990505079
100
AcDbArc
 50
89.99999999999998
 51
180.0
  0
LINE
  5
3E0
330
2
100
AcDbEntity
  8
0
  6
Continuous
100
AcDbLine
 10
152.9438052229453
 20
-161.7310726561082
 30
0.0
 11
152.9438052229453
 21
-165.6380609272083
 31
0.0
  0
LINE
  5
3E1
330
2
100
AcDbEntity
  8
0
  6
Continuous
100
AcDbLine
 10
152.9137919743197
 20
-161.7310726561082
 30
0.0
 11
152.9137919743197
 21
-165.6380609272083
 31
0.0
  0
LINE
  5
3E2
330
2
100
AcDbEntity
  8
0
  6
Continuous
100
AcDbLine
 10
152.8837787256941
 20
-161.7310726561082
 30
0.0
 11
152.883778725694
 21
-165.6380609272083
 31
0.0
  0
LEADER
  5
3E3
330
2
100
AcDbEntity
  8
0
  6
Continuous
100
AcDbLeader
  3
STANDARD
 73
     0
 40
0.1940228512960437
 41
3.960266030013642
 76
     2
 10
153.3200790972042
 20
-162.8601151857984
 30
0.0
 10
156.0869356824621
 20
-162.8601151857984
 30
0.0
340
39
213
0.0
223
-0.09375
233
0.0
1001
ACAD
1000
DSTYLE
1002
{
1070
   147
1040
0.09
1070
    77
1070
     0
1002
}
  0
LEADER
  5
3E4
330
2
100
AcDbEntity
  8
0
  6
Continuous
100
AcDbLeader
  3
STANDARD
 73
     0
 40
0.1940228512960437
 41
1.94419338335607
 76
     2
 10
152.7436264905857
 20
-165.6894782141671
 30
0.0
 10
156.0869356824621
 20
-165.6894782141671
 30
0.0
340
38
213
0.0
223
-0.09375
233
0.0
1001
ACAD
1000
DSTYLE
1002
{
1070
   147
1040
0.09
1070
    77
1070
     0
1002
}
  0
LEADER
  5
3E5
330
2
100
AcDbEntity
  8
0
  6
Continuous
100
AcDbLeader
  3
STANDARD
 73
     0
 40
0.1940228512960437
 41
2.904203615279672
 76
     2
 10
152.4136393458848
 20
-165.9781614991015
 30
0.0
 10
156.0869356824621
 20
-165.9781614991015
 30
0.0
340
36
213
0.0
223
-0.09375
233
0.0
1001
ACAD
1000
DSTYLE
1002
{
1070
   147
1040
0.09
1070
    77
1070
     0
1002
}
  0
LEADER
  5
3E6
330
2
100
AcDbEntity
  8
0
  6
Continuous
100
AcDbLeader
  3
STANDARD
 73
     0
 40
0.1938949522510232
 41
1.119500341064119
 76
     2
 10
152.7150261849867
 20
-164.8496035061141
 30
0.0
 10
156.0869356824621
 20
-164.8496035061141
 30
0.0
340
35
213
0.0
223
-0.09375
233
0.0
1001
ACAD
1000
DSTYLE
1002
{
1070
   147
1040
0.09
1070
    77
1070
     0
1002
}
  0
ARC
  5
3E7
330
2
100
AcDbEntity
  8
Glazing
  6
Continuous
100
AcDbCircle
 10
153.2902031464307
 20
-165.6224543346512
 30
0.0
 40
0.776716618609394
100
AcDbArc
 50
207.5779229152978
 51
210.8850375002835
  0
ARC
  5
3E8
330
2
100
AcDbEntity
  8
Glazing
  6
Continuous
100
AcDbCircle
 10
153.2902031464307
 20
-165.6224543346512
 30
0.0
 40
0.756716618609394
100
AcDbArc
 50
204.5210184637247
 51
211.795167694705
  0
ARC
  5
3E9
330
2
100
AcDbEntity
  8
Glazing
  6
Continuous
100
AcDbCircle
 10
153.2902031464307
 20
-165.6224543346512
 30
0.0
 40
0.736716618609394
100
AcDbArc
 50
200.8511789560982
 51
212.7645267143128
  0
ARC
  5
3EA
330
2
100
AcDbEntity
  8
Glazing
  6
Continuous
100
AcDbCircle
 10
153.2902031464307
 20
-165.6224543346512
 30
0.0
 40
0.716716618609394
100
AcDbArc
 50
196.1399447997908
 51
213.7995817782525
  0
ARC
  5
3EB
330
2
100
AcDbEntity
  8
Glazing
  6
Continuous
100
AcDbCircle
 10
153.2902031464307
 20
-165.6224543346512
 30
0.0
 40
0.696716618609394
100
AcDbArc
 50
188.8254879035391
 51
214.9078642560913
  0
ARC
  5
3EC
330
2
100
AcDbEntity
  8
Glazing
  6
Continuous
100
AcDbCircle
 10
153.2902031464307
 20
-165.6224543346512
 30
0.0
 40
0.6767166186093939
100
AcDbArc
 50
181.3214854572588
 51
216.0982184723852
  0
ARC
  5
3ED
330
2
100
AcDbEntity
  8
Glazing
  6
Continuous
100
AcDbCircle
 10
153.2902031464307
 20
-165.6224543346512
 30
0.0
 40
0.6567166186093939
100
AcDbArc
 50
181.3617381511854
 51
217.3811299322914
  0
ARC
  5
3EE
330
2
100
AcDbEntity
  8
Glazing
  6
Continuous
100
AcDbCircle
 10
153.2902031464307
 20
-165.6224543346512
 30
0.0
 40
0.6367166186093939
100
AcDbArc
 50
181.4045203491454
 51
218.7691665442041
  0
ARC
  5
3EF
330
2
100
AcDbEntity
  8
Glazing
  6
Continuous
100
AcDbCircle
 10
153.2902031464307
 20
-165.6224543346512
 30
0.0
 40
0.6167166186093939
100
AcDbArc
 50
181.4500782455092
 51
220.277584781504
  0
ARC
  5
3F0
330
2
100
AcDbEntity
  8
Glazing
  6
Continuous
100
AcDbCircle
 10
153.2902031464307
 20
-165.6224543346512
 30
0.0
 40
0.5967166186093939
100
AcDbArc
 50
181.4986910588271
 51
221.9251838758508
  0
ARC
  5
3F1
330
2
100
AcDbEntity
  8
Glazing
  6
Continuous
100
AcDbCircle
 10
153.2902031464307
 20
-165.6224543346512
 30
0.0
 40
0.5767166186093938
100
AcDbArc
 50
181.5506767620471
 51
223.7355462783542
  0
ARC
  5
3F2
330
2
100
AcDbEntity
  8
Glazing
  6
Continuous
100
AcDbCircle
 10
153.2902031464307
 20
-165.6224543346512
 30
0.0
 40
0.5567166186093938
100
AcDbArc
 50
181.6063990486911
 51
225.7389053027153
  0
ARC
  5
3F3
330
2
100
AcDbEntity
  8
Glazing
  6
Continuous
100
AcDbCircle
 10
153.2902031464307
 20
-165.6224543346512
 30
0.0
 40
0.5367166186093938
100
AcDbArc
 50
181.6662758581087
 51
227.9750840020192
  0
ARC
  5
3F4
330
2
100
AcDbEntity
  8
Glazing
  6
Continuous
100
AcDbCircle
 10
153.2902031464307
 20
-165.6224543346512
 30
0.0
 40
0.5167166186093938
100
AcDbArc
 50
181.7307898824366
 51
230.4983822161148
  0
ARC
  5
3F5
330
2
100
AcDbEntity
  8
Glazing
  6
Continuous
100
AcDbCircle
 10
153.2902031464307
 20
-165.6224543346512
 30
0.0
 40
0.4967166186093939
100
AcDbArc
 50
181.8005016144476
 51
233.3863016437236
  0
ARC
  5
3F6
330
2
100
AcDbEntity
  8
Glazing
  6
Continuous
100
AcDbCircle
 10
153.2902031464307
 20
-165.6224543346512
 30
0.0
 40
0.4767166186093938
100
AcDbArc
 50
181.8760656836454
 51
236.756676844412
  0
ARC
  5
3F7
330
2
100
AcDbEntity
  8
Glazing
  6
Continuous
100
AcDbCircle
 10
153.2902031464307
 20
-165.6224543346512
 30
0.0
 40
0.4567166186093938
100
AcDbArc
 50
181.9582514896977
 51
240.8061581467475
  0
LINE
  5
3F8
330
2
100
AcDbEntity
  8
0
  6
Continuous
100
AcDbLine
 10
152.9719654770684
 20
-165.8965004149946
 30
0.0
 11
153.4219654770684
 21
-165.8965004149946
 31
0.0
  0
ARC
  5
3F9
330
2
100
AcDbEntity
  8
Glazing
  6
Continuous
100
AcDbCircle
 10
153.2902031464307
 20
-165.6224543346512
 30
0.0
 40
0.4367166186093938
100
AcDbArc
 50
182.0479695130066
 51
245.9167483986475
  0
LINE
  5
3FA
330
2
100
AcDbEntity
  8
0
  6
Continuous
100
AcDbLine
 10
152.9719654770684
 20
-165.8965004149946
 30
0.0
 11
152.9719654770684
 21
-161.7310726561082
 31
0.0
  0
LINE
  5
3FB
330
2
100
AcDbEntity
  8
0
  6
Continuous
100
AcDbLine
 10
153.4219654770684
 20
-165.8965004149946
 30
0.0
 11
153.4219654770684
 21
-161.7310726561082
 31
0.0
  0
LINE
  5
3FC
330
2
100
AcDbEntity
  8
Glazing
  6
Continuous
100
AcDbLine
 10
152.6037654770684
 20
-165.6380609272084
 30
0.0
 11
152.6037654770684
 21
-161.7310726561082
 31
0.0
  0
LINE
  5
3FD
330
2
100
AcDbEntity
  8
Glazing
  6
Continuous
100
AcDbLine
 10
152.8537654770684
 20
-165.6380609272084
 30
0.0
 11
152.8537654770684
 21
-161.7310726561082
 31
0.0
  0
LINE
  5
3FE
330
2
100
AcDbEntity
  8
5
  6
Continuous
100
AcDbLine
 10
152.6017354935597
 20
-165.644205583679
 30
0.0
 11
152.6017354935597
 21
-166.019205583679
 31
0.0
  0
TEXT
  5
3FF
330
2
100
AcDbEntity
  8
0
  6
Continuous
100
AcDbText
 10
156.3067823632723
 20
-163.7508776993056
 30
0.0
 40
0.1082863998362349
  1
-800-972-9112-
100
AcDbText
  0
ARC
  5
405
330
2
100
AcDbEntity
  8
.050 Flashing
  6
Continuous
100
AcDbCircle
 10
147.009494987328
 20
-168.6279449750859
 30
0.0
 40
0.01
100
AcDbArc
 50
180.0
 51
270.0
  0
INSERT
  5
46D
330
2
100
AcDbEntity
  8
Text
  6
Continuous
100
AcDbBlockReference
  2
ANCHOR
 10
113.1213488049766
 20
-148.8569874242414
 30
0.0
  0
ARC
  5
46F
330
2
100
AcDbEntity
  8
5
  6
Continuous
100
AcDbCircle
 10
149.6112124825659
 20
-168.3879449750859
 30
0.0
 40
0.4860514978473325
100
AcDbArc
 50
359.9999999999966
 51
180.0000000000033
  0
ARC
  5
470
330
2
100
AcDbEntity
  8
5
  6
Continuous
100
AcDbCircle
 10
149.6112124825659
 20
-168.3879449750859
 30
0.0
 40
0.4660514978473325
100
AcDbArc
 50
359.9999999999966
 51
180.0000000000033
  0
ARC
  5
471
330
2
100
AcDbEntity
  8
5
  6
Continuous
100
AcDbCircle
 10
149.6112124825659
 20
-168.3879449750859
 30
0.0
 40
0.4460514978473325
100
AcDbArc
 50
359.9999999999966
 51
32.78481928716028
  0
ARC
  5
472
330
2
100
AcDbEntity
  8
5
  6
Continuous
100
AcDbCircle
 10
149.6112124825659
 20
-168.3879449750859
 30
0.0
 40
0.4260514978473325
100
AcDbArc
 50
359.9999999999966
 51
28.33648440896491
  0
ARC
  5
473
330
2
100
AcDbEntity
  8
5
  6
Continuous
100
AcDbCircle
 10
149.6112124825659
 20
-168.3879449750859
 30
0.0
 40
0.4060514978473324
100
AcDbArc
 50
359.9999999999966
 51
22.55254700712613
  0
ARC
  5
474
330
2
100
AcDbEntity
  8
5
  6
Continuous
100
AcDbCircle
 10
149.6112124825659
 20
-168.3879449750859
 30
0.0
 40
0.3860514978473324
100
AcDbArc
 50
359.9999999999966
 51
13.74254309842787
  0
ARC
  5
475
330
2
100
AcDbEntity
  8
5
  6
Continuous
100
AcDbCircle
 10
149.6112124825659
 20
-168.3879449750859
 30
0.0
 40
0.3660514978473324
100
AcDbArc
 50
46.52288576930395
 51
133.477114230696
  0
ARC
  5
476
330
2
100
AcDbEntity
  8
5
  6
Continuous
100
AcDbCircle
 10
149.6112124825659
 20
-168.3879449750859
 30
0.0
 40
0.3460514978473324
100
AcDbArc
 50
50.13779059894161
 51
129.8622094010584
  0
ARC
  5
477
330
2
100
AcDbEntity
  8
5
  6
Continuous
100
AcDbCircle
 10
149.6112124825659
 20
-168.3879449750859
 30
0.0
 40
0.3260514978473323
100
AcDbArc
 50
54.55493505972057
 51
125.4450649402794
  0
ARC
  5
478
330
2
100
AcDbEntity
  8
5
  6
Continuous
100
AcDbCircle
 10
149.6112124825659
 20
-168.3879449750859
 30
0.0
 40
0.3060514978473323
100
AcDbArc
 50
60.21661030860964
 51
119.7833896913903
  0
ARC
  5
479
330
2
100
AcDbEntity
  8
5
  6
Continuous
100
AcDbCircle
 10
149.6112124825659
 20
-168.3879449750859
 30
0.0
 40
0.2860514978473323
100
AcDbArc
 50
68.21631506681434
 51
111.7836849331856
  0
ARC
  5
47A
330
2
100
AcDbEntity
  8
5
  6
Continuous
100
AcDbCircle
 10
149.6112124825659
 20
-168.3879449750859
 30
0.0
 40
0.3860514978473324
100
AcDbArc
 50
166.2574569015895
 51
180.0000000000033
  0
ARC
  5
47B
330
2
100
AcDbEntity
  8
5
  6
Continuous
100
AcDbCircle
 10
149.6112124825659
 20
-168.3879449750859
 30
0.0
 40
0.4060514978473324
100
AcDbArc
 50
157.4474529928865
 51
180.0000000000033
  0
ARC
  5
47C
330
2
100
AcDbEntity
  8
5
  6
Continuous
100
AcDbCircle
 10
149.6112124825659
 20
-168.3879449750859
 30
0.0
 40
0.4260514978473325
100
AcDbArc
 50
151.6635155910436
 51
180.0000000000033
  0
ARC
  5
47D
330
2
100
AcDbEntity
  8
5
  6
Continuous
100
AcDbCircle
 10
149.6112124825659
 20
-168.3879449750859
 30
0.0
 40
0.4460514978473325
100
AcDbArc
 50
147.2151807128478
 51
180.0000000000033
  0
ARC
  5
47E
330
2
100
AcDbEntity
  8
5
  6
Continuous
100
AcDbCircle
 10
149.6112124825659
 20
-168.3879449750859
 30
0.0
 40
0.3860514978473324
100
AcDbArc
 50
43.4764106401496
 51
136.5235893598504
  0
ARC
  5
47F
330
2
100
AcDbEntity
  8
5
  6
Continuous
100
AcDbCircle
 10
149.6112124825659
 20
-168.3879449750859
 30
0.0
 40
0.4060514978473324
100
AcDbArc
 50
40.85642617420687
 51
139.1435738257931
  0
ARC
  5
480
330
2
100
AcDbEntity
  8
5
  6
Continuous
100
AcDbCircle
 10
149.6112124825659
 20
-168.3879449750859
 30
0.0
 40
0.4260514978473325
100
AcDbArc
 50
38.56906110360575
 51
141.4309388963942
  0
ARC
  5
481
330
2
100
AcDbEntity
  8
5
  6
Continuous
100
AcDbCircle
 10
149.6112124825659
 20
-168.3879449750859
 30
0.0
 40
0.4460514978473325
100
AcDbArc
 50
36.54849732036347
 51
143.4515026796365
  0
ENDSEC
  0
SECTION
  2
OBJECTS
  0
DICTIONARY
  5
9
330
0
100
AcDbDictionary
281
     1
  3
ACAD_COLOR
350
30
  3
ACAD_GROUP
350
2C
  3
ACAD_LAYOUT
350
D
  3
ACAD_MATERIAL
350
2F
  3
ACAD_MLINESTYLE
350
2D
  3
ACAD_PLOTSETTINGS
350
2E
  3
ACAD_PLOTSTYLENAME
350
8
  3
ACDBHEADERROUNDTRIPXREC
350
483
  3
AcDbVariableDictionary
350
40B
  0
DICTIONARY
  5
15
330
14
100
AcDbDictionary
280
     1
281
     1
  3
ACAD_LAYERFILTERS
360
16
  3
ACAD_LAYERSTATES
360
1A
  0
DICTIONARY
  5
3
330
2
100
AcDbDictionary
280
     1
281
     1
  3
ACAD_LAYOUTSELFREF
360
4
  0
DICTIONARY
  5
F
330
E
100
AcDbDictionary
280
     1
281
     1
  3
ACAD_LAYOUTSELFREF
360
10
  0
DICTIONARY
  5
30
102
{ACAD_REACTORS
330
9
102
}
330
9
100
AcDbDictionary
281
     1
  0
DICTIONARY
  5
2C
102
{ACAD_REACTORS
330
9
102
}
330
9
100
AcDbDictionary
281
     1
  0
DICTIONARY
  5
D
102
{ACAD_REACTORS
330
9
102
}
330
9
100
AcDbDictionary
281
     1
  3
Layout1
350
13
  3
Model
350
C
  0
DICTIONARY
  5
2F
102
{ACAD_REACTORS
330
9
102
}
330
9
100
AcDbDictionary
281
     1
  0
DICTIONARY
  5
2D
102
{ACAD_REACTORS
330
9
102
}
330
9
100
AcDbDictionary
281
     1
  3
STANDARD
350
31
  0
DICTIONARY
  5
2E
102
{ACAD_REACTORS
330
9
102
}
330
9
100
AcDbDictionary
281
     1
  0
ACDBDICTIONARYWDFLT
  5
8
102
{ACAD_REACTORS
330
9
102
}
330
9
100
AcDbDictionary
281
     1
  3
Normal
350
7
100
AcDbDictionaryWithDefault
340
7
  0
DICTIONARY
  5
483
102
{ACAD_REACTORS
330
9
102
}
330
9
100
AcDbDictionary
281
     1
  3
COLORDICT
350
485
  3
MATERIALDICT
350
484
  0
DICTIONARY
  5
40B
102
{ACAD_REACTORS
330
9
102
}
330
9
100
AcDbDictionary
281
     1
  3
DIMASSOC
350
40D
  3
HIDETEXT
350
40C
  3
PROJECTNAME
350
40E
  0
DICTIONARY
  5
16
102
{ACAD_REACTORS
330
15
102
}
330
15
100
AcDbDictionary
280
     1
281
     1
  3
clg
360
17
  3
Roof
360
18
  3
sk
360
19
  0
DICTIONARY
  5
1A
102
{ACAD_REACTORS
330
15
102
}
330
15
100
AcDbDictionary
281
     1
  0
XRECORD
  5
4
102
{ACAD_REACTORS
330
3
102
}
330
3
100
AcDbXrecord
280
     1
340
2
  0
XRECORD
  5
10
102
{ACAD_REACTORS
330
F
102
}
330
F
100
AcDbXrecord
280
     1
340
E
  0
LAYOUT
  5
13
102
{ACAD_XDICTIONARY
360
488
102
}
102
{ACAD_REACTORS
330
D
102
}
330
D
100
AcDbPlotSettings
  1

  2
HP DesignJet 430 Plotter
  4

  6

 40
0.0
 41
0.0
 42
0.0
 43
0.0
 44
0.0
 45
0.0
 46
0.0
 47
0.0
 48
0.0
 49
0.0
140
0.0
141
0.0
142
1.0
143
1.0
 70
   688
 72
     0
 73
     0
 74
     5
  7
acad.ctb
 75
    16
147
1.0
148
0.0
149
0.0
100
AcDbLayout
  1
Layout1
 70
     1
 71
     1
 10
0.0
 20
0.0
 11
11.0
 21
8.5
 12
0.0
 22
0.0
 32
0.0
 14
0.0
 24
0.0
 34
0.0
 15
11.0
 25
8.5
 35
0.0
146
0.0
 13
0.0
 23
0.0
 33
0.0
 16
1.0
 26
0.0
 36
0.0
 17
0.0
 27
1.0
 37
0.0
 76
     0
330
E
  0
LAYOUT
  5
C
102
{ACAD_XDICTIONARY
360
486
102
}
102
{ACAD_REACTORS
330
D
102
}
330
D
100
AcDbPlotSettings
  1

  2
Brother MFC9700
  4
Letter
  6

 40
7.143749713897705
 41
5.027085304260253
 42
7.14373779296875
 43
5.027069091796875
 44
215.8999938964844
 45
279.3999938964844
 46
17.272
 47
0.0
 48
0.0
 49
0.0
140
0.0
141
0.0
142
1.0
143
0.1454883688845959
 70
 11956
 72
     0
 73
     1
 74
     0
  7
acad.ctb
 75
     0
147
6.873401686104671
148
-475.9428163058331
149
1456.585280992969
100
AcDbLayout
  1
Model
 70
     1
 71
     0
 10
0.0
 20
0.0
 11
12.0
 21
9.0
 12
0.0
 22
0.0
 32
0.0
 14
0.0
 24
0.0
 34
0.0
 15
0.0
 25
0.0
 35
0.0
146
0.0
 13
0.0
 23
0.0
 33
0.0
 16
1.0
 26
0.0
 36
0.0
 17
0.0
 27
1.0
 37
0.0
 76
     0
330
2
  0
MLINESTYLE
  5
31
102
{ACAD_REACTORS
330
2D
102
}
330
2D
100
AcDbMlineStyle
  2
STANDARD
 70
     0
  3

 62
   256
 51
90.0
 52
90.0
 71
     2
 49
0.5
 62
   256
  6
BYLAYER
 49
-0.5
 62
   256
  6
BYLAYER
  0
ACDBPLACEHOLDER
  5
7
102
{ACAD_REACTORS
330
8
102
}
330
8
  0
XRECORD
  5
485
102
{ACAD_REACTORS
330
483
102
}
330
483
100
AcDbXrecord
280
     1
340
30
  0
XRECORD
  5
484
102
{ACAD_REACTORS
330
483
102
}
330
483
100
AcDbXrecord
280
     1
340
2F
  0
DICTIONARYVAR
  5
40D
102
{ACAD_REACTORS
330
40B
102
}
330
40B
100
DictionaryVariables
280
     0
  1
1
  0
DICTIONARYVAR
  5
40C
102
{ACAD_REACTORS
330
40B
102
}
330
40B
100
DictionaryVariables
280
     0
  1
1
  0
DICTIONARYVAR
  5
40E
102
{ACAD_REACTORS
330
40B
102
}
330
40B
100
DictionaryVariables
280
     0
  1

  0
XRECORD
  5
17
102
{ACAD_REACTORS
330
16
102
}
330
16
100
AcDbXrecord
280
     1
  1
clg
  1
a-c*
  1
*
  1
*
 70
     0
  1
*
  1
*
  0
XRECORD
  5
18
102
{ACAD_REACTORS
330
16
102
}
330
16
100
AcDbXrecord
280
     1
  1
Roof
  1
a-roo*.*
  1
*
  1
*
 70
     0
  1
*
  1
*
  0
XRECORD
  5
19
102
{ACAD_REACTORS
330
16
102
}
330
16
100
AcDbXrecord
280
     1
  1
sk
  1
*sketch
  1
*
  1
*
 70
     0
  1
*
  1
*
  0
DICTIONARY
  5
488
330
13
100
AcDbDictionary
280
     1
281
     1
  3
ACAD_XREC_ROUNDTRIP
360
489
  0
DICTIONARY
  5
486
330
C
100
AcDbDictionary
280
     1
281
     1
  3
ACAD_XREC_ROUNDTRIP
360
487
  0
XRECORD
  5
489
102
{ACAD_REACTORS
330
488
102
}
330
488
100
AcDbXrecord
280
     1
102
SHADEPLOT
 70
     0
102
SHADEPLOTRESLEVEL
 70
     2
102
SHADEPLOTCUSTOMDPI
 70
   300
  0
XRECORD
  5
487
102
{ACAD_REACTORS
330
486
102
}
330
486
100
AcDbXrecord
280
     1
102
SHADEPLOT
 70
     0
102
SHADEPLOTRESLEVEL
 70
     2
102
SHADEPLOTCUSTOMDPI
 70
   300
  0
ENDSEC
  0
EOF
