  0
SECTION
  2
HEADER
  9
$ACADVER
  1
AC1015
  9
$ACADMAINTVER
 70
    20
  9
$DWGCODEPAGE
  3
ANSI_1252
  9
$INSBASE
 10
0.0
 20
0.0
 30
0.0
  9
$EXTMIN
 10
154.7867442942069
 20
-141.4915641089464
 30
-0.0015258207003583
  9
$EXTMAX
 10
168.7631842651907
 20
-128.4676739308252
 30
0.0000000349246037
  9
$LIMMIN
 10
0.0
 20
0.0
  9
$LIMMAX
 10
408.0
 20
264.0
  9
$ORTHOMODE
 70
     1
  9
$REGENMODE
 70
     1
  9
$FILLMODE
 70
     1
  9
$QTEXTMODE
 70
     0
  9
$MIRRTEXT
 70
     1
  9
$LTSCALE
 40
0.25
  9
$ATTMODE
 70
     1
  9
$TEXTSIZE
 40
0.1875
  9
$TRACEWID
 40
0.05
  9
$TEXTSTYLE
  7
STANDARD
  9
$CLAYER
  8
0
  9
$CELTYPE
  6
CONTINUOUS
  9
$CECOLOR
 62
   256
  9
$CELTSCALE
 40
1.0
  9
$DISPSILH
 70
     0
  9
$DIMSCALE
 40
1.0
  9
$DIMASZ
 40
0.125
  9
$DIMEXO
 40
0.0625
  9
$DIMDLI
 40
0.38
  9
$DIMRND
 40
0.0
  9
$DIMDLE
 40
0.0
  9
$DIMEXE
 40
0.09375
  9
$DIMTP
 40
0.0
  9
$DIMTM
 40
0.0
  9
$DIMTXT
 40
0.18
  9
$DIMCEN
 40
0.09
  9
$DIMTSZ
 40
0.0
  9
$DIMTOL
 70
     0
  9
$DIMLIM
 70
     0
  9
$DIMTIH
 70
     1
  9
$DIMTOH
 70
     1
  9
$DIMSE1
 70
     0
  9
$DIMSE2
 70
     0
  9
$DIMTAD
 70
     0
  9
$DIMZIN
 70
     0
  9
$DIMBLK
  1

  9
$DIMASO
 70
     1
  9
$DIMSHO
 70
     1
  9
$DIMPOST
  1

  9
$DIMAPOST
  1

  9
$DIMALT
 70
     1
  9
$DIMALTD
 70
     4
  9
$DIMALTF
 40
1.0
  9
$DIMLFAC
 40
1.0
  9
$DIMTOFL
 70
     0
  9
$DIMTVP
 40
0.0
  9
$DIMTIX
 70
     0
  9
$DIMSOXD
 70
     0
  9
$DIMSAH
 70
     0
  9
$DIMBLK1
  1

  9
$DIMBLK2
  1

  9
$DIMSTYLE
  2
STANDARD
  9
$DIMCLRD
 70
     0
  9
$DIMCLRE
 70
     0
  9
$DIMCLRT
 70
     0
  9
$DIMTFAC
 40
1.0
  9
$DIMGAP
 40
0.09
  9
$DIMJUST
 70
     0
  9
$DIMSD1
 70
     0
  9
$DIMSD2
 70
     0
  9
$DIMTOLJ
 70
     1
  9
$DIMTZIN
 70
     0
  9
$DIMALTZ
 70
     0
  9
$DIMALTTZ
 70
     0
  9
$DIMUPT
 70
     0
  9
$DIMDEC
 70
     4
  9
$DIMTDEC
 70
     4
  9
$DIMALTU
 70
     5
  9
$DIMALTTD
 70
     4
  9
$DIMTXSTY
  7
STANDARD
  9
$DIMAUNIT
 70
     0
  9
$DIMADEC
 70
     8
  9
$DIMALTRND
 40
0.0
  9
$DIMAZIN
 70
     0
  9
$DIMDSEP
 70
    46
  9
$DIMATFIT
 70
     3
  9
$DIMFRAC
 70
     0
  9
$DIMLDRBLK
  1

  9
$DIMLUNIT
 70
     2
  9
$DIMLWD
 70
    -2
  9
$DIMLWE
 70
    -2
  9
$DIMTMOVE
 70
     0
  9
$LUNITS
 70
     4
  9
$LUPREC
 70
     5
  9
$SKETCHINC
 40
0.1
  9
$FILLETRAD
 40
0.01
  9
$AUNITS
 70
     0
  9
$AUPREC
 70
     1
  9
$MENU
  1
acad
  9
$ELEVATION
 40
0.0
  9
$PELEVATION
 40
0.0
  9
$THICKNESS
 40
0.0
  9
$LIMCHECK
 70
     0
  9
$CHAMFERA
 40
0.0
  9
$CHAMFERB
 40
0.0
  9
$CHAMFERC
 40
1.0
  9
$CHAMFERD
 40
0.0
  9
$SKPOLY
 70
     0
  9
$TDCREATE
 40
2453453.437640602
  9
$TDUCREATE
 40
2453453.770973935
  9
$TDUPDATE
 40
2453808.507857523
  9
$TDUUPDATE
 40
2453808.841190856
  9
$TDINDWG
 40
4.9558592130
  9
$TDUSRTIMER
 40
4.9558592130
  9
$USRTIMER
 70
     1
  9
$ANGBASE
 50
0.0
  9
$ANGDIR
 70
     0
  9
$PDMODE
 70
     0
  9
$PDSIZE
 40
0.0
  9
$PLINEWID
 40
0.0
  9
$SPLFRAME
 70
     0
  9
$SPLINETYPE
 70
     6
  9
$SPLINESEGS
 70
     8
  9
$HANDSEED
  5
32B
  9
$SURFTAB1
 70
     6
  9
$SURFTAB2
 70
     6
  9
$SURFTYPE
 70
     6
  9
$SURFU
 70
     6
  9
$SURFV
 70
     6
  9
$UCSBASE
  2

  9
$UCSNAME
  2

  9
$UCSORG
 10
0.0
 20
0.0
 30
0.0
  9
$UCSXDIR
 10
1.0
 20
0.0
 30
0.0
  9
$UCSYDIR
 10
0.0
 20
1.0
 30
0.0
  9
$UCSORTHOREF
  2

  9
$UCSORTHOVIEW
 70
     1
  9
$UCSORGTOP
 10
0.0
 20
0.0
 30
0.0
  9
$UCSORGBOTTOM
 10
0.0
 20
0.0
 30
0.0
  9
$UCSORGLEFT
 10
0.0
 20
0.0
 30
0.0
  9
$UCSORGRIGHT
 10
0.0
 20
0.0
 30
0.0
  9
$UCSORGFRONT
 10
0.0
 20
0.0
 30
0.0
  9
$UCSORGBACK
 10
0.0
 20
0.0
 30
0.0
  9
$PUCSBASE
  2

  9
$PUCSNAME
  2

  9
$PUCSORG
 10
0.0
 20
0.0
 30
0.0
  9
$PUCSXDIR
 10
1.0
 20
0.0
 30
0.0
  9
$PUCSYDIR
 10
0.0
 20
1.0
 30
0.0
  9
$PUCSORTHOREF
  2

  9
$PUCSORTHOVIEW
 70
     0
  9
$PUCSORGTOP
 10
0.0
 20
0.0
 30
0.0
  9
$PUCSORGBOTTOM
 10
0.0
 20
0.0
 30
0.0
  9
$PUCSORGLEFT
 10
0.0
 20
0.0
 30
0.0
  9
$PUCSORGRIGHT
 10
0.0
 20
0.0
 30
0.0
  9
$PUCSORGFRONT
 10
0.0
 20
0.0
 30
0.0
  9
$PUCSORGBACK
 10
0.0
 20
0.0
 30
0.0
  9
$USERI1
 70
     0
  9
$USERI2
 70
     0
  9
$USERI3
 70
     0
  9
$USERI4
 70
     0
  9
$USERI5
 70
     0
  9
$USERR1
 40
0.0
  9
$USERR2
 40
0.0
  9
$USERR3
 40
0.0
  9
$USERR4
 40
0.0
  9
$USERR5
 40
0.0
  9
$WORLDVIEW
 70
     1
  9
$SHADEDGE
 70
     3
  9
$SHADEDIF
 70
    70
  9
$TILEMODE
 70
     1
  9
$MAXACTVP
 70
    48
  9
$PINSBASE
 10
0.0
 20
0.0
 30
0.0
  9
$PLIMCHECK
 70
     0
  9
$PEXTMIN
 10
0.0
 20
0.0
 30
0.0
  9
$PEXTMAX
 10
11.0
 20
8.5
 30
0.0
  9
$PLIMMIN
 10
0.0
 20
0.0
  9
$PLIMMAX
 10
11.0
 20
8.5
  9
$UNITMODE
 70
     0
  9
$VISRETAIN
 70
     1
  9
$PLINEGEN
 70
     0
  9
$PSLTSCALE
 70
     1
  9
$TREEDEPTH
 70
  3020
  9
$CMLSTYLE
  2
STANDARD
  9
$CMLJUST
 70
     0
  9
$CMLSCALE
 40
1.0
  9
$PROXYGRAPHICS
 70
     1
  9
$MEASUREMENT
 70
     0
  9
$CELWEIGHT
370
    -1
  9
$ENDCAPS
280
     0
  9
$JOINSTYLE
280
     0
  9
$LWDISPLAY
290
     0
  9
$INSUNITS
 70
     0
  9
$HYPERLINKBASE
  1

  9
$STYLESHEET
  1

  9
$XEDIT
290
     1
  9
$CEPSNTYPE
380
     0
  9
$PSTYLEMODE
290
     1
  9
$FINGERPRINTGUID
  2
{429355A8-7BC6-4FCE-9B99-57A0ED0E2088}
  9
$VERSIONGUID
  2
{E7455684-4116-4F28-AA72-8CBB0429CDED}
  9
$EXTNAMES
290
     1
  9
$PSVPSCALE
 40
0.0
  9
$OLESTARTUP
290
     0
  0
ENDSEC
  0
SECTION
  2
CLASSES
  0
CLASS
  1
DICTIONARYVAR
  2
AcDbDictionaryVar
  3
ObjectDBX Classes
 90
        0
280
     0
281
     0
  0
CLASS
  1
ACDBDICTIONARYWDFLT
  2
AcDbDictionaryWithDefault
  3
ObjectDBX Classes
 90
        0
280
     0
281
     0
  0
CLASS
  1
ACDBPLACEHOLDER
  2
AcDbPlaceHolder
  3
ObjectDBX Classes
 90
        0
280
     0
281
     0
  0
CLASS
  1
LAYOUT
  2
AcDbLayout
  3
ObjectDBX Classes
 90
        0
280
     0
281
     0
  0
ENDSEC
  0
SECTION
  2
TABLES
  0
TABLE
  2
VPORT
  5
24
330
0
100
AcDbSymbolTable
 70
     3
  0
VPORT
  5
323
330
24
100
AcDbSymbolTableRecord
100
AcDbViewportTableRecord
  2
*Active
 70
     0
 10
0.0
 20
0.0
 11
1.0
 21
1.0
 12
161.7749642796988
 22
-134.9796190198858
 13
0.0
 23
0.0
 14
0.5
 24
0.5
 15
0.5
 25
0.5
 16
0.0
 26
0.0
 36
1.0
 17
0.0
 27
0.0
 37
0.0
 40
13.11680734942774
 41
1.45595238095238
 42
50.0
 43
0.0
 44
0.0
 50
0.0
 51
0.0
 71
     0
 72
   100
 73
     1
 74
     1
 75
     0
 76
     0
 77
     0
 78
     1
281
     0
 65
     1
110
0.0
120
0.0
130
0.0
111
1.0
121
0.0
131
0.0
112
0.0
122
1.0
132
0.0
 79
     0
146
0.0
  0
ENDTAB
  0
TABLE
  2
LTYPE
  5
1F
330
0
100
AcDbSymbolTable
 70
     3
  0
LTYPE
  5
20
330
1F
100
AcDbSymbolTableRecord
100
AcDbLinetypeTableRecord
  2
BYBLOCK
 70
     0
  3

 72
    65
 73
     0
 40
0.0
  0
LTYPE
  5
21
330
1F
100
AcDbSymbolTableRecord
100
AcDbLinetypeTableRecord
  2
BYLAYER
 70
     0
  3

 72
    65
 73
     0
 40
0.0
  0
LTYPE
  5
A
330
1F
100
AcDbSymbolTableRecord
100
AcDbLinetypeTableRecord
  2
CONTINUOUS
 70
     0
  3
Solid line
 72
    65
 73
     0
 40
0.0
  0
LTYPE
  5
35
330
1F
100
AcDbSymbolTableRecord
100
AcDbLinetypeTableRecord
  2
ACAD_ISO02W100
 70
     0
  3
ISO dash __ __ __ __ __ __ __ __ __ __ __ __ __
 72
    65
 73
     2
 40
15.0
 49
12.0
 74
     0
 49
-3.0
 74
     0
  0
LTYPE
  5
36
330
1F
100
AcDbSymbolTableRecord
100
AcDbLinetypeTableRecord
  2
DASHED2
 70
     0
  3
Dashed (.5x) _ _ _ _ _ _ _ _ _ _ _ _ _ _ _ _ _
 72
    65
 73
     2
 40
0.375
 49
0.25
 74
     0
 49
-0.125
 74
     0
  0
ENDTAB
  0
TABLE
  2
LAYER
  5
14
102
{ACAD_XDICTIONARY
360
15
102
}
330
0
100
AcDbSymbolTable
 70
     6
  0
LAYER
  5
6
330
14
100
AcDbSymbolTableRecord
100
AcDbLayerTableRecord
  2
0
 70
     0
 62
     7
  6
CONTINUOUS
370
    -3
390
7
  0
LAYER
  5
54
330
14
100
AcDbSymbolTableRecord
100
AcDbLayerTableRecord
  2
.050 Flashing
 70
     0
 62
   120
  6
CONTINUOUS
370
     5
390
7
  0
LAYER
  5
34
330
14
100
AcDbSymbolTableRecord
100
AcDbLayerTableRecord
  2
Curb
 70
     0
 62
    12
  6
ACAD_ISO02W100
370
     9
390
7
  0
LAYER
  5
260
330
14
100
AcDbSymbolTableRecord
100
AcDbLayerTableRecord
  2
5
 70
     0
 62
     5
  6
CONTINUOUS
370
    -3
390
7
  0
LAYER
  5
232
330
14
100
AcDbSymbolTableRecord
100
AcDbLayerTableRecord
  2
DEFPOINTS
 70
     0
 62
     7
  6
CONTINUOUS
290
     0
370
    -3
390
7
  0
LAYER
  5
57
330
14
100
AcDbSymbolTableRecord
100
AcDbLayerTableRecord
  2
Glazing
 70
     0
 62
     5
  6
CONTINUOUS
370
    -3
390
7
  0
ENDTAB
  0
TABLE
  2
STYLE
  5
1B
330
0
100
AcDbSymbolTable
 70
     2
  0
STYLE
  5
1C
330
1B
100
AcDbSymbolTableRecord
100
AcDbTextStyleTableRecord
  2
STANDARD
 70
     0
 40
0.1875
 41
1.0
 50
0.0
 71
     0
 42
0.1875
  3
ARIAL.TTF
  4

1001
ACAD
1000
Arial
1071
       34
  0
STYLE
  5
2A
330
1B
100
AcDbSymbolTableRecord
100
AcDbTextStyleTableRecord
  2
ARCHITXT
 70
     0
 40
3.0
 41
1.0
 50
0.0
 71
     0
 42
3.0
  3
architxt.shx
  4

  0
ENDTAB
  0
TABLE
  2
VIEW
  5
22
330
0
100
AcDbSymbolTable
 70
     0
  0
ENDTAB
  0
TABLE
  2
UCS
  5
23
330
0
100
AcDbSymbolTable
 70
     0
  0
ENDTAB
  0
TABLE
  2
APPID
  5
26
330
0
100
AcDbSymbolTable
 70
     1
  0
APPID
  5
1D
330
26
100
AcDbSymbolTableRecord
100
AcDbRegAppTableRecord
  2
ACAD
 70
     0
  0
ENDTAB
  0
TABLE
  2
DIMSTYLE
  5
27
330
0
100
AcDbSymbolTable
 70
     2
100
AcDbDimStyleTable
 71
     2
340
28
340
29
  0
DIMSTYLE
105
28
330
27
100
AcDbSymbolTableRecord
100
AcDbDimStyleTableRecord
  2
STANDARD
 70
     0
 41
0.125
 44
0.09375
143
1.0
170
     1
171
     4
179
     8
273
     5
274
     4
340
1C
  0
DIMSTYLE
105
29
330
27
100
AcDbSymbolTableRecord
100
AcDbDimStyleTableRecord
  2
ARCHITXT_WS
 70
     0
 40
24.0
 41
0.1875
 43
0.375
 44
0.1875
140
0.125
141
0.0625
147
0.0625
174
     1
271
     5
272
     5
276
     2
277
     4
340
2A
  0
ENDTAB
  0
TABLE
  2
BLOCK_RECORD
  5
1
330
0
100
AcDbSymbolTable
 70
     8
  0
BLOCK_RECORD
  5
2
102
{ACAD_XDICTIONARY
360
3
102
}
330
1
100
AcDbSymbolTableRecord
100
AcDbBlockTableRecord
  2
*MODEL_SPACE
340
C
  0
BLOCK_RECORD
  5
E
102
{ACAD_XDICTIONARY
360
F
102
}
330
1
100
AcDbSymbolTableRecord
100
AcDbBlockTableRecord
  2
*PAPER_SPACE
340
13
  0
BLOCK_RECORD
  5
25D
330
1
100
AcDbSymbolTableRecord
100
AcDbBlockTableRecord
  2
epdm
340
0
310
2800000020000000200000000100080000000000000400000000000000000000000000000000000000000000000080000080000000808000800000008000800080800000C0C0C000C0DCC000F0CAA6000020400000206000002080000020A0000020C0000020E00000400000004020000040400000406000004080000040A0
310
000040C0000040E00000600000006020000060400000606000006080000060A0000060C0000060E00000800000008020000080400000806000008080000080A0000080C0000080E00000A0000000A0200000A0400000A0600000A0800000A0A00000A0C00000A0E00000C0000000C0200000C0400000C0600000C0800000C0
310
A00000C0C00000C0E00000E0000000E0200000E0400000E0600000E0800000E0A00000E0C00000E0E00040000000400020004000400040006000400080004000A0004000C0004000E00040200000402020004020400040206000402080004020A0004020C0004020E000404000004040200040404000404060004040800040
310
40A0004040C0004040E00040600000406020004060400040606000406080004060A0004060C0004060E00040800000408020004080400040806000408080004080A0004080C0004080E00040A0000040A0200040A0400040A0600040A0800040A0A00040A0C00040A0E00040C0000040C0200040C0400040C0600040C08000
310
40C0A00040C0C00040C0E00040E0000040E0200040E0400040E0600040E0800040E0A00040E0C00040E0E00080000000800020008000400080006000800080008000A0008000C0008000E00080200000802020008020400080206000802080008020A0008020C0008020E00080400000804020008040400080406000804080
310
008040A0008040C0008040E00080600000806020008060400080606000806080008060A0008060C0008060E00080800000808020008080400080806000808080008080A0008080C0008080E00080A0000080A0200080A0400080A0600080A0800080A0A00080A0C00080A0E00080C0000080C0200080C0400080C0600080C0
310
800080C0A00080C0C00080C0E00080E0000080E0200080E0400080E0600080E0800080E0A00080E0C00080E0E000C0000000C0002000C0004000C0006000C0008000C000A000C000C000C000E000C0200000C0202000C0204000C0206000C0208000C020A000C020C000C020E000C0400000C0402000C0404000C0406000C0
310
408000C040A000C040C000C040E000C0600000C0602000C0604000C0606000C0608000C060A000C060C000C060E000C0800000C0802000C0804000C0806000C0808000C080A000C080C000C080E000C0A00000C0A02000C0A04000C0A06000C0A08000C0A0A000C0A0C000C0A0E000C0C00000C0C02000C0C04000C0C06000
310
C0C08000C0C0A000F0FBFF00A4A0A000808080000000FF0000FF000000FFFF00FF000000FF00FF00FFFF0000FFFFFF0000000000000000000000000000000000000000000000000000000000000000000000000000000000000000000000000000000000000000000000000000000000000000000000000000000000000000
310
00000000000000000000000000000000000000000000000000000000000000000000000000000000000000000000000000000000000000000000000000000000000000000000000000000000000000000000000000000000000000000000000000000000000000000000000000000000000000000000000000000000000000
310
00000000000000000000000000000000000000000000000000000000000000000000000000000000000000000000000000000000000000000000000000000000000000000000000000000000000000000000000000000000000000000000FFFCFCFCFCFCFFFF0000000000000000000000000000000000000000000000FFFF
310
FFFFFFFFFF00FFFF00000000000000000000000000000000000000000000FFFFFCFCFFFFFFFFFFFF00000000000000000000000000000000000000000000FCFC00FC00FFFF00FCFF000000000000000000000000000000000000000000000000FC00FFFF00FF00000000000000000000000000000000000000000000000000
310
00FCFFFF00FFFF00000000000000000000000000000000000000000000000000FCFFFF00FFFFFFFC00000000000000000000000000FFFFFFFFFFFFFFFCFCFCFCFCFF00FFFFFF00FCFCFCFCFCFCFCFCFCFCFCFC0000FFFFFFFFFFFFFFFFFFFFFFFF00FFFFFF00FFFFFFFFFFFFFFFFFFFFFFFFFF0000FFFFFFFFFFFFFFFFFFFF
310
FF00FFFFFF00FFFFFFFFFFFFFFFFFFFFFFFFFFFF0000FFFFFFFFFFFFFFFFFFFF00FFFFFFFFFFFFFFFFFFFFFFFFFFFFFFFFFFFFFF0000FFFF00FFFFFFFF00FF00FFFFFFFF00FF00FFFFFFFF00FF00FFFFFFFFFFFF0000FC00FFFCFFFC00FC00FFFCFFFC00FCFCFFFCFFFC00FFFCFFFCFFFCFFFFFC000000FCFCFFFC00FC00FC
310
FCFFFC00FC00FFFCFFFC00FCFCFFFCFFFC00FCFC0000000000000000000000000000000000000000000000000000000000000000000000000000000000000000000000000000000000000000000000000000000000000000000000000000000000000000000000000000000000000000000000000000000000000000000000
310
00000000000000000000000000000000000000000000000000000000000000000000000000000000000000000000000000000000000000000000000000000000000000000000000000000000000000000000000000000000000000000000000000000000000000000000000000000000000000000000000000000000000000
310
0000000000000000000000000000000000000000000000000000000000000000000000000000000000000000000000000000000000000000
102
{BLKREFS
331
25C
331
2CA
331
2DD
331
2DE
102
}
  0
BLOCK_RECORD
  5
A9
330
1
100
AcDbSymbolTableRecord
100
AcDbBlockTableRecord
  2
R4
340
0
310
2800000020000000200000000100080000000000000400000000000000000000000000000000000000000000000080000080000000808000800000008000800080800000C0C0C000C0DCC000F0CAA6000020400000206000002080000020A0000020C0000020E00000400000004020000040400000406000004080000040A0
310
000040C0000040E00000600000006020000060400000606000006080000060A0000060C0000060E00000800000008020000080400000806000008080000080A0000080C0000080E00000A0000000A0200000A0400000A0600000A0800000A0A00000A0C00000A0E00000C0000000C0200000C0400000C0600000C0800000C0
310
A00000C0C00000C0E00000E0000000E0200000E0400000E0600000E0800000E0A00000E0C00000E0E00040000000400020004000400040006000400080004000A0004000C0004000E00040200000402020004020400040206000402080004020A0004020C0004020E000404000004040200040404000404060004040800040
310
40A0004040C0004040E00040600000406020004060400040606000406080004060A0004060C0004060E00040800000408020004080400040806000408080004080A0004080C0004080E00040A0000040A0200040A0400040A0600040A0800040A0A00040A0C00040A0E00040C0000040C0200040C0400040C0600040C08000
310
40C0A00040C0C00040C0E00040E0000040E0200040E0400040E0600040E0800040E0A00040E0C00040E0E00080000000800020008000400080006000800080008000A0008000C0008000E00080200000802020008020400080206000802080008020A0008020C0008020E00080400000804020008040400080406000804080
310
008040A0008040C0008040E00080600000806020008060400080606000806080008060A0008060C0008060E00080800000808020008080400080806000808080008080A0008080C0008080E00080A0000080A0200080A0400080A0600080A0800080A0A00080A0C00080A0E00080C0000080C0200080C0400080C0600080C0
310
800080C0A00080C0C00080C0E00080E0000080E0200080E0400080E0600080E0800080E0A00080E0C00080E0E000C0000000C0002000C0004000C0006000C0008000C000A000C000C000C000E000C0200000C0202000C0204000C0206000C0208000C020A000C020C000C020E000C0400000C0402000C0404000C0406000C0
310
408000C040A000C040C000C040E000C0600000C0602000C0604000C0606000C0608000C060A000C060C000C060E000C0800000C0802000C0804000C0806000C0808000C080A000C080C000C080E000C0A00000C0A02000C0A04000C0A06000C0A08000C0A0A000C0A0C000C0A0E000C0C00000C0C02000C0C04000C0C06000
310
C0C08000C0C0A000F0FBFF00A4A0A000808080000000FF0000FF000000FFFF00FF000000FF00FF00FFFF0000FFFFFF00000000000000000000000000000000000000000000000000000000000000000000000000000000FFFFFFFFFFFFFFFFFFFFFFFFFFFFFFFFFFFF0000000000000000000000000000FFFF000000000000
310
0000000000000000FFFF0000000000000000000000000000FFFF00FF0000FFFFFFFFFFFF0000FF00FFFF0000000000000000000000000000FFFF00FFFFFF000000000000FFFFFF00FFFF000000000000000000000000000000FFFFFF00000000000000000000FFFFFF00000000000000000000000000000000FFFF00000000
310
0000000000000000FFFF00000000000000000000000000000000FFFF000000000000000000000000FFFF00000000000000000000000000000000FFFF000000000000000000000000FFFF00000000000000000000000000000000FFFF000000000000000000000000FFFF00000000000000000000000000000000FFFF000000
310
000000000000000000FFFF00000000000000000000000000000000FFFF000000000000000000000000FFFF00000000000000000000000000000000FFFF000000000000000000000000FFFF00000000000000000000000000000000FFFF000000000000000000000000FFFF00000000000000000000000000000000FFFF0000
310
00000000000000000000FFFF00000000000000000000000000000000FFFF000000000000000000000000FFFF00000000000000000000000000000000FFFF000000000000000000000000FFFF00000000000000000000000000000000FFFF000000000000000000000000FFFF00000000000000000000000000000000FFFF00
310
0000000000000000000000FFFF00000000000000000000000000000000FFFF000000000000000000000000FFFF00000000000000000000000000000000FFFF000000000000000000000000FFFF00000000000000000000000000000000FFFF000000000000000000000000FFFF00000000000000000000000000000000FFFF
310
FFFF0000FFFFFFFF0000FFFFFFFF00000000000000000000000000000000FF00FFFF0000FFFFFFFF0000FFFF00FF00000000000000000000000000000000FF00FFFF0000FFFFFFFF0000FFFF00FF00000000000000000000000000000000FF00FFFF0000FFFFFFFF0000FFFF00FF00000000000000000000000000000000FF
310
FF00000000FFFFFFFF00000000FFFF00000000000000000000000000000000FFFFFFFFFFFFFFFFFFFFFFFFFFFFFFFF00000000000000000000000000000000FF000000000000FFFF000000000000FF00000000000000000000000000000000FF00FFFFFFFFFFFFFFFFFFFFFFFF00FF00000000000000000000000000000000
310
FFFFFFFFFF000000000000FFFFFFFFFF00000000000000000000000000000000000000000000000000000000000000000000000000000000
102
{BLKREFS
331
A8
102
}
  0
BLOCK_RECORD
  5
91
330
1
100
AcDbSymbolTableRecord
100
AcDbBlockTableRecord
  2
snap cap
340
0
310
2800000020000000200000000100080000000000000400000000000000000000000000000000000000000000000080000080000000808000800000008000800080800000C0C0C000C0DCC000F0CAA6000020400000206000002080000020A0000020C0000020E00000400000004020000040400000406000004080000040A0
310
000040C0000040E00000600000006020000060400000606000006080000060A0000060C0000060E00000800000008020000080400000806000008080000080A0000080C0000080E00000A0000000A0200000A0400000A0600000A0800000A0A00000A0C00000A0E00000C0000000C0200000C0400000C0600000C0800000C0
310
A00000C0C00000C0E00000E0000000E0200000E0400000E0600000E0800000E0A00000E0C00000E0E00040000000400020004000400040006000400080004000A0004000C0004000E00040200000402020004020400040206000402080004020A0004020C0004020E000404000004040200040404000404060004040800040
310
40A0004040C0004040E00040600000406020004060400040606000406080004060A0004060C0004060E00040800000408020004080400040806000408080004080A0004080C0004080E00040A0000040A0200040A0400040A0600040A0800040A0A00040A0C00040A0E00040C0000040C0200040C0400040C0600040C08000
310
40C0A00040C0C00040C0E00040E0000040E0200040E0400040E0600040E0800040E0A00040E0C00040E0E00080000000800020008000400080006000800080008000A0008000C0008000E00080200000802020008020400080206000802080008020A0008020C0008020E00080400000804020008040400080406000804080
310
008040A0008040C0008040E00080600000806020008060400080606000806080008060A0008060C0008060E00080800000808020008080400080806000808080008080A0008080C0008080E00080A0000080A0200080A0400080A0600080A0800080A0A00080A0C00080A0E00080C0000080C0200080C0400080C0600080C0
310
800080C0A00080C0C00080C0E00080E0000080E0200080E0400080E0600080E0800080E0A00080E0C00080E0E000C0000000C0002000C0004000C0006000C0008000C000A000C000C000C000E000C0200000C0202000C0204000C0206000C0208000C020A000C020C000C020E000C0400000C0402000C0404000C0406000C0
310
408000C040A000C040C000C040E000C0600000C0602000C0604000C0606000C0608000C060A000C060C000C060E000C0800000C0802000C0804000C0806000C0808000C080A000C080C000C080E000C0A00000C0A02000C0A04000C0A06000C0A08000C0A0A000C0A0C000C0A0E000C0C00000C0C02000C0C04000C0C06000
310
C0C08000C0C0A000F0FBFF00A4A0A000808080000000FF0000FF000000FFFF00FF000000FF00FF00FFFF0000FFFFFF0000000000000000000000000000000000000000000000000000000000000000000000000000000000000000000000000000000000000000000000000000000000000000000000000000000000000000
310
00000000000000000000000000000000000000000000000000000000000000000000000000000000000000000000000000000000000000000000000000000000000000000000000000000000000000000000000000000000000000000000000000000000000000000000000000000000000000000000000000000000000000
310
00000000000000000000000000000000000000000000000000000000000000000000000000000000000000000000000000000000000000000000000000000000000000000000000000000000000000000000000000000000000000000000000000000000000000000000000000000000000000000000000000000000000000
310
00000000000000000000000000000000000000000000000000000000000000000000000000000000000000000000000000000000FFFF0000000000000000000000000000000000000000000000000000FFFF0000FFFF0000000000000000000000000000000000000000000000000000FFFF0000FFFF000000000000000000
310
0000000000000000000000000000000000FFFF0000FFFF0000000000000000000000000000000000000000000000000000FFFF0000FFFF0000000000000000000000000000000000000000000000000000FFFF0000FFFF0000000000000000000000000000000000000000000000000000FFFF0000FFFFFFFFFFFFFFFFFFFF
310
FFFFFFFFFFFFFFFFFFFFFFFFFFFFFFFFFFFFFFFF000000FFFFFFFFFFFFFFFFFFFFFFFFFFFFFFFFFFFFFFFFFFFFFFFFFFFFFFFF00000000000000000000000000000000000000000000000000000000000000000000000000000000000000000000000000000000000000000000000000000000000000000000000000000000
310
00000000000000000000000000000000000000000000000000000000000000000000000000000000000000000000000000000000000000000000000000000000000000000000000000000000000000000000000000000000000000000000000000000000000000000000000000000000000000000000000000000000000000
310
00000000000000000000000000000000000000000000000000000000000000000000000000000000000000000000000000000000000000000000000000000000000000000000000000000000000000000000000000000000000000000000000000000000000000000000000000000000000000000000000000000000000000
310
0000000000000000000000000000000000000000000000000000000000000000000000000000000000000000000000000000000000000000
102
{BLKREFS
331
90
102
}
  0
BLOCK_RECORD
  5
61
330
1
100
AcDbSymbolTableRecord
100
AcDbBlockTableRecord
  2
pressure cap
340
0
310
2800000020000000200000000100080000000000000400000000000000000000000000000000000000000000000080000080000000808000800000008000800080800000C0C0C000C0DCC000F0CAA6000020400000206000002080000020A0000020C0000020E00000400000004020000040400000406000004080000040A0
310
000040C0000040E00000600000006020000060400000606000006080000060A0000060C0000060E00000800000008020000080400000806000008080000080A0000080C0000080E00000A0000000A0200000A0400000A0600000A0800000A0A00000A0C00000A0E00000C0000000C0200000C0400000C0600000C0800000C0
310
A00000C0C00000C0E00000E0000000E0200000E0400000E0600000E0800000E0A00000E0C00000E0E00040000000400020004000400040006000400080004000A0004000C0004000E00040200000402020004020400040206000402080004020A0004020C0004020E000404000004040200040404000404060004040800040
310
40A0004040C0004040E00040600000406020004060400040606000406080004060A0004060C0004060E00040800000408020004080400040806000408080004080A0004080C0004080E00040A0000040A0200040A0400040A0600040A0800040A0A00040A0C00040A0E00040C0000040C0200040C0400040C0600040C08000
310
40C0A00040C0C00040C0E00040E0000040E0200040E0400040E0600040E0800040E0A00040E0C00040E0E00080000000800020008000400080006000800080008000A0008000C0008000E00080200000802020008020400080206000802080008020A0008020C0008020E00080400000804020008040400080406000804080
310
008040A0008040C0008040E00080600000806020008060400080606000806080008060A0008060C0008060E00080800000808020008080400080806000808080008080A0008080C0008080E00080A0000080A0200080A0400080A0600080A0800080A0A00080A0C00080A0E00080C0000080C0200080C0400080C0600080C0
310
800080C0A00080C0C00080C0E00080E0000080E0200080E0400080E0600080E0800080E0A00080E0C00080E0E000C0000000C0002000C0004000C0006000C0008000C000A000C000C000C000E000C0200000C0202000C0204000C0206000C0208000C020A000C020C000C020E000C0400000C0402000C0404000C0406000C0
310
408000C040A000C040C000C040E000C0600000C0602000C0604000C0606000C0608000C060A000C060C000C060E000C0800000C0802000C0804000C0806000C0808000C080A000C080C000C080E000C0A00000C0A02000C0A04000C0A06000C0A08000C0A0A000C0A0C000C0A0E000C0C00000C0C02000C0C04000C0C06000
310
C0C08000C0C0A000F0FBFF00A4A0A000808080000000FF0000FF000000FFFF00FF000000FF00FF00FFFF0000FFFFFF0000000000000000000000000000000000000000000000000000000000000000000000000000000000000000000000000000000000000000000000000000000000000000000000000000000000000000
310
00000000000000000000000000000000000000000000000000000000000000000000000000000000000000000000000000000000000000000000000000000000000000000000000000000000000000000000000000000000000000000000000000000000000000000000000000000000000000000000000000000000000000
310
00000000000000000000000000000000000000000000000000000000000000000000000000000000000000000000000000000000000000000000000000000000000000000000000000000000000000000000000000000000000000000000000000000000000000000000000000000000000000000000000000000000000000
310
00000000000000000000000000000000000000000000000000000000000000000000000000000000000000000000000000000000000000000000000000000000000000000000000000000000000000000000000000FFFFFF00FFFFFFFFFFFFFFFFFFFFFFFFFFFFFFFFFFFFFFFF00FFFFFF00000000FF00FF0000FFFFFFFFFF
310
FFFFFFFFFFFFFFFFFFFFFFFFFF0000FF00FF000000FF0000FFFFFFFFFF0000000000000000000000000000FFFFFFFFFF0000FF0000FF00FF000000000000000000000000000000000000000000000000FF00FF000000FFFF000000000000000000000000000000000000000000000000FFFF00000000FFFF00000000000000
310
0000000000000000000000000000000000FFFF000000000000000000000000000000000000000000000000000000000000000000000000000000000000000000000000000000000000000000000000000000000000000000000000000000000000000000000000000000000000000000000000000000000000000000000000
310
00000000000000000000000000000000000000000000000000000000000000000000000000000000000000000000000000000000000000000000000000000000000000000000000000000000000000000000000000000000000000000000000000000000000000000000000000000000000000000000000000000000000000
310
00000000000000000000000000000000000000000000000000000000000000000000000000000000000000000000000000000000000000000000000000000000000000000000000000000000000000000000000000000000000000000000000000000000000000000000000000000000000000000000000000000000000000
310
0000000000000000000000000000000000000000000000000000000000000000000000000000000000000000000000000000000000000000
102
{BLKREFS
331
60
102
}
  0
BLOCK_RECORD
  5
162
330
1
100
AcDbSymbolTableRecord
100
AcDbBlockTableRecord
  2
*X4
340
0
102
{BLKREFS
331
161
102
}
  0
BLOCK_RECORD
  5
15E
330
1
100
AcDbSymbolTableRecord
100
AcDbBlockTableRecord
  2
work point
340
0
310
2800000020000000200000000100080000000000000400000000000000000000000000000000000000000000000080000080000000808000800000008000800080800000C0C0C000C0DCC000F0CAA6000020400000206000002080000020A0000020C0000020E00000400000004020000040400000406000004080000040A0
310
000040C0000040E00000600000006020000060400000606000006080000060A0000060C0000060E00000800000008020000080400000806000008080000080A0000080C0000080E00000A0000000A0200000A0400000A0600000A0800000A0A00000A0C00000A0E00000C0000000C0200000C0400000C0600000C0800000C0
310
A00000C0C00000C0E00000E0000000E0200000E0400000E0600000E0800000E0A00000E0C00000E0E00040000000400020004000400040006000400080004000A0004000C0004000E00040200000402020004020400040206000402080004020A0004020C0004020E000404000004040200040404000404060004040800040
310
40A0004040C0004040E00040600000406020004060400040606000406080004060A0004060C0004060E00040800000408020004080400040806000408080004080A0004080C0004080E00040A0000040A0200040A0400040A0600040A0800040A0A00040A0C00040A0E00040C0000040C0200040C0400040C0600040C08000
310
40C0A00040C0C00040C0E00040E0000040E0200040E0400040E0600040E0800040E0A00040E0C00040E0E00080000000800020008000400080006000800080008000A0008000C0008000E00080200000802020008020400080206000802080008020A0008020C0008020E00080400000804020008040400080406000804080
310
008040A0008040C0008040E00080600000806020008060400080606000806080008060A0008060C0008060E00080800000808020008080400080806000808080008080A0008080C0008080E00080A0000080A0200080A0400080A0600080A0800080A0A00080A0C00080A0E00080C0000080C0200080C0400080C0600080C0
310
800080C0A00080C0C00080C0E00080E0000080E0200080E0400080E0600080E0800080E0A00080E0C00080E0E000C0000000C0002000C0004000C0006000C0008000C000A000C000C000C000E000C0200000C0202000C0204000C0206000C0208000C020A000C020C000C020E000C0400000C0402000C0404000C0406000C0
310
408000C040A000C040C000C040E000C0600000C0602000C0604000C0606000C0608000C060A000C060C000C060E000C0800000C0802000C0804000C0806000C0808000C080A000C080C000C080E000C0A00000C0A02000C0A04000C0A06000C0A08000C0A0A000C0A0C000C0A0E000C0C00000C0C02000C0C04000C0C06000
310
C0C08000C0C0A000F0FBFF00A4A0A000808080000000FF0000FF000000FFFF00FF000000FF00FF00FFFF0000FFFFFF000000000000000000000000000000000000000000000000000000000000000000000000000000000000000000000000FF00000000000000000000000000000000000000000000000000000000000000
310
FF00000000000000000000000000000000000000000000000000000000000000FF00000000000000000000000000000000000000000000000000000000000000FF00000000000000000000000000000000000000000000000000000000000000FF000000000000000000000000000000000000000000000000000000000000
310
00FF00000000000000000000000000000000000000000000000000000000000000FF00000000000000000000000000000000000000000000000000000000000000FF00000000000000000000000000000000000000000000000000000000000000FF0000000000000000000000000000000000000000000000000000000000
310
00FFFFFFFFFF00000000000000000000000000000000000000000000000000FFFF00FFFFFFFFFF0000000000000000000000000000000000000000000000FF000000FFFFFFFFFFFF000000000000000000000000000000000000000000FF00000000FFFFFFFFFFFFFF0000000000000000000000000000000000000000FF00
310
000000FFFFFFFFFFFFFF0000000000000000000000000000000000000000FF00000000FFFFFFFFFFFFFF0000000000000000000000FFFFFFFFFFFFFFFFFFFFFFFFFFFFFFFFFFFFFFFFFFFFFFFFFFFFFFFFFFFF0000000000000000000000FFFFFFFFFFFFFF00000000FF0000000000000000000000000000000000000000FF
310
FFFFFFFFFFFF00000000FF000000000000000000000000000000000000000000FFFFFFFFFFFF000000FF0000000000000000000000000000000000000000000000FFFFFFFFFF0000FF00000000000000000000000000000000000000000000000000FFFFFFFFFFFF0000000000000000000000000000000000000000000000
310
0000000000FF00000000000000000000000000000000000000000000000000000000000000FF00000000000000000000000000000000000000000000000000000000000000FF00000000000000000000000000000000000000000000000000000000000000FF00000000000000000000000000000000000000000000000000
310
000000000000FF00000000000000000000000000000000000000000000000000000000000000FF00000000000000000000000000000000000000000000000000000000000000FF00000000000000000000000000000000000000000000000000000000000000FF000000000000000000000000000000000000000000000000
310
00000000000000FF000000000000000000000000000000000000000000000000000000000000000000000000000000000000000000000000
102
{BLKREFS
331
15D
102
}
  0
BLOCK_RECORD
  5
187
330
1
100
AcDbSymbolTableRecord
100
AcDbBlockTableRecord
  2
screwwy
340
0
310
2800000020000000200000000100080000000000000400000000000000000000000000000000000000000000000080000080000000808000800000008000800080800000C0C0C000C0DCC000F0CAA6000020400000206000002080000020A0000020C0000020E00000400000004020000040400000406000004080000040A0
310
000040C0000040E00000600000006020000060400000606000006080000060A0000060C0000060E00000800000008020000080400000806000008080000080A0000080C0000080E00000A0000000A0200000A0400000A0600000A0800000A0A00000A0C00000A0E00000C0000000C0200000C0400000C0600000C0800000C0
310
A00000C0C00000C0E00000E0000000E0200000E0400000E0600000E0800000E0A00000E0C00000E0E00040000000400020004000400040006000400080004000A0004000C0004000E00040200000402020004020400040206000402080004020A0004020C0004020E000404000004040200040404000404060004040800040
310
40A0004040C0004040E00040600000406020004060400040606000406080004060A0004060C0004060E00040800000408020004080400040806000408080004080A0004080C0004080E00040A0000040A0200040A0400040A0600040A0800040A0A00040A0C00040A0E00040C0000040C0200040C0400040C0600040C08000
310
40C0A00040C0C00040C0E00040E0000040E0200040E0400040E0600040E0800040E0A00040E0C00040E0E00080000000800020008000400080006000800080008000A0008000C0008000E00080200000802020008020400080206000802080008020A0008020C0008020E00080400000804020008040400080406000804080
310
008040A0008040C0008040E00080600000806020008060400080606000806080008060A0008060C0008060E00080800000808020008080400080806000808080008080A0008080C0008080E00080A0000080A0200080A0400080A0600080A0800080A0A00080A0C00080A0E00080C0000080C0200080C0400080C0600080C0
310
800080C0A00080C0C00080C0E00080E0000080E0200080E0400080E0600080E0800080E0A00080E0C00080E0E000C0000000C0002000C0004000C0006000C0008000C000A000C000C000C000E000C0200000C0202000C0204000C0206000C0208000C020A000C020C000C020E000C0400000C0402000C0404000C0406000C0
310
408000C040A000C040C000C040E000C0600000C0602000C0604000C0606000C0608000C060A000C060C000C060E000C0800000C0802000C0804000C0806000C0808000C080A000C080C000C080E000C0A00000C0A02000C0A04000C0A06000C0A08000C0A0A000C0A0C000C0A0E000C0C00000C0C02000C0C04000C0C06000
310
C0C08000C0C0A000F0FBFF00A4A0A000808080000000FF0000FF000000FFFF00FF000000FF00FF00FFFF0000FFFFFF00000000000000000000000000000000000000000000000000000000000000000000000000000000000000000000000000FF0000000000000000000000000000000000000000000000000000000000FF
310
FFFFFF00000000000000000000000000000000000000000000000000000000FFFFFFFF00000000000000000000000000000000000000000000000000000000FFFFFFFF00000000000000000000000000000000000000000000000000000000FFFFFFFF00000000000000000000000000000000000000000000000000000000
310
FFFFFFFF00000000000000000000000000000000000000000000000000000000FFFFFFFF00000000000000000000000000000000000000000000000000000000FFFFFFFF00000000000000000000000000000000000000000000000000000000FFFFFFFF000000000000000000000000000000000000000000000000000000
310
00FFFFFFFF00000000000000000000000000000000000000000000000000000000FF0000FF00000000000000000000000000000000000000000000000000000000FF0000FF00000000000000000000000000000000000000000000000000000000FF0000FF0000000000000000000000000000000000000000000000000000
310
0000FF0000FF00000000000000000000000000000000000000000000000000000000FF0000FF00000000000000000000000000000000000000000000000000000000FF0000FF00000000000000000000000000000000000000000000000000000000FF0000FF00000000000000000000000000000000000000000000000000
310
000000FF0000FF00000000000000000000000000000000000000000000000000000000FF0000FF00000000000000000000000000000000000000000000000000000000FF0000FF00000000000000000000000000000000000000000000000000000000FF0000FF000000000000000000000000000000000000000000000000
310
00000000FF0000FF00000000000000000000000000000000000000000000000000000000FF0000FF00000000000000000000000000000000000000000000000000000000FF0000FF00000000000000000000000000000000000000000000000000000000FF0000FF0000000000000000000000000000000000000000000000
310
0000000000FF0000FF00000000000000000000000000000000000000000000000000000000FF0000FF000000000000000000000000000000000000000000000000000000FFFFFFFFFFFF0000000000000000000000000000000000000000000000000000FFFFFFFFFFFF000000000000000000000000000000000000000000
310
000000000000FFFFFFFF00000000000000000000000000000000000000000000000000000000000000000000000000000000000000000000
102
{BLKREFS
331
186
102
}
  0
ENDTAB
  0
ENDSEC
  0
SECTION
  2
BLOCKS
  0
BLOCK
  5
5
330
2
100
AcDbEntity
  8
0
100
AcDbBlockBegin
  2
*MODEL_SPACE
 70
     0
 10
0.0
 20
0.0
 30
0.0
  3
*MODEL_SPACE
  1

  0
ENDBLK
  5
B
330
2
100
AcDbEntity
  8
0
100
AcDbBlockEnd
  0
BLOCK
  5
11
330
E
100
AcDbEntity
 67
     1
  8
0
100
AcDbBlockBegin
  2
*PAPER_SPACE
 70
     0
 10
0.0
 20
0.0
 30
0.0
  3
*PAPER_SPACE
  1

  0
ENDBLK
  5
12
330
E
100
AcDbEntity
 67
     1
  8
0
100
AcDbBlockEnd
  0
BLOCK
  5
25E
330
25D
100
AcDbEntity
  8
0
100
AcDbBlockBegin
  2
epdm
 70
     0
 10
0.0
 20
0.0
 30
0.0
  3
epdm
  1

  0
LINE
  5
25F
330
25D
100
AcDbEntity
  8
5
100
AcDbLine
 10
-3.7342876288553
 20
5.081818992145358
 30
0.0
 11
-3.79070225244123
 21
5.062661067774548
 31
0.0
  0
LINE
  5
261
330
25D
100
AcDbEntity
  8
5
100
AcDbLine
 10
-3.904010361953952
 20
5.081818992145358
 30
0.0
 11
-3.847595738368022
 21
5.06266106777455
 31
0.0
  0
LINE
  5
262
330
25D
100
AcDbEntity
  8
0
 62
     0
100
AcDbLine
 10
-3.831085386472681
 20
5.062661067774548
 30
0.0
 11
-3.879509494485192
 21
5.111085175787058
 31
0.0
  0
LINE
  5
263
330
25D
100
AcDbEntity
  8
0
 62
     0
100
AcDbLine
 10
-3.84936330732429
 20
5.063261319096492
 30
0.0
 11
-3.904010361953945
 21
5.11790837372615
 31
0.0
  0
LINE
  5
264
330
25D
100
AcDbEntity
  8
0
 62
     0
100
AcDbLine
 10
-3.781259168532224
 20
5.065867858423082
 30
0.0
 11
-3.859784160816312
 21
5.14439285070717
 31
0.0
  0
LINE
  5
265
330
25D
100
AcDbEntity
  8
0
 62
     0
100
AcDbLine
 10
-3.795730047413352
 20
5.062661067774548
 30
0.0
 11
-3.84983420580229
 21
5.116765226163481
 31
0.0
  0
LINE
  5
266
330
25D
100
AcDbEntity
  8
0
 62
     0
100
AcDbLine
 10
-3.81340771694302
 20
5.062661067774548
 30
0.0
 11
-3.851618669269948
 21
5.100872020101476
 31
0.0
  0
LINE
  5
267
330
25D
100
AcDbEntity
  8
5
100
AcDbLine
 10
-3.79070225244123
 20
5.062661067774548
 30
0.0
 11
-3.847595738368022
 21
5.06266106777455
 31
0.0
  0
LINE
  5
268
330
25D
100
AcDbEntity
  8
5
100
AcDbLine
 10
-3.79532826093464
 20
5.097704922538818
 30
0.0
 11
-3.7342876288553
 21
5.120056985403987
 31
0.0
  0
LINE
  5
269
330
25D
100
AcDbEntity
  8
5
100
AcDbLine
 10
-3.764063546942781
 20
5.188416018424497
 30
0.0
 11
-3.79532826093464
 21
5.097704922538818
 31
0.0
  0
LINE
  5
26A
330
25D
100
AcDbEntity
  8
0
 62
     0
100
AcDbLine
 10
-3.768062854535196
 20
5.070349213955719
 30
0.0
 11
-3.869734115830341
 21
5.172020475250858
 31
0.0
  0
LINE
  5
26B
330
25D
100
AcDbEntity
  8
5
100
AcDbLine
 10
-3.778175527431054
 20
5.288786934748507
 30
0.0
 11
-3.799020256880035
 21
5.308469012926966
 31
0.0
  0
LINE
  5
26C
330
25D
100
AcDbEntity
  8
0
 62
     0
100
AcDbLine
 10
-3.691675294177679
 20
5.188416018424497
 30
0.0
 11
-3.805556559643813
 21
5.302297283890631
 31
0.0
  0
LINE
  5
26D
330
25D
100
AcDbEntity
  8
0
 62
     0
100
AcDbLine
 10
-3.768164674788282
 20
5.176517051386785
 30
0.0
 11
-3.891522287447552
 21
5.299874664046056
 31
0.0
  0
LINE
  5
26E
330
25D
100
AcDbEntity
  8
0
 62
     0
100
AcDbLine
 10
-3.76238597229633
 20
5.188416018424497
 30
0.0
 11
-3.882429880218696
 21
5.308459926346861
 31
0.0
  0
LINE
  5
26F
330
25D
100
AcDbEntity
  8
0
 62
     0
100
AcDbLine
 10
-3.744708302766669
 20
5.188416018424497
 30
0.0
 11
-3.853085627160114
 21
5.296793342817942
 31
0.0
  0
LINE
  5
270
330
25D
100
AcDbEntity
  8
0
 62
     0
100
AcDbLine
 10
-3.727030633237001
 20
5.188416018424497
 30
0.0
 11
-3.843993219931251
 21
5.305378605118747
 31
0.0
  0
LINE
  5
271
330
25D
100
AcDbEntity
  8
0
 62
     0
100
AcDbLine
 10
-3.70935296370734
 20
5.188416018424497
 30
0.0
 11
-3.814648966872669
 21
5.293712021589826
 31
0.0
  0
LINE
  5
272
330
25D
100
AcDbEntity
  8
0
 62
     0
100
AcDbLine
 10
-3.77722691889131
 20
5.150223956430487
 30
0.0
 11
-3.929958947734997
 21
5.30295598527417
 31
0.0
  0
LINE
  5
273
330
25D
100
AcDbEntity
  8
0
 62
     0
100
AcDbLine
 10
-3.7726957968398
 20
5.163370503908636
 30
0.0
 11
-3.900614694676415
 21
5.291289401745251
 31
0.0
  0
LINE
  5
274
330
25D
100
AcDbEntity
  8
0
 62
     0
100
AcDbLine
 10
-3.781758040942827
 20
5.13707740895234
 30
0.0
 11
-3.939051354963853
 21
5.294370722973365
 31
0.0
  0
LINE
  5
275
330
25D
100
AcDbEntity
  8
5
100
AcDbLine
 10
-4.069949034206496
 20
5.188416018424497
 30
0.0
 11
-4.069949034206496
 21
5.288896419438431
 31
0.0
  0
LINE
  5
276
330
25D
100
AcDbEntity
  8
0
 62
     0
100
AcDbLine
 10
-3.886129659003978
 20
5.188416018424495
 30
0.0
 11
-3.986580422480153
 21
5.288866781900674
 31
0.0
  0
LINE
  5
277
330
25D
100
AcDbEntity
  8
0
 62
     0
100
AcDbLine
 10
-3.903807328533639
 20
5.188416018424495
 30
0.0
 11
-4.015924675538736
 21
5.300533365429593
 31
0.0
  0
LINE
  5
278
330
25D
100
AcDbEntity
  8
0
 62
     0
100
AcDbLine
 10
-3.9214849980633
 20
5.188416018424495
 30
0.0
 11
-4.025017082767599
 21
5.291948103128788
 31
0.0
  0
LINE
  5
279
330
25D
100
AcDbEntity
  8
0
 62
     0
100
AcDbLine
 10
-3.939162667592968
 20
5.188416018424495
 30
0.0
 11
-4.054361335826181
 21
5.303614686657709
 31
0.0
  0
LINE
  5
27A
330
25D
100
AcDbEntity
  8
0
 62
     0
100
AcDbLine
 10
-3.956840337122629
 20
5.188416018424495
 30
0.0
 11
-4.063453743055037
 21
5.295029424356904
 31
0.0
  0
LINE
  5
27B
330
25D
100
AcDbEntity
  8
0
 62
     0
100
AcDbLine
 10
-3.786289162994345
 20
5.123930861474189
 30
0.0
 11
-3.968395608022435
 21
5.306037306502284
 31
0.0
  0
LINE
  5
27C
330
25D
100
AcDbEntity
  8
0
 62
     0
100
AcDbLine
 10
-3.790820285045855
 20
5.110784313996042
 30
0.0
 11
-3.977488015251298
 21
5.297452044201479
 31
0.0
  0
LINE
  5
27D
330
25D
100
AcDbEntity
  8
5
100
AcDbLine
 10
-4.069949034206496
 20
5.188416018424497
 30
0.0
 11
-3.875638891202912
 21
5.188416018424497
 31
0.0
  0
LINE
  5
27E
330
25D
100
AcDbEntity
  8
0
 62
     0
100
AcDbLine
 10
-4.045228684770949
 20
5.188416018424497
 30
0.0
 11
-4.069949034206496
 21
5.213136367860041
 31
0.0
  0
LINE
  5
27F
330
25D
100
AcDbEntity
  8
0
 62
     0
100
AcDbLine
 10
-4.062906354300617
 20
5.188416018424497
 30
0.0
 11
-4.069949034206496
 21
5.195458698330378
 31
0.0
  0
LINE
  5
280
330
25D
100
AcDbEntity
  8
0
 62
     0
100
AcDbLine
 10
-3.992195676181959
 20
5.188416018424495
 30
0.0
 11
-4.069949034206496
 21
5.266169376449033
 31
0.0
  0
LINE
  5
281
330
25D
100
AcDbEntity
  8
0
 62
     0
100
AcDbLine
 10
-4.00987334571162
 20
5.188416018424495
 30
0.0
 11
-4.069949034206496
 21
5.24849170691937
 31
0.0
  0
LINE
  5
282
330
25D
100
AcDbEntity
  8
0
 62
     0
100
AcDbLine
 10
-4.027551015241288
 20
5.188416018424495
 30
0.0
 11
-4.069949034206496
 21
5.230814037389706
 31
0.0
  0
LINE
  5
283
330
25D
100
AcDbEntity
  8
0
 62
     0
100
AcDbLine
 10
-3.974518006652298
 20
5.188416018424495
 30
0.0
 11
-4.069949034206496
 21
5.283847045978697
 31
0.0
  0
LINE
  5
284
330
25D
100
AcDbEntity
  8
5
100
AcDbLine
 10
-3.904010361953945
 20
5.120056985403987
 30
0.0
 11
-3.904010361953952
 21
5.081818992145358
 31
0.0
  0
LINE
  5
285
330
25D
100
AcDbEntity
  8
0
 62
     0
100
AcDbLine
 10
-3.876131085828612
 20
5.072351428071149
 30
0.0
 11
-3.904010361953945
 21
5.100230704196487
 31
0.0
  0
LINE
  5
286
330
25D
100
AcDbEntity
  8
0
 62
     0
100
AcDbLine
 10
-3.902898864332934
 20
5.081441537045806
 30
0.0
 11
-3.904010361953952
 21
5.082553034666823
 31
0.0
  0
LINE
  5
287
330
25D
100
AcDbEntity
  8
5
100
AcDbLine
 10
-3.842969729874612
 20
5.097704922538818
 30
0.0
 11
-3.904010361953945
 21
5.120056985403987
 31
0.0
  0
LINE
  5
288
330
25D
100
AcDbEntity
  8
5
100
AcDbLine
 10
-3.875638891202912
 20
5.188416018424497
 30
0.0
 11
-3.842969729874612
 21
5.097704922538818
 31
0.0
  0
LINE
  5
289
330
25D
100
AcDbEntity
  8
5
100
AcDbLine
 10
-3.944975527431056
 20
5.288786934748507
 30
0.0
 11
-3.96582025688003
 21
5.308469012926966
 31
0.0
  0
LINE
  5
28A
330
25D
100
AcDbEntity
  8
5
100
AcDbLine
 10
-4.049220256880028
 20
5.308469012926966
 30
0.0
 11
-4.070064986329009
 21
5.288786934748507
 31
0.0
  0
LINE
  5
28B
330
25D
100
AcDbEntity
  8
5
100
AcDbLine
 10
-4.028375527431053
 20
5.288786934748507
 30
0.0
 11
-4.049220256880028
 21
5.308469012926966
 31
0.0
  0
LINE
  5
28C
330
25D
100
AcDbEntity
  8
5
100
AcDbLine
 10
-4.007520256880036
 20
5.308469012926966
 30
0.0
 11
-4.028364986329004
 21
5.288786934748507
 31
0.0
  0
LINE
  5
28D
330
25D
100
AcDbEntity
  8
5
100
AcDbLine
 10
-3.986675527431055
 20
5.288786934748507
 30
0.0
 11
-4.007520256880036
 21
5.308469012926966
 31
0.0
  0
LINE
  5
28E
330
25D
100
AcDbEntity
  8
5
100
AcDbLine
 10
-3.96582025688003
 20
5.308469012926966
 30
0.0
 11
-3.986664986329012
 21
5.288786934748507
 31
0.0
  0
LINE
  5
28F
330
25D
100
AcDbEntity
  8
5
100
AcDbLine
 10
-3.924120256880032
 20
5.308469012926966
 30
0.0
 11
-3.944964986329006
 21
5.288786934748507
 31
0.0
  0
LINE
  5
290
330
25D
100
AcDbEntity
  8
5
100
AcDbLine
 10
-3.903275527431057
 20
5.288786934748507
 30
0.0
 11
-3.924120256880032
 21
5.308469012926966
 31
0.0
  0
LINE
  5
291
330
25D
100
AcDbEntity
  8
5
100
AcDbLine
 10
-3.882420256880033
 20
5.308469012926966
 30
0.0
 11
-3.903264986329007
 21
5.288786934748507
 31
0.0
  0
LINE
  5
292
330
25D
100
AcDbEntity
  8
5
100
AcDbLine
 10
-3.861575527431051
 20
5.288786934748507
 30
0.0
 11
-3.882420256880033
 21
5.308469012926966
 31
0.0
  0
LINE
  5
293
330
25D
100
AcDbEntity
  8
5
100
AcDbLine
 10
-3.840720256880027
 20
5.308469012926966
 30
0.0
 11
-3.861564986329009
 21
5.288786934748507
 31
0.0
  0
LINE
  5
294
330
25D
100
AcDbEntity
  8
5
100
AcDbLine
 10
-3.81987552743106
 20
5.288786934748507
 30
0.0
 11
-3.840720256880027
 21
5.308469012926966
 31
0.0
  0
LINE
  5
295
330
25D
100
AcDbEntity
  8
5
100
AcDbLine
 10
-3.799020256880035
 20
5.308469012926966
 30
0.0
 11
-3.81986498632901
 21
5.288786934748507
 31
0.0
  0
LINE
  5
296
330
25D
100
AcDbEntity
  8
5
100
AcDbLine
 10
-3.569675527431053
 20
5.188416018424497
 30
0.0
 11
-3.569675527431053
 21
5.288786934748507
 31
0.0
  0
LINE
  5
297
330
25D
100
AcDbEntity
  8
0
 62
     0
100
AcDbLine
 10
-3.569675527431053
 20
5.225515277444847
 30
0.0
 11
-3.642717511265184
 21
5.298557261278979
 31
0.0
  0
LINE
  5
298
330
25D
100
AcDbEntity
  8
0
 62
     0
100
AcDbLine
 10
-3.569675527431053
 20
5.243192946974511
 30
0.0
 11
-3.633625104036328
 21
5.307142523579784
 31
0.0
  0
LINE
  5
299
330
25D
100
AcDbEntity
  8
0
 62
     0
100
AcDbLine
 10
-3.569675527431053
 20
5.260870616504174
 30
0.0
 11
-3.604280850977739
 21
5.295475940050863
 31
0.0
  0
LINE
  5
29A
330
25D
100
AcDbEntity
  8
0
 62
     0
100
AcDbLine
 10
-3.569675527431053
 20
5.278548286033839
 30
0.0
 11
-3.595188443748883
 21
5.304061202351668
 31
0.0
  0
LINE
  5
29B
330
25D
100
AcDbEntity
  8
0
 62
     0
100
AcDbLine
 10
-3.673997624648011
 20
5.188416018424497
 30
0.0
 11
-3.776212306585231
 21
5.290630700361711
 31
0.0
  0
LINE
  5
29C
330
25D
100
AcDbEntity
  8
0
 62
     0
100
AcDbLine
 10
-3.65631995511835
 20
5.188416018424497
 30
0.0
 11
-3.767119899356368
 21
5.299215962662518
 31
0.0
  0
LINE
  5
29D
330
25D
100
AcDbEntity
  8
0
 62
     0
100
AcDbLine
 10
-3.638642285588682
 20
5.188416018424497
 30
0.0
 11
-3.758027492127512
 21
5.307801224963323
 31
0.0
  0
LINE
  5
29E
330
25D
100
AcDbEntity
  8
0
 62
     0
100
AcDbLine
 10
-3.620964616059021
 20
5.188416018424497
 30
0.0
 11
-3.72868323906893
 21
5.296134641434402
 31
0.0
  0
LINE
  5
29F
330
25D
100
AcDbEntity
  8
0
 62
     0
100
AcDbLine
 10
-3.60328694652936
 20
5.188416018424497
 30
0.0
 11
-3.719590831840067
 21
5.304719903735207
 31
0.0
  0
LINE
  5
2A0
330
25D
100
AcDbEntity
  8
0
 62
     0
100
AcDbLine
 10
-3.585609276999692
 20
5.188416018424497
 30
0.0
 11
-3.690246578781485
 21
5.293053320206288
 31
0.0
  0
LINE
  5
2A1
330
25D
100
AcDbEntity
  8
0
 62
     0
100
AcDbLine
 10
-3.569675527431053
 20
5.190159938385519
 30
0.0
 11
-3.681154171552629
 21
5.301638582507093
 31
0.0
  0
LINE
  5
2A2
330
25D
100
AcDbEntity
  8
0
 62
     0
100
AcDbLine
 10
-3.569675527431053
 20
5.207837607915184
 30
0.0
 11
-3.651809918494047
 21
5.289971998978174
 31
0.0
  0
LINE
  5
2A3
330
25D
100
AcDbEntity
  8
5
100
AcDbLine
 10
-3.569675527431053
 20
5.188416018424497
 30
0.0
 11
-3.764063546942781
 21
5.188416018424497
 31
0.0
  0
LINE
  5
2A4
330
25D
100
AcDbEntity
  8
5
100
AcDbLine
 10
-3.7342876288553
 20
5.120056985403987
 30
0.0
 11
-3.7342876288553
 21
5.081818992145358
 31
0.0
  0
LINE
  5
2A5
330
25D
100
AcDbEntity
  8
0
 62
     0
100
AcDbLine
 10
-3.7342876288553
 20
5.107284666394475
 30
0.0
 11
-3.74363653436769
 21
5.116633571906861
 31
0.0
  0
LINE
  5
2A6
330
25D
100
AcDbEntity
  8
0
 62
     0
100
AcDbLine
 10
-3.7342876288553
 20
5.089606996864812
 30
0.0
 11
-3.756575990545451
 21
5.111895358554965
 31
0.0
  0
LINE
  5
2A7
330
25D
100
AcDbEntity
  8
0
 62
     0
100
AcDbLine
 10
-3.741670226541147
 20
5.079311925020995
 30
0.0
 11
-3.76951544672322
 21
5.107157145203068
 31
0.0
  0
LINE
  5
2A8
330
25D
100
AcDbEntity
  8
0
 62
     0
100
AcDbLine
 10
-3.754866540538175
 20
5.074830569488357
 30
0.0
 11
-3.782454902900989
 21
5.102418931851172
 31
0.0
  0
LINE
  5
2A9
330
25D
100
AcDbEntity
  8
5
100
AcDbLine
 10
-3.611375527431059
 20
5.288786934748507
 30
0.0
 11
-3.632220256880033
 21
5.308469012926966
 31
0.0
  0
LINE
  5
2AA
330
25D
100
AcDbEntity
  8
5
100
AcDbLine
 10
-3.75732025688003
 20
5.308469012926966
 30
0.0
 11
-3.778164986329011
 21
5.288786934748507
 31
0.0
  0
LINE
  5
2AB
330
25D
100
AcDbEntity
  8
5
100
AcDbLine
 10
-3.736475527431055
 20
5.288786934748507
 30
0.0
 11
-3.75732025688003
 21
5.308469012926966
 31
0.0
  0
LINE
  5
2AC
330
25D
100
AcDbEntity
  8
5
100
AcDbLine
 10
-3.715620256880031
 20
5.308469012926966
 30
0.0
 11
-3.736464986329005
 21
5.288786934748507
 31
0.0
  0
LINE
  5
2AD
330
25D
100
AcDbEntity
  8
5
100
AcDbLine
 10
-3.694775527431056
 20
5.288786934748507
 30
0.0
 11
-3.715620256880031
 21
5.308469012926966
 31
0.0
  0
LINE
  5
2AE
330
25D
100
AcDbEntity
  8
5
100
AcDbLine
 10
-3.673920256880032
 20
5.308469012926966
 30
0.0
 11
-3.694764986329007
 21
5.288786934748507
 31
0.0
  0
LINE
  5
2AF
330
25D
100
AcDbEntity
  8
5
100
AcDbLine
 10
-3.653075527431051
 20
5.288786934748507
 30
0.0
 11
-3.673920256880032
 21
5.308469012926966
 31
0.0
  0
LINE
  5
2B0
330
25D
100
AcDbEntity
  8
5
100
AcDbLine
 10
-3.632220256880033
 20
5.308469012926966
 30
0.0
 11
-3.653064986329008
 21
5.288786934748507
 31
0.0
  0
LINE
  5
2B1
330
25D
100
AcDbEntity
  8
5
100
AcDbLine
 10
-3.590520256880035
 20
5.308469012926966
 30
0.0
 11
-3.611364986329009
 21
5.288786934748507
 31
0.0
  0
LINE
  5
2B2
330
25D
100
AcDbEntity
  8
5
100
AcDbLine
 10
-3.569675527431053
 20
5.288786934748507
 30
0.0
 11
-3.590520256880035
 21
5.308469012926966
 31
0.0
  0
LINE
  5
2B3
330
25D
100
AcDbEntity
  8
5
100
AcDbLine
 10
-3.590520256880035
 20
5.308469012926966
 30
0.0
 11
-3.611364986329009
 21
5.288786934748507
 31
0.0
  0
LINE
  5
2B4
330
25D
100
AcDbEntity
  8
5
100
AcDbLine
 10
-3.569675527431053
 20
5.288786934748507
 30
0.0
 11
-3.590520256880035
 21
5.308469012926966
 31
0.0
  0
LINE
  5
2B5
330
25D
100
AcDbEntity
  8
5
100
AcDbLine
 10
-3.590520256880035
 20
5.308469012926966
 30
0.0
 11
-3.611364986329009
 21
5.288786934748507
 31
0.0
  0
LINE
  5
2B6
330
25D
100
AcDbEntity
  8
5
100
AcDbLine
 10
-3.569675527431053
 20
5.288786934748507
 30
0.0
 11
-3.590520256880035
 21
5.308469012926966
 31
0.0
  0
LINE
  5
2B7
330
25D
100
AcDbEntity
  8
5
100
AcDbLine
 10
-3.590520256880035
 20
5.308469012926966
 30
0.0
 11
-3.611364986329009
 21
5.288786934748507
 31
0.0
  0
LINE
  5
2B8
330
25D
100
AcDbEntity
  8
5
100
AcDbLine
 10
-3.569675527431053
 20
5.288786934748507
 30
0.0
 11
-3.590520256880035
 21
5.308469012926966
 31
0.0
  0
LINE
  5
2B9
330
25D
100
AcDbEntity
  8
5
100
AcDbLine
 10
-3.590520256880035
 20
5.308469012926966
 30
0.0
 11
-3.611364986329009
 21
5.288786934748507
 31
0.0
  0
LINE
  5
2BA
330
25D
100
AcDbEntity
  8
5
100
AcDbLine
 10
-3.569675527431053
 20
5.288786934748507
 30
0.0
 11
-3.590520256880035
 21
5.308469012926966
 31
0.0
  0
LINE
  5
2BB
330
25D
100
AcDbEntity
  8
5
100
AcDbLine
 10
-3.590520256880035
 20
5.308469012926966
 30
0.0
 11
-3.611364986329009
 21
5.288786934748507
 31
0.0
  0
LINE
  5
2BC
330
25D
100
AcDbEntity
  8
5
100
AcDbLine
 10
-3.569675527431053
 20
5.288786934748507
 30
0.0
 11
-3.590520256880035
 21
5.308469012926966
 31
0.0
  0
LINE
  5
2BD
330
25D
100
AcDbEntity
  8
5
100
AcDbLine
 10
-3.590520256880035
 20
5.308469012926966
 30
0.0
 11
-3.611364986329009
 21
5.288786934748507
 31
0.0
  0
LINE
  5
2BE
330
25D
100
AcDbEntity
  8
5
100
AcDbLine
 10
-3.569675527431053
 20
5.288786934748507
 30
0.0
 11
-3.590520256880035
 21
5.308469012926966
 31
0.0
  0
LINE
  5
2BF
330
25D
100
AcDbEntity
  8
5
100
AcDbLine
 10
-3.590520256880035
 20
5.308469012926966
 30
0.0
 11
-3.611364986329009
 21
5.288786934748507
 31
0.0
  0
LINE
  5
2C0
330
25D
100
AcDbEntity
  8
5
100
AcDbLine
 10
-3.569675527431053
 20
5.288786934748507
 30
0.0
 11
-3.590520256880035
 21
5.308469012926966
 31
0.0
  0
LINE
  5
2C1
330
25D
100
AcDbEntity
  8
5
100
AcDbLine
 10
-3.590520256880035
 20
5.308469012926966
 30
0.0
 11
-3.611364986329009
 21
5.288786934748507
 31
0.0
  0
LINE
  5
2C2
330
25D
100
AcDbEntity
  8
5
100
AcDbLine
 10
-3.569675527431053
 20
5.288786934748507
 30
0.0
 11
-3.590520256880035
 21
5.308469012926966
 31
0.0
  0
LINE
  5
2C3
330
25D
100
AcDbEntity
  8
5
100
AcDbLine
 10
-3.590520256880035
 20
5.308469012926966
 30
0.0
 11
-3.611364986329009
 21
5.288786934748507
 31
0.0
  0
LINE
  5
2C4
330
25D
100
AcDbEntity
  8
5
100
AcDbLine
 10
-3.569675527431053
 20
5.288786934748507
 30
0.0
 11
-3.590520256880035
 21
5.308469012926966
 31
0.0
  0
LINE
  5
2C5
330
25D
100
AcDbEntity
  8
5
100
AcDbLine
 10
-3.590520256880035
 20
5.308469012926966
 30
0.0
 11
-3.611364986329009
 21
5.288786934748507
 31
0.0
  0
LINE
  5
2C6
330
25D
100
AcDbEntity
  8
5
100
AcDbLine
 10
-3.569675527431053
 20
5.288786934748507
 30
0.0
 11
-3.590520256880035
 21
5.308469012926966
 31
0.0
  0
LINE
  5
2C7
330
25D
100
AcDbEntity
  8
5
100
AcDbLine
 10
-3.590520256880035
 20
5.308469012926966
 30
0.0
 11
-3.611364986329009
 21
5.288786934748507
 31
0.0
  0
LINE
  5
2C8
330
25D
100
AcDbEntity
  8
5
100
AcDbLine
 10
-3.569675527431053
 20
5.288786934748507
 30
0.0
 11
-3.590520256880035
 21
5.308469012926966
 31
0.0
  0
ENDBLK
  5
2C9
330
25D
100
AcDbEntity
  8
0
100
AcDbBlockEnd
  0
BLOCK
  5
AA
330
A9
100
AcDbEntity
  8
0
100
AcDbBlockBegin
  2
R4
 70
     0
 10
0.0
 20
0.0
 30
0.0
  3
R4
  1

  0
LINE
  5
AB
330
A9
100
AcDbEntity
  8
0
  6
Continuous
 62
     0
100
AcDbLine
 10
7.539992569157944
 20
-26.75092569203911
 30
0.0
 11
7.384492569157944
 21
-26.75092569203912
 31
0.0
  0
LINE
  5
AC
330
A9
100
AcDbEntity
  8
0
  6
Continuous
 62
     0
100
AcDbLine
 10
7.134492569157945
 20
-27.06392569203913
 30
0.0
 11
7.759492569157944
 21
-27.06392569203912
 31
0.0
  0
LINE
  5
AD
330
A9
100
AcDbEntity
  8
0
  6
Continuous
 62
     0
100
AcDbLine
 10
5.634492569157945
 20
-30.75092569203913
 30
0.0
 11
8.134492569157945
 21
-30.75092569203913
 31
0.0
  0
ARC
  5
AE
330
A9
100
AcDbEntity
  8
0
  6
Continuous
 62
     0
100
AcDbCircle
 10
7.244125633371667
 20
-30.37492569203913
 30
0.0
 40
0.188
100
AcDbArc
 50
269.9999999999973
 51
340.4209928320444
  0
LINE
  5
AF
330
A9
100
AcDbEntity
  8
0
  6
Continuous
 62
     0
100
AcDbLine
 10
6.196992569157944
 20
-26.80092569203913
 30
0.0
 11
6.196992569157944
 21
-26.78292569203913
 31
0.0
  0
LINE
  5
B0
330
A9
100
AcDbEntity
  8
0
  6
Continuous
 62
     0
100
AcDbLine
 10
6.228992569157944
 20
-26.75092569203913
 30
0.0
 11
6.384492569157944
 21
-26.75092569203913
 31
0.0
  0
ARC
  5
B1
330
A9
100
AcDbEntity
  8
0
  6
Continuous
 62
     0
100
AcDbCircle
 10
6.228992569157944
 20
-26.78292569203913
 30
0.0
 40
0.032
100
AcDbArc
 50
90.0
 51
180.0
  0
LINE
  5
B2
330
A9
100
AcDbEntity
  8
0
  6
Continuous
 62
     0
100
AcDbLine
 10
6.071992569157945
 20
-26.80092569203913
 30
0.0
 11
6.071992569157945
 21
-26.78292569203913
 31
0.0
  0
LINE
  5
B3
330
A9
100
AcDbEntity
  8
0
  6
Continuous
 62
     0
100
AcDbLine
 10
5.884492569157944
 20
-26.75092569203913
 30
0.0
 11
6.039992569157945
 21
-26.75092569203913
 31
0.0
  0
ARC
  5
B4
330
A9
100
AcDbEntity
  8
0
  6
Continuous
 62
     0
100
AcDbCircle
 10
6.039992569157945
 20
-26.78292569203913
 30
0.0
 40
0.032
100
AcDbArc
 50
0.0000000000010178
 51
90.0
  0
LINE
  5
B5
330
A9
100
AcDbEntity
  8
0
  6
Continuous
 62
     0
100
AcDbLine
 10
7.009492569157943
 20
-26.87592569203912
 30
0.0
 11
7.384492569157944
 21
-26.87592569203912
 31
0.0
  0
LINE
  5
B6
330
A9
100
AcDbEntity
  8
0
  6
Continuous
 62
     0
100
AcDbLine
 10
6.384492569157944
 20
-26.75092569203913
 30
0.0
 11
6.384492569157946
 21
-26.87592569203913
 31
0.0
  0
LINE
  5
B7
330
A9
100
AcDbEntity
  8
0
  6
Continuous
 62
     0
100
AcDbLine
 10
6.196992569157944
 20
-26.80092569203913
 30
0.0
 11
6.234492569157943
 21
-26.80092569203913
 31
0.0
  0
LINE
  5
B8
330
A9
100
AcDbEntity
  8
0
  6
Continuous
 62
     0
100
AcDbLine
 10
6.071992569157945
 20
-26.80092569203913
 30
0.0
 11
6.034492569157944
 21
-26.80092569203913
 31
0.0
  0
ARC
  5
B9
330
A9
100
AcDbEntity
  8
0
  6
Continuous
 62
     0
100
AcDbCircle
 10
6.134492569157944
 20
-26.71892569203912
 30
0.0
 40
0.188
100
AcDbArc
 50
237.8650719958525
 51
302.1349280041475
  0
LINE
  5
BA
330
A9
100
AcDbEntity
  8
0
  6
Continuous
 62
     0
100
AcDbLine
 10
6.234492569157944
 20
-26.87812368197619
 30
0.0
 11
6.234492569157943
 21
-26.80092569203913
 31
0.0
  0
LINE
  5
BB
330
A9
100
AcDbEntity
  8
0
  6
Continuous
 62
     0
100
AcDbLine
 10
6.034492569157944
 20
-26.87812368197619
 30
0.0
 11
6.034492569157944
 21
-26.80092569203913
 31
0.0
  0
LINE
  5
BC
330
A9
100
AcDbEntity
  8
0
  6
Continuous
 62
     0
100
AcDbLine
 10
6.009492569157943
 20
-27.06392569203914
 30
0.0
 11
6.634492569157945
 21
-27.06392569203913
 31
0.0
  0
LINE
  5
BD
330
A9
100
AcDbEntity
  8
0
  6
Continuous
 62
     0
100
AcDbLine
 10
7.134492569157946
 20
-27.81392569203914
 30
0.0
 11
7.134492569157945
 21
-27.06392569203913
 31
0.0
  0
LINE
  5
BE
330
A9
100
AcDbEntity
  8
0
  6
Continuous
 62
     0
100
AcDbLine
 10
6.634492569157945
 20
-27.81392569203911
 30
0.0
 11
6.634492569157945
 21
-27.06392569203913
 31
0.0
  0
LINE
  5
BF
330
A9
100
AcDbEntity
  8
0
  6
Continuous
 62
     0
100
AcDbLine
 10
6.634492569157945
 20
-27.81392569203911
 30
0.0
 11
7.134492569157946
 21
-27.81392569203914
 31
0.0
  0
LINE
  5
C0
330
A9
100
AcDbEntity
  8
0
  6
Continuous
 62
     0
100
AcDbLine
 10
6.759492569157944
 20
-26.90710260657538
 30
0.0
 11
6.786492569157946
 21
-26.89151414930726
 31
0.0
  0
LINE
  5
C1
330
A9
100
AcDbEntity
  8
0
  6
Continuous
 62
     0
100
AcDbLine
 10
6.759492569157944
 20
-26.95710260657538
 30
0.0
 11
6.786492569157946
 21
-26.94151414930726
 31
0.0
  0
LINE
  5
C2
330
A9
100
AcDbEntity
  8
0
  6
Continuous
 62
     0
100
AcDbLine
 10
6.759492569157944
 20
-26.92592569203913
 30
0.0
 11
6.786492569157946
 21
-26.94151414930725
 31
0.0
  0
LINE
  5
C3
330
A9
100
AcDbEntity
  8
0
  6
Continuous
 62
     0
100
AcDbLine
 10
6.759492569157944
 20
-26.97592569203913
 30
0.0
 11
6.786492569157946
 21
-26.99151414930725
 31
0.0
  0
LINE
  5
C4
330
A9
100
AcDbEntity
  8
0
  6
Continuous
 62
     0
100
AcDbLine
 10
6.759492569157944
 20
-27.00710260657538
 30
0.0
 11
6.786492569157946
 21
-26.99151414930726
 31
0.0
  0
LINE
  5
C5
330
A9
100
AcDbEntity
  8
0
  6
Continuous
 62
     0
100
AcDbLine
 10
6.759492569157938
 20
-27.10710260657537
 30
0.0
 11
6.78649256915794
 21
-27.09151414930725
 31
0.0
  0
LINE
  5
C6
330
A9
100
AcDbEntity
  8
0
  6
Continuous
 62
     0
100
AcDbLine
 10
6.759492569157938
 20
-27.07592569203912
 30
0.0
 11
6.78649256915794
 21
-27.09151414930725
 31
0.0
  0
LINE
  5
C7
330
A9
100
AcDbEntity
  8
0
  6
Continuous
 62
     0
100
AcDbLine
 10
6.759492569157938
 20
-27.02592569203912
 30
0.0
 11
6.78649256915794
 21
-27.04151414930725
 31
0.0
  0
LINE
  5
C8
330
A9
100
AcDbEntity
  8
0
  6
Continuous
 62
     0
100
AcDbLine
 10
6.759492569157938
 20
-27.05710260657538
 30
0.0
 11
6.78649256915794
 21
-27.04151414930726
 31
0.0
  0
LINE
  5
C9
330
A9
100
AcDbEntity
  8
0
  6
Continuous
 62
     0
100
AcDbLine
 10
6.759492569157919
 20
-27.25710260657538
 30
0.0
 11
6.786492569157921
 21
-27.24151414930725
 31
0.0
  0
LINE
  5
CA
330
A9
100
AcDbEntity
  8
0
  6
Continuous
 62
     0
100
AcDbLine
 10
6.759492569157919
 20
-27.22592569203912
 30
0.0
 11
6.786492569157921
 21
-27.24151414930724
 31
0.0
  0
LINE
  5
CB
330
A9
100
AcDbEntity
  8
0
  6
Continuous
 62
     0
100
AcDbLine
 10
6.759492569157919
 20
-27.27592569203912
 30
0.0
 11
6.786492569157921
 21
-27.29151414930724
 31
0.0
  0
LINE
  5
CC
330
A9
100
AcDbEntity
  8
0
  6
Continuous
 62
     0
100
AcDbLine
 10
6.759492569157919
 20
-27.30710260657537
 30
0.0
 11
6.786492569157921
 21
-27.29151414930725
 31
0.0
  0
LINE
  5
CD
330
A9
100
AcDbEntity
  8
0
  6
Continuous
 62
     0
100
AcDbLine
 10
6.759492569157925
 20
-27.20710260657538
 30
0.0
 11
6.786492569157927
 21
-27.19151414930725
 31
0.0
  0
LINE
  5
CE
330
A9
100
AcDbEntity
  8
0
  6
Continuous
 62
     0
100
AcDbLine
 10
6.759492569157925
 20
-27.17592569203912
 30
0.0
 11
6.786492569157927
 21
-27.19151414930724
 31
0.0
  0
LINE
  5
CF
330
A9
100
AcDbEntity
  8
0
  6
Continuous
 62
     0
100
AcDbLine
 10
6.759492569157925
 20
-27.12592569203913
 30
0.0
 11
6.786492569157927
 21
-27.14151414930725
 31
0.0
  0
LINE
  5
D0
330
A9
100
AcDbEntity
  8
0
  6
Continuous
 62
     0
100
AcDbLine
 10
6.759492569157925
 20
-27.15710260657538
 30
0.0
 11
6.786492569157927
 21
-27.14151414930725
 31
0.0
  0
LINE
  5
D1
330
A9
100
AcDbEntity
  8
0
  6
Continuous
 62
     0
100
AcDbLine
 10
6.759492569157918
 20
-27.55710260657539
 30
0.0
 11
6.78649256915792
 21
-27.54151414930726
 31
0.0
  0
LINE
  5
D2
330
A9
100
AcDbEntity
  8
0
  6
Continuous
 62
     0
100
AcDbLine
 10
6.759492569157918
 20
-27.52592569203913
 30
0.0
 11
6.78649256915792
 21
-27.54151414930726
 31
0.0
  0
LINE
  5
D3
330
A9
100
AcDbEntity
  8
0
  6
Continuous
 62
     0
100
AcDbLine
 10
6.759492569157918
 20
-27.57592569203913
 30
0.0
 11
6.78649256915792
 21
-27.59151414930725
 31
0.0
  0
LINE
  5
D4
330
A9
100
AcDbEntity
  8
0
  6
Continuous
 62
     0
100
AcDbLine
 10
6.759492569157918
 20
-27.60710260657538
 30
0.0
 11
6.78649256915792
 21
-27.59151414930726
 31
0.0
  0
LINE
  5
D5
330
A9
100
AcDbEntity
  8
0
  6
Continuous
 62
     0
100
AcDbLine
 10
6.759492569157912
 20
-27.62592569203913
 30
0.0
 11
6.786492569157914
 21
-27.64151414930725
 31
0.0
  0
LINE
  5
D6
330
A9
100
AcDbEntity
  8
0
  6
Continuous
 62
     0
100
AcDbLine
 10
6.759492569157912
 20
-27.65710260657538
 30
0.0
 11
6.786492569157914
 21
-27.64151414930726
 31
0.0
  0
LINE
  5
D7
330
A9
100
AcDbEntity
  8
0
  6
Continuous
 62
     0
100
AcDbLine
 10
6.759492569157931
 20
-27.45710260657538
 30
0.0
 11
6.786492569157933
 21
-27.44151414930726
 31
0.0
  0
LINE
  5
D8
330
A9
100
AcDbEntity
  8
0
  6
Continuous
 62
     0
100
AcDbLine
 10
6.759492569157931
 20
-27.42592569203913
 30
0.0
 11
6.786492569157933
 21
-27.44151414930725
 31
0.0
  0
LINE
  5
D9
330
A9
100
AcDbEntity
  8
0
  6
Continuous
 62
     0
100
AcDbLine
 10
6.759492569157931
 20
-27.47592569203913
 30
0.0
 11
6.786492569157933
 21
-27.49151414930725
 31
0.0
  0
LINE
  5
DA
330
A9
100
AcDbEntity
  8
0
  6
Continuous
 62
     0
100
AcDbLine
 10
6.759492569157931
 20
-27.50710260657538
 30
0.0
 11
6.786492569157933
 21
-27.49151414930726
 31
0.0
  0
LINE
  5
DB
330
A9
100
AcDbEntity
  8
0
  6
Continuous
 62
     0
100
AcDbLine
 10
6.759492569157937
 20
-27.40710260657539
 30
0.0
 11
6.786492569157939
 21
-27.39151414930726
 31
0.0
  0
LINE
  5
DC
330
A9
100
AcDbEntity
  8
0
  6
Continuous
 62
     0
100
AcDbLine
 10
6.759492569157937
 20
-27.37592569203914
 30
0.0
 11
6.786492569157939
 21
-27.39151414930726
 31
0.0
  0
LINE
  5
DD
330
A9
100
AcDbEntity
  8
0
  6
Continuous
 62
     0
100
AcDbLine
 10
6.759492569157937
 20
-27.32592569203914
 30
0.0
 11
6.786492569157939
 21
-27.34151414930726
 31
0.0
  0
LINE
  5
DE
330
A9
100
AcDbEntity
  8
0
  6
Continuous
 62
     0
100
AcDbLine
 10
6.759492569157937
 20
-27.35710260657539
 30
0.0
 11
6.786492569157939
 21
-27.34151414930727
 31
0.0
  0
LINE
  5
DF
330
A9
100
AcDbEntity
  8
0
  6
Continuous
 62
     0
100
AcDbLine
 10
7.009492569158009
 20
-26.93210260657538
 30
0.0
 11
6.982492569158008
 21
-26.91651414930726
 31
0.0
  0
LINE
  5
E0
330
A9
100
AcDbEntity
  8
0
  6
Continuous
 62
     0
100
AcDbLine
 10
7.009492569158012
 20
-26.90092569203912
 30
0.0
 11
6.982492569158008
 21
-26.91651414930725
 31
0.0
  0
LINE
  5
E1
330
A9
100
AcDbEntity
  8
0
  6
Continuous
 62
     0
100
AcDbLine
 10
7.009492569158009
 20
-26.98210260657535
 30
0.0
 11
6.982492569158008
 21
-26.96651414930722
 31
0.0
  0
LINE
  5
E2
330
A9
100
AcDbEntity
  8
0
  6
Continuous
 62
     0
100
AcDbLine
 10
7.009492569158012
 20
-26.9509256920391
 30
0.0
 11
6.982492569158008
 21
-26.96651414930722
 31
0.0
  0
LINE
  5
E3
330
A9
100
AcDbEntity
  8
0
  6
Continuous
 62
     0
100
AcDbLine
 10
7.009492569158012
 20
-27.000925692039
 30
0.0
 11
6.982492569158008
 21
-27.01651414930712
 31
0.0
  0
LINE
  5
E4
330
A9
100
AcDbEntity
  8
0
  6
Continuous
 62
     0
100
AcDbLine
 10
7.009492569158009
 20
-27.03210260657525
 30
0.0
 11
6.982492569158008
 21
-27.01651414930713
 31
0.0
  0
LINE
  5
E5
330
A9
100
AcDbEntity
  8
0
  6
Continuous
 62
     0
100
AcDbLine
 10
7.009492569158009
 20
-27.13210260657513
 30
0.0
 11
6.982492569158008
 21
-27.11651414930701
 31
0.0
  0
LINE
  5
E6
330
A9
100
AcDbEntity
  8
0
  6
Continuous
 62
     0
100
AcDbLine
 10
7.009492569158012
 20
-27.10092569203888
 30
0.0
 11
6.982492569158008
 21
-27.116514149307
 31
0.0
  0
LINE
  5
E7
330
A9
100
AcDbEntity
  8
0
  6
Continuous
 62
     0
100
AcDbLine
 10
7.009492569158012
 20
-27.05092569203897
 30
0.0
 11
6.982492569158008
 21
-27.0665141493071
 31
0.0
  0
LINE
  5
E8
330
A9
100
AcDbEntity
  8
0
  6
Continuous
 62
     0
100
AcDbLine
 10
7.009492569158009
 20
-27.08210260657523
 30
0.0
 11
6.982492569158008
 21
-27.06651414930711
 31
0.0
  0
LINE
  5
E9
330
A9
100
AcDbEntity
  8
0
  6
Continuous
 62
     0
100
AcDbLine
 10
7.009492569157947
 20
-27.28210260657501
 30
0.0
 11
6.982492569157946
 21
-27.26651414930689
 31
0.0
  0
LINE
  5
EA
330
A9
100
AcDbEntity
  8
0
  6
Continuous
 62
     0
100
AcDbLine
 10
7.009492569157949
 20
-27.25092569203876
 30
0.0
 11
6.982492569157946
 21
-27.26651414930688
 31
0.0
  0
LINE
  5
EB
330
A9
100
AcDbEntity
  8
0
  6
Continuous
 62
     0
100
AcDbLine
 10
7.009492569157949
 20
-27.30092569203866
 30
0.0
 11
6.982492569157946
 21
-27.31651414930678
 31
0.0
  0
LINE
  5
EC
330
A9
100
AcDbEntity
  8
0
  6
Continuous
 62
     0
100
AcDbLine
 10
7.009492569157947
 20
-27.33210260657492
 30
0.0
 11
6.982492569157946
 21
-27.31651414930679
 31
0.0
  0
LINE
  5
ED
330
A9
100
AcDbEntity
  8
0
  6
Continuous
 62
     0
100
AcDbLine
 10
7.009492569157947
 20
-27.23210260657503
 30
0.0
 11
6.982492569157946
 21
-27.21651414930691
 31
0.0
  0
LINE
  5
EE
330
A9
100
AcDbEntity
  8
0
  6
Continuous
 62
     0
100
AcDbLine
 10
7.009492569157949
 20
-27.20092569203878
 30
0.0
 11
6.982492569157946
 21
-27.2165141493069
 31
0.0
  0
LINE
  5
EF
330
A9
100
AcDbEntity
  8
0
  6
Continuous
 62
     0
100
AcDbLine
 10
7.009492569157947
 20
-27.18210260657513
 30
0.0
 11
6.982492569157946
 21
-27.16651414930701
 31
0.0
  0
LINE
  5
F0
330
A9
100
AcDbEntity
  8
0
  6
Continuous
 62
     0
100
AcDbLine
 10
7.009492569157949
 20
-27.15092569203888
 30
0.0
 11
6.982492569157946
 21
-27.166514149307
 31
0.0
  0
LINE
  5
F1
330
A9
100
AcDbEntity
  8
0
  6
Continuous
 62
     0
100
AcDbLine
 10
7.009492569157949
 20
-27.55092569203839
 30
0.0
 11
6.982492569157946
 21
-27.56651414930651
 31
0.0
  0
LINE
  5
F2
330
A9
100
AcDbEntity
  8
0
  6
Continuous
 62
     0
100
AcDbLine
 10
7.009492569157947
 20
-27.58210260657464
 30
0.0
 11
6.982492569157946
 21
-27.56651414930651
 31
0.0
  0
LINE
  5
F3
330
A9
100
AcDbEntity
  8
0
  6
Continuous
 62
     0
100
AcDbLine
 10
7.009492569157949
 20
-27.60092569203829
 30
0.0
 11
6.982492569157946
 21
-27.61651414930641
 31
0.0
  0
LINE
  5
F4
330
A9
100
AcDbEntity
  8
0
  6
Continuous
 62
     0
100
AcDbLine
 10
7.009492569157947
 20
-27.63210260657454
 30
0.0
 11
6.982492569157946
 21
-27.61651414930642
 31
0.0
  0
LINE
  5
F5
330
A9
100
AcDbEntity
  8
0
  6
Continuous
 62
     0
100
AcDbLine
 10
7.009492569157949
 20
-27.65092569203826
 30
0.0
 11
6.982492569157946
 21
-27.66651414930639
 31
0.0
  0
LINE
  5
F6
330
A9
100
AcDbEntity
  8
0
  6
Continuous
 62
     0
100
AcDbLine
 10
7.009492569157947
 20
-27.68210260657452
 30
0.0
 11
6.982492569157946
 21
-27.6665141493064
 31
0.0
  0
LINE
  5
F7
330
A9
100
AcDbEntity
  8
0
  6
Continuous
 62
     0
100
AcDbLine
 10
7.009492569158009
 20
-27.48210260657474
 30
0.0
 11
6.982492569158008
 21
-27.46651414930661
 31
0.0
  0
LINE
  5
F8
330
A9
100
AcDbEntity
  8
0
  6
Continuous
 62
     0
100
AcDbLine
 10
7.009492569158012
 20
-27.45092569203848
 30
0.0
 11
6.982492569158008
 21
-27.4665141493066
 31
0.0
  0
LINE
  5
F9
330
A9
100
AcDbEntity
  8
0
  6
Continuous
 62
     0
100
AcDbLine
 10
7.009492569158012
 20
-27.50092569203839
 30
0.0
 11
6.982492569158008
 21
-27.51651414930651
 31
0.0
  0
LINE
  5
FA
330
A9
100
AcDbEntity
  8
0
  6
Continuous
 62
     0
100
AcDbLine
 10
7.009492569158009
 20
-27.53210260657464
 30
0.0
 11
6.982492569158008
 21
-27.51651414930652
 31
0.0
  0
LINE
  5
FB
330
A9
100
AcDbEntity
  8
0
  6
Continuous
 62
     0
100
AcDbLine
 10
7.009492569158009
 20
-27.43210260657476
 30
0.0
 11
6.982492569158008
 21
-27.41651414930664
 31
0.0
  0
LINE
  5
FC
330
A9
100
AcDbEntity
  8
0
  6
Continuous
 62
     0
100
AcDbLine
 10
7.009492569158012
 20
-27.40092569203851
 30
0.0
 11
6.982492569158008
 21
-27.41651414930663
 31
0.0
  0
LINE
  5
FD
330
A9
100
AcDbEntity
  8
0
  6
Continuous
 62
     0
100
AcDbLine
 10
7.009492569158012
 20
-27.3509256920386
 30
0.0
 11
6.982492569158008
 21
-27.36651414930673
 31
0.0
  0
LINE
  5
FE
330
A9
100
AcDbEntity
  8
0
  6
Continuous
 62
     0
100
AcDbLine
 10
7.009492569158009
 20
-27.38210260657485
 30
0.0
 11
6.982492569158008
 21
-27.36651414930673
 31
0.0
  0
LINE
  5
FF
330
A9
100
AcDbEntity
  8
0
  6
Continuous
 62
     0
100
AcDbLine
 10
6.759492569157944
 20
-27.68892569203912
 30
0.0
 11
7.009492569157944
 21
-27.68892569203913
 31
0.0
  0
LINE
  5
100
330
A9
100
AcDbEntity
  8
0
  6
Continuous
 62
     0
100
AcDbLine
 10
6.759492569157944
 20
-27.68892569203912
 30
0.0
 11
6.759492569157944
 21
-27.65710260657536
 31
0.0
  0
LINE
  5
101
330
A9
100
AcDbEntity
  8
0
  6
Continuous
 62
     0
100
AcDbLine
 10
6.759492569157944
 20
-27.62592569203914
 30
0.0
 11
6.759492569157943
 21
-27.60710260657537
 31
0.0
  0
LINE
  5
102
330
A9
100
AcDbEntity
  8
0
  6
Continuous
 62
     0
100
AcDbLine
 10
6.759492569157943
 20
-27.57592569203914
 30
0.0
 11
6.759492569157941
 21
-27.55710260657538
 31
0.0
  0
LINE
  5
103
330
A9
100
AcDbEntity
  8
0
  6
Continuous
 62
     0
100
AcDbLine
 10
6.759492569157941
 20
-27.52592569203914
 30
0.0
 11
6.759492569157941
 21
-27.50710260657538
 31
0.0
  0
LINE
  5
104
330
A9
100
AcDbEntity
  8
0
  6
Continuous
 62
     0
100
AcDbLine
 10
6.759492569157941
 20
-27.47592569203913
 30
0.0
 11
6.759492569157941
 21
-27.45710260657538
 31
0.0
  0
LINE
  5
105
330
A9
100
AcDbEntity
  8
0
  6
Continuous
 62
     0
100
AcDbLine
 10
6.75949256915794
 20
-27.42592569203914
 30
0.0
 11
6.75949256915794
 21
-27.40710260657538
 31
0.0
  0
LINE
  5
106
330
A9
100
AcDbEntity
  8
0
  6
Continuous
 62
     0
100
AcDbLine
 10
6.75949256915794
 20
-27.37592569203914
 30
0.0
 11
6.759492569157941
 21
-27.35710260657539
 31
0.0
  0
LINE
  5
107
330
A9
100
AcDbEntity
  8
0
  6
Continuous
 62
     0
100
AcDbLine
 10
6.759492569157939
 20
-27.32592569203914
 30
0.0
 11
6.759492569157939
 21
-27.30710260657537
 31
0.0
  0
LINE
  5
108
330
A9
100
AcDbEntity
  8
0
  6
Continuous
 62
     0
100
AcDbLine
 10
6.759492569157939
 20
-27.27592569203912
 30
0.0
 11
6.759492569157939
 21
-27.25710260657536
 31
0.0
  0
LINE
  5
109
330
A9
100
AcDbEntity
  8
0
  6
Continuous
 62
     0
100
AcDbLine
 10
6.75949256915794
 20
-27.22592569203913
 30
0.0
 11
6.759492569157941
 21
-27.20710260657538
 31
0.0
  0
LINE
  5
10A
330
A9
100
AcDbEntity
  8
0
  6
Continuous
 62
     0
100
AcDbLine
 10
6.759492569157942
 20
-26.92592569203912
 30
0.0
 11
6.759492569157943
 21
-26.90710260657538
 31
0.0
  0
LINE
  5
10B
330
A9
100
AcDbEntity
  8
0
  6
Continuous
 62
     0
100
AcDbLine
 10
6.759492569157942
 20
-26.97592569203913
 30
0.0
 11
6.759492569157943
 21
-26.95710260657538
 31
0.0
  0
LINE
  5
10C
330
A9
100
AcDbEntity
  8
0
  6
Continuous
 62
     0
100
AcDbLine
 10
6.759492569157943
 20
-27.02592569203912
 30
0.0
 11
6.759492569157943
 21
-27.00710260657538
 31
0.0
  0
LINE
  5
10D
330
A9
100
AcDbEntity
  8
0
  6
Continuous
 62
     0
100
AcDbLine
 10
6.759492569157942
 20
-27.07592569203913
 30
0.0
 11
6.759492569157942
 21
-27.05710260657538
 31
0.0
  0
LINE
  5
10E
330
A9
100
AcDbEntity
  8
0
  6
Continuous
 62
     0
100
AcDbLine
 10
6.759492569157941
 20
-27.12592569203913
 30
0.0
 11
6.759492569157942
 21
-27.10710260657537
 31
0.0
  0
LINE
  5
10F
330
A9
100
AcDbEntity
  8
0
  6
Continuous
 62
     0
100
AcDbLine
 10
6.759492569157942
 20
-27.17592569203914
 30
0.0
 11
6.759492569157941
 21
-27.15710260657537
 31
0.0
  0
LINE
  5
110
330
A9
100
AcDbEntity
  8
0
  6
Continuous
 62
     0
100
AcDbLine
 10
6.384492569157946
 20
-26.87592569203913
 30
0.0
 11
6.759492569157949
 21
-26.87592569203913
 31
0.0
  0
LINE
  5
111
330
A9
100
AcDbEntity
  8
0
  6
Continuous
 62
     0
100
AcDbLine
 10
6.759492569157949
 20
-26.87592569203913
 30
0.0
 11
6.786492569157946
 21
-26.89151414930725
 31
0.0
  0
LINE
  5
112
330
A9
100
AcDbEntity
  8
0
  6
Continuous
 62
     0
100
AcDbLine
 10
7.009492569157943
 20
-26.90092569203917
 30
0.0
 11
7.009492569157943
 21
-26.87592569203912
 31
0.0
  0
LINE
  5
113
330
A9
100
AcDbEntity
  8
0
  6
Continuous
 62
     0
100
AcDbLine
 10
7.009492569157942
 20
-26.95092569203912
 30
0.0
 11
7.009492569157943
 21
-26.93210260657533
 31
0.0
  0
LINE
  5
114
330
A9
100
AcDbEntity
  8
0
  6
Continuous
 62
     0
100
AcDbLine
 10
7.009492569157944
 20
-27.00092569203903
 30
0.0
 11
7.009492569157944
 21
-26.98210260657531
 31
0.0
  0
LINE
  5
115
330
A9
100
AcDbEntity
  8
0
  6
Continuous
 62
     0
100
AcDbLine
 10
7.009492569157943
 20
-27.05092569203901
 30
0.0
 11
7.009492569157943
 21
-27.03210260657522
 31
0.0
  0
LINE
  5
116
330
A9
100
AcDbEntity
  8
0
  6
Continuous
 62
     0
100
AcDbLine
 10
7.009492569157944
 20
-27.10092569203891
 30
0.0
 11
7.009492569157944
 21
-27.08210260657519
 31
0.0
  0
LINE
  5
117
330
A9
100
AcDbEntity
  8
0
  6
Continuous
 62
     0
100
AcDbLine
 10
7.009492569157944
 20
-27.15092569203888
 30
0.0
 11
7.009492569157944
 21
-27.13210260657509
 31
0.0
  0
LINE
  5
118
330
A9
100
AcDbEntity
  8
0
  6
Continuous
 62
     0
100
AcDbLine
 10
7.009492569157944
 20
-27.20092569203878
 30
0.0
 11
7.009492569157944
 21
-27.18210260657513
 31
0.0
  0
LINE
  5
119
330
A9
100
AcDbEntity
  8
0
  6
Continuous
 62
     0
100
AcDbLine
 10
7.009492569157943
 20
-27.25092569203876
 30
0.0
 11
7.009492569157943
 21
-27.23210260657503
 31
0.0
  0
LINE
  5
11A
330
A9
100
AcDbEntity
  8
0
  6
Continuous
 62
     0
100
AcDbLine
 10
7.009492569157942
 20
-27.30092569203867
 30
0.0
 11
7.009492569157943
 21
-27.282102606575
 31
0.0
  0
LINE
  5
11B
330
A9
100
AcDbEntity
  8
0
  6
Continuous
 62
     0
100
AcDbLine
 10
7.009492569157944
 20
-27.35092569203864
 30
0.0
 11
7.009492569157944
 21
-27.33210260657491
 31
0.0
  0
LINE
  5
11C
330
A9
100
AcDbEntity
  8
0
  6
Continuous
 62
     0
100
AcDbLine
 10
7.009492569157944
 20
-27.40092569203854
 30
0.0
 11
7.009492569157944
 21
-27.38210260657482
 31
0.0
  0
LINE
  5
11D
330
A9
100
AcDbEntity
  8
0
  6
Continuous
 62
     0
100
AcDbLine
 10
7.009492569157945
 20
-27.45092569203852
 30
0.0
 11
7.009492569157944
 21
-27.43210260657472
 31
0.0
  0
LINE
  5
11E
330
A9
100
AcDbEntity
  8
0
  6
Continuous
 62
     0
100
AcDbLine
 10
7.009492569157944
 20
-27.50092569203842
 30
0.0
 11
7.009492569157944
 21
-27.48210260657469
 31
0.0
  0
LINE
  5
11F
330
A9
100
AcDbEntity
  8
0
  6
Continuous
 62
     0
100
AcDbLine
 10
7.009492569157945
 20
-27.55092569203839
 30
0.0
 11
7.009492569157943
 21
-27.5321026065746
 31
0.0
  0
LINE
  5
120
330
A9
100
AcDbEntity
  8
0
  6
Continuous
 62
     0
100
AcDbLine
 10
7.009492569157942
 20
-27.6009256920383
 30
0.0
 11
7.009492569157943
 21
-27.58210260657463
 31
0.0
  0
LINE
  5
121
330
A9
100
AcDbEntity
  8
0
  6
Continuous
 62
     0
100
AcDbLine
 10
7.009492569157943
 20
-27.65092569203826
 30
0.0
 11
7.009492569157943
 21
-27.63210260657454
 31
0.0
  0
LINE
  5
122
330
A9
100
AcDbEntity
  8
0
  6
Continuous
 62
     0
100
AcDbLine
 10
7.009492569157944
 20
-27.68892569203913
 30
0.0
 11
7.009492569157945
 21
-27.68210260657451
 31
0.0
  0
LINE
  5
123
330
A9
100
AcDbEntity
  8
0
  6
Continuous
 62
     0
100
AcDbLine
 10
7.384492569157944
 20
-26.75092569203912
 30
0.0
 11
7.384492569157945
 21
-26.87592569203913
 31
0.0
  0
ARC
  5
124
330
A9
100
AcDbEntity
  8
0
100
AcDbCircle
 10
6.23107455839817
 20
-27.71996936182855
 30
0.0
 40
0.06
100
AcDbArc
 50
307.6819980528272
 51
59.99999999999905
  0
ARC
  5
125
330
A9
100
AcDbEntity
  8
0
100
AcDbCircle
 10
6.231074558398156
 20
-27.46988202224969
 30
0.0
 40
0.06
100
AcDbArc
 50
300.0000000000009
 51
52.31800194717539
  0
ARC
  5
126
330
A9
100
AcDbEntity
  8
0
100
AcDbCircle
 10
6.231074558398156
 20
-27.46988202224969
 30
0.0
 40
0.06
100
AcDbArc
 50
232.3180019471738
 51
299.9999999999993
  0
ARC
  5
127
330
A9
100
AcDbEntity
  8
0
100
AcDbCircle
 10
6.231074558398156
 20
-27.71996936182855
 30
0.0
 40
0.06
100
AcDbArc
 50
59.99999999999994
 51
127.6819980528272
  0
LINE
  5
128
330
A9
100
AcDbEntity
  8
0
100
AcDbLine
 10
6.134492569157992
 20
-27.81292569203912
 30
0.0
 11
6.009492569157992
 21
-27.81292569203912
 31
0.0
  0
ARC
  5
129
330
A9
100
AcDbEntity
  8
0
100
AcDbCircle
 10
6.134492569157992
 20
-27.59492569203912
 30
0.0
 40
0.218
100
AcDbArc
 50
270.0
 51
307.6819980528272
  0
ARC
  5
12A
330
A9
100
AcDbEntity
  8
0
100
AcDbCircle
 10
6.134492569157992
 20
-27.59492569203912
 30
0.0
 40
0.098
100
AcDbArc
 50
52.31800194717276
 51
307.6819980528272
  0
LINE
  5
12B
330
A9
100
AcDbEntity
  8
0
100
AcDbLine
 10
6.135034549238434
 20
-27.37692129290185
 30
0.0
 11
6.267751263172905
 21
-27.42239708435497
 31
0.0
  0
ARC
  5
12C
330
A9
100
AcDbEntity
  8
0
100
AcDbCircle
 10
6.134492569157992
 20
-27.251922467877
 30
0.0
 40
0.125
100
AcDbArc
 50
180.0
 51
270.2484261479018
  0
LINE
  5
12D
330
A9
100
AcDbEntity
  8
0
  6
Continuous
 62
     0
100
AcDbLine
 10
6.009492569157943
 20
-27.06392569203914
 30
0.0
 11
6.009492569157944
 21
-27.251922467877
 31
0.0
  0
LINE
  5
12E
330
A9
100
AcDbEntity
  8
0
  6
Continuous
 62
     0
100
AcDbLine
 10
5.724492569157945
 20
-30.37592569203912
 30
0.0
 11
5.634492569157945
 21
-30.37592569203912
 31
0.0
  0
LINE
  5
12F
330
A9
100
AcDbEntity
  8
0
  6
Continuous
 62
     0
100
AcDbLine
 10
5.634492569157945
 20
-30.37592569203912
 30
0.0
 11
5.634492569157945
 21
-30.75092569203913
 31
0.0
  0
LINE
  5
130
330
A9
100
AcDbEntity
  8
0
  6
Continuous
 62
     0
100
AcDbLine
 10
5.724492569157945
 20
-30.62592569203913
 30
0.0
 11
5.884492569157944
 21
-30.62592569203913
 31
0.0
  0
LINE
  5
131
330
A9
100
AcDbEntity
  8
0
  6
Continuous
 62
     0
100
AcDbLine
 10
5.724492569157945
 20
-30.37592569203912
 30
0.0
 11
5.724492569157945
 21
-30.62592569203913
 31
0.0
  0
ARC
  5
132
330
A9
100
AcDbEntity
  8
0
100
AcDbCircle
 10
6.291205575542707
 20
-30.45805113935948
 30
0.0
 40
0.06
100
AcDbArc
 50
105.0
 51
172.6819980528272
  0
ARC
  5
133
330
A9
100
AcDbEntity
  8
0
  6
Continuous
 62
     0
100
AcDbCircle
 10
6.524859504944237
 20
-30.37492569203911
 30
0.0
 40
0.188
100
AcDbArc
 50
199.5790071679535
 51
270.0000000000005
  0
ARC
  5
134
330
A9
100
AcDbEntity
  8
0
100
AcDbCircle
 10
6.291205575542718
 20
-30.45805113935946
 30
0.0
 40
0.06
100
AcDbArc
 50
19.56903376504332
 51
104.999999999999
  0
LINE
  5
135
330
A9
100
AcDbEntity
  8
0
  6
Continuous
 62
     0
100
AcDbLine
 10
6.118367121837587
 20
-30.22521268565436
 30
0.0
 11
6.009492569157944
 21
-30.22521268565436
 31
0.0
  0
ARC
  5
136
330
A9
100
AcDbEntity
  8
0
100
AcDbCircle
 10
6.114550679503316
 20
-30.28162038703484
 30
0.0
 40
0.0595723808065922
100
AcDbArc
 50
277.1928438790342
 51
345.3356552727027
  0
ARC
  5
137
330
A9
100
AcDbEntity
  8
0
  6
Continuous
 62
     0
100
AcDbCircle
 10
6.118367121837587
 20
-30.28121268565436
 30
0.0
 40
0.056
100
AcDbArc
 50
343.9434601892362
 51
90.0
  0
ARC
  5
138
330
A9
100
AcDbEntity
  8
0
100
AcDbCircle
 10
6.134492569157896
 20
-30.43792569203912
 30
0.0
 40
0.097999999999999
100
AcDbArc
 50
97.223366534771
 51
352.6819980528273
  0
LINE
  5
139
330
A9
100
AcDbEntity
  8
0
  6
Continuous
 62
     0
100
AcDbLine
 10
6.524859504944239
 20
-30.56292569203912
 30
0.0
 11
7.244125633371658
 21
-30.56292569203913
 31
0.0
  0
LINE
  5
13A
330
A9
100
AcDbEntity
  8
0
  6
Continuous
 62
     0
100
AcDbLine
 10
5.884492569157944
 20
-26.75092569203913
 30
0.0
 11
5.884492569157944
 21
-30.62592569203913
 31
0.0
  0
LINE
  5
13B
330
A9
100
AcDbEntity
  8
0
  6
Continuous
 62
     0
100
AcDbLine
 10
6.009492569157943
 20
-27.81292569203912
 30
0.0
 11
6.009492569157944
 21
-30.22521268565436
 31
0.0
  0
LINE
  5
13C
330
A9
100
AcDbEntity
  8
0
  6
Continuous
 62
     0
100
AcDbLine
 10
7.571992569157945
 20
-26.80092569203911
 30
0.0
 11
7.571992569157945
 21
-26.78292569203911
 31
0.0
  0
ARC
  5
13D
330
A9
100
AcDbEntity
  8
0
  6
Continuous
 62
     0
100
AcDbCircle
 10
7.539992569157945
 20
-26.78292569203911
 30
0.0
 40
0.032
100
AcDbArc
 50
0.0000000000010178
 51
90.00000000000213
  0
LINE
  5
13E
330
A9
100
AcDbEntity
  8
0
  6
Continuous
 62
     0
100
AcDbLine
 10
7.884492569157944
 20
-26.75092569203911
 30
0.0
 11
7.728992569157944
 21
-26.75092569203911
 31
0.0
  0
LINE
  5
13F
330
A9
100
AcDbEntity
  8
0
  6
Continuous
 62
     0
100
AcDbLine
 10
7.696992569157944
 20
-26.80092569203911
 30
0.0
 11
7.696992569157944
 21
-26.78292569203911
 31
0.0
  0
ARC
  5
140
330
A9
100
AcDbEntity
  8
0
  6
Continuous
 62
     0
100
AcDbCircle
 10
7.728992569157944
 20
-26.78292569203911
 30
0.0
 40
0.032
100
AcDbArc
 50
90.0
 51
180.0
  0
LINE
  5
141
330
A9
100
AcDbEntity
  8
0
  6
Continuous
 62
     0
100
AcDbLine
 10
7.734492569157946
 20
-26.87812368197617
 30
0.0
 11
7.734492569157946
 21
-26.80092569203911
 31
0.0
  0
LINE
  5
142
330
A9
100
AcDbEntity
  8
0
  6
Continuous
 62
     0
100
AcDbLine
 10
7.534492569157947
 20
-26.87812368197618
 30
0.0
 11
7.534492569157946
 21
-26.80092569203912
 31
0.0
  0
ARC
  5
143
330
A9
100
AcDbEntity
  8
0
  6
Continuous
 62
     0
100
AcDbCircle
 10
7.634492569157943
 20
-26.71892569203911
 30
0.0
 40
0.188
100
AcDbArc
 50
237.8650719958535
 51
302.1349280041486
  0
LINE
  5
144
330
A9
100
AcDbEntity
  8
0
  6
Continuous
 62
     0
100
AcDbLine
 10
7.696992569157944
 20
-26.80092569203911
 30
0.0
 11
7.734492569157946
 21
-26.80092569203911
 31
0.0
  0
LINE
  5
145
330
A9
100
AcDbEntity
  8
0
  6
Continuous
 62
     0
100
AcDbLine
 10
7.571992569157945
 20
-26.80092569203911
 30
0.0
 11
7.534492569157946
 21
-26.80092569203912
 31
0.0
  0
LINE
  5
146
330
A9
100
AcDbEntity
  8
0
  6
Continuous
 62
     0
100
AcDbLine
 10
7.759492569158086
 20
-27.06392569203918
 30
0.0
 11
7.759492569158078
 21
-27.25192246787704
 31
0.0
  0
ARC
  5
147
330
A9
100
AcDbEntity
  8
0
100
AcDbCircle
 10
7.63449256915803
 20
-27.25192246787703
 30
0.0
 40
0.125
100
AcDbArc
 50
269.7515738520961
 51
359.9999999999978
  0
LINE
  5
148
330
A9
100
AcDbEntity
  8
0
100
AcDbLine
 10
7.633950589077583
 20
-27.37692129290188
 30
0.0
 11
7.50123387514311
 21
-27.42239708435499
 31
0.0
  0
ARC
  5
149
330
A9
100
AcDbEntity
  8
0
100
AcDbCircle
 10
7.634492569158017
 20
-27.59492569203915
 30
0.0
 40
0.098
100
AcDbArc
 50
232.3180019471706
 51
127.681998052825
  0
ARC
  5
14A
330
A9
100
AcDbEntity
  8
0
100
AcDbCircle
 10
7.634492569158017
 20
-27.59492569203915
 30
0.0
 40
0.218
100
AcDbArc
 50
232.3180019471706
 51
269.9999999999978
  0
LINE
  5
14B
330
A9
100
AcDbEntity
  8
0
100
AcDbLine
 10
7.634492569158009
 20
-27.81292569203915
 30
0.0
 11
7.759492569158009
 21
-27.81292569203916
 31
0.0
  0
ARC
  5
14C
330
A9
100
AcDbEntity
  8
0
100
AcDbCircle
 10
7.537910579917848
 20
-27.71996936182858
 30
0.0
 40
0.06
100
AcDbArc
 50
52.31800194717058
 51
119.9999999999978
  0
ARC
  5
14D
330
A9
100
AcDbEntity
  8
0
100
AcDbCircle
 10
7.537910579917857
 20
-27.46988202224971
 30
0.0
 40
0.06
100
AcDbArc
 50
239.9999999999986
 51
307.6819980528241
  0
ARC
  5
14E
330
A9
100
AcDbEntity
  8
0
100
AcDbCircle
 10
7.537910579917857
 20
-27.46988202224971
 30
0.0
 40
0.06
100
AcDbArc
 50
127.6819980528224
 51
239.999999999997
  0
ARC
  5
14F
330
A9
100
AcDbEntity
  8
0
100
AcDbCircle
 10
7.537910579917834
 20
-27.71996936182858
 30
0.0
 40
0.06
100
AcDbArc
 50
119.9999999999987
 51
232.3180019471706
  0
LINE
  5
150
330
A9
100
AcDbEntity
  8
0
  6
Continuous
 62
     0
100
AcDbLine
 10
8.044492569157945
 20
-30.37592569203912
 30
0.0
 11
8.044492569157945
 21
-30.62592569203913
 31
0.0
  0
LINE
  5
151
330
A9
100
AcDbEntity
  8
0
  6
Continuous
 62
     0
100
AcDbLine
 10
8.134492569157945
 20
-30.37592569203912
 30
0.0
 11
8.134492569157945
 21
-30.75092569203913
 31
0.0
  0
LINE
  5
152
330
A9
100
AcDbEntity
  8
0
  6
Continuous
 62
     0
100
AcDbLine
 10
8.044492569157945
 20
-30.37592569203912
 30
0.0
 11
8.134492569157945
 21
-30.37592569203912
 31
0.0
  0
LINE
  5
153
330
A9
100
AcDbEntity
  8
0
  6
Continuous
 62
     0
100
AcDbLine
 10
7.884492569157942
 20
-30.62592569203913
 30
0.0
 11
8.044492569157945
 21
-30.62592569203913
 31
0.0
  0
ARC
  5
154
330
A9
100
AcDbEntity
  8
0
100
AcDbCircle
 10
7.634492569158005
 20
-30.43792569203915
 30
0.0
 40
0.097999999999999
100
AcDbArc
 50
187.3180019471704
 51
82.77663346522684
  0
ARC
  5
155
330
A9
100
AcDbEntity
  8
0
  6
Continuous
 62
     0
100
AcDbCircle
 10
7.650618016478321
 20
-30.28121268565439
 30
0.0
 40
0.056
100
AcDbArc
 50
89.99999999999785
 51
196.0565398107617
  0
ARC
  5
156
330
A9
100
AcDbEntity
  8
0
100
AcDbCircle
 10
7.654434458812592
 20
-30.28162038703487
 30
0.0
 40
0.0595723808065922
100
AcDbArc
 50
194.6643447272951
 51
262.8071561209637
  0
LINE
  5
157
330
A9
100
AcDbEntity
  8
0
  6
Continuous
 62
     0
100
AcDbLine
 10
7.650618016478323
 20
-30.22521268565439
 30
0.0
 11
7.759492569157965
 21
-30.2252126856544
 31
0.0
  0
ARC
  5
158
330
A9
100
AcDbEntity
  8
0
100
AcDbCircle
 10
7.477779562773183
 20
-30.45805113935949
 30
0.0
 40
0.06
100
AcDbArc
 50
74.99999999999878
 51
160.4309662349545
  0
ARC
  5
159
330
A9
100
AcDbEntity
  8
0
100
AcDbCircle
 10
7.477779562773194
 20
-30.4580511393595
 30
0.0
 40
0.06
100
AcDbArc
 50
7.318001947170501
 51
74.99999999999786
  0
LINE
  5
15A
330
A9
100
AcDbEntity
  8
0
  6
Continuous
 62
     0
100
AcDbLine
 10
7.884492569157944
 20
-26.75092569203913
 30
0.0
 11
7.884492569157943
 21
-30.62592569203913
 31
0.0
  0
LINE
  5
15B
330
A9
100
AcDbEntity
  8
0
  6
Continuous
 62
     0
100
AcDbLine
 10
7.759492569158058
 20
-27.81292569203916
 30
0.0
 11
7.759492569157965
 21
-30.2252126856544
 31
0.0
  0
ENDBLK
  5
15C
330
A9
100
AcDbEntity
  8
0
100
AcDbBlockEnd
  0
BLOCK
  5
92
330
91
100
AcDbEntity
  8
0
 62
     0
100
AcDbBlockBegin
  2
snap cap
 70
     0
 10
0.0
 20
0.0
 30
0.0
  3
snap cap
  1

  0
LINE
  5
93
330
91
100
AcDbEntity
  8
0
  6
Continuous
 62
     0
100
AcDbLine
 10
3.145714331300393
 20
-46.31714604988745
 30
0.0
 11
4.983714331300394
 21
-46.31714604988744
 31
0.0
  0
LINE
  5
94
330
91
100
AcDbEntity
  8
0
  6
Continuous
 62
     0
100
AcDbLine
 10
3.095714331300393
 20
-46.26714604988747
 30
0.0
 11
5.033714331300393
 21
-46.26714604988746
 31
0.0
  0
LINE
  5
95
330
91
100
AcDbEntity
  8
0
  6
Continuous
 62
     0
100
AcDbLine
 10
3.064714331300393
 20
-46.29814604988747
 30
0.0
 11
3.064714331300393
 21
-46.70714604988748
 31
0.0
  0
ARC
  5
96
330
91
100
AcDbEntity
  8
0
  6
Continuous
 62
     0
100
AcDbCircle
 10
3.095714331300393
 20
-46.29814604988747
 30
0.0
 40
0.031
100
AcDbArc
 50
90.0
 51
180.0
  0
LINE
  5
97
330
91
100
AcDbEntity
  8
0
  6
Continuous
 62
     0
100
AcDbLine
 10
3.114714331300393
 20
-46.34814604988745
 30
0.0
 11
3.114714331300393
 21
-46.58076407737524
 31
0.0
  0
ARC
  5
98
330
91
100
AcDbEntity
  8
0
  6
Continuous
 62
     0
100
AcDbCircle
 10
3.145714331300393
 20
-46.34814604988745
 30
0.0
 40
0.031
100
AcDbArc
 50
90.0
 51
180.0
  0
LINE
  5
99
330
91
100
AcDbEntity
  8
0
  6
Continuous
 62
     0
100
AcDbLine
 10
3.123794021083609
 20
-46.60268438759201
 30
0.0
 11
3.136634641517211
 21
-46.61552500802561
 31
0.0
  0
ARC
  5
9A
330
91
100
AcDbEntity
  8
0
  6
Continuous
 62
     0
100
AcDbCircle
 10
3.145714331300393
 20
-46.58076407737524
 30
0.0
 40
0.031
100
AcDbArc
 50
180.0
 51
224.9999999999965
  0
ARC
  5
9B
330
91
100
AcDbEntity
  8
0
  6
Continuous
 62
     0
100
AcDbCircle
 10
3.074714331300393
 20
-46.70714604988748
 30
0.0
 40
0.01
100
AcDbArc
 50
180.0
 51
316.0213427048227
  0
LINE
  5
9C
330
91
100
AcDbEntity
  8
0
  6
Continuous
 62
     0
100
AcDbLine
 10
3.08165823497902
 20
-46.71434203499738
 30
0.0
 11
3.136634641517211
 21
-46.65936562845918
 31
0.0
  0
ARC
  5
9D
330
91
100
AcDbEntity
  8
0
  6
Continuous
 62
     0
100
AcDbCircle
 10
3.114714331300428
 20
-46.6374453182424
 30
0.0
 40
0.031
100
AcDbArc
 50
315.0000000000014
 51
44.99999999999857
  0
ARC
  5
9E
330
91
100
AcDbEntity
  8
0
  6
Continuous
 62
     0
100
AcDbCircle
 10
5.014714331300359
 20
-46.6374453182424
 30
0.0
 40
0.031
100
AcDbArc
 50
135.0000000000014
 51
224.9999999999986
  0
LINE
  5
9F
330
91
100
AcDbEntity
  8
0
  6
Continuous
 62
     0
100
AcDbLine
 10
5.047770427621767
 20
-46.71434203499738
 30
0.0
 11
4.992794021083575
 21
-46.65936562845918
 31
0.0
  0
ARC
  5
A0
330
91
100
AcDbEntity
  8
0
  6
Continuous
 62
     0
100
AcDbCircle
 10
5.054714331300393
 20
-46.70714604988748
 30
0.0
 40
0.01
100
AcDbArc
 50
223.9786572951773
 51
0.000000000000007
  0
ARC
  5
A1
330
91
100
AcDbEntity
  8
0
  6
Continuous
 62
     0
100
AcDbCircle
 10
4.983714331300394
 20
-46.58076407737524
 30
0.0
 40
0.031
100
AcDbArc
 50
315.0000000000035
 51
0.000000000000007
  0
LINE
  5
A2
330
91
100
AcDbEntity
  8
0
  6
Continuous
 62
     0
100
AcDbLine
 10
5.005634641517177
 20
-46.60268438759201
 30
0.0
 11
4.992794021083575
 21
-46.61552500802561
 31
0.0
  0
ARC
  5
A3
330
91
100
AcDbEntity
  8
0
  6
Continuous
 62
     0
100
AcDbCircle
 10
4.983714331300394
 20
-46.34814604988745
 30
0.0
 40
0.031
100
AcDbArc
 50
0.000000000000007
 51
90.0
  0
LINE
  5
A4
330
91
100
AcDbEntity
  8
0
  6
Continuous
 62
     0
100
AcDbLine
 10
5.014714331300394
 20
-46.34814604988745
 30
0.0
 11
5.014714331300393
 21
-46.58076407737524
 31
0.0
  0
ARC
  5
A5
330
91
100
AcDbEntity
  8
0
  6
Continuous
 62
     0
100
AcDbCircle
 10
5.033714331300393
 20
-46.29814604988747
 30
0.0
 40
0.031
100
AcDbArc
 50
0.000000000000007
 51
90.0
  0
LINE
  5
A6
330
91
100
AcDbEntity
  8
0
  6
Continuous
 62
     0
100
AcDbLine
 10
5.064714331300393
 20
-46.29814604988747
 30
0.0
 11
5.064714331300393
 21
-46.70714604988748
 31
0.0
  0
ENDBLK
  5
A7
330
91
100
AcDbEntity
  8
0
 62
     0
100
AcDbBlockEnd
  0
BLOCK
  5
62
330
61
100
AcDbEntity
  8
0
 62
     0
100
AcDbBlockBegin
  2
pressure cap
 70
     0
 10
0.0
 20
0.0
 30
0.0
  3
pressure cap
  1

  0
LINE
  5
63
330
61
100
AcDbEntity
  8
0
  6
Continuous
 62
     0
100
AcDbLine
 10
6.976665986441635
 20
-46.66162203570149
 30
0.0
 11
8.009178873382017
 21
-46.6616220357015
 31
0.0
  0
LINE
  5
64
330
61
100
AcDbEntity
  8
0
  6
Continuous
 62
     0
100
AcDbLine
 10
6.872742937987508
 20
-46.74162203570149
 30
0.0
 11
8.11310192183614
 21
-46.7416220357015
 31
0.0
  0
LINE
  5
65
330
61
100
AcDbEntity
  8
0
  6
Continuous
 62
     0
100
AcDbLine
 10
6.552002119695043
 20
-46.62554234591827
 30
0.0
 11
6.580515530222074
 21
-46.65881351943705
 31
0.0
  0
LINE
  5
66
330
61
100
AcDbEntity
  8
0
  6
Continuous
 62
     0
100
AcDbLine
 10
6.582922429911826
 20
-46.66532080978546
 30
0.0
 11
6.582922429911825
 21
-46.73162203570149
 31
0.0
  0
ARC
  5
67
330
61
100
AcDbEntity
  8
0
  6
Continuous
 62
     0
100
AcDbCircle
 10
6.572922429911827
 20
-46.66532080978546
 30
0.0
 40
0.01
100
AcDbArc
 50
359.9999999999992
 51
40.59659055174952
  0
LINE
  5
68
330
61
100
AcDbEntity
  8
0
  6
Continuous
 62
     0
100
AcDbLine
 10
6.592922429911824
 20
-46.74162203570149
 30
0.0
 11
6.713101921836137
 21
-46.74162203570149
 31
0.0
  0
ARC
  5
69
330
61
100
AcDbEntity
  8
0
  6
Continuous
 62
     0
100
AcDbCircle
 10
6.592922429911824
 20
-46.73162203570149
 30
0.0
 40
0.01
100
AcDbArc
 50
180.0
 51
270.0
  0
LINE
  5
6A
330
61
100
AcDbEntity
  8
0
  6
Continuous
 62
     0
100
AcDbLine
 10
6.721762175873981
 20
-46.72662203570149
 30
0.0
 11
6.685100433780439
 21
-46.66312203570147
 31
0.0
  0
ARC
  5
6B
330
61
100
AcDbEntity
  8
0
  6
Continuous
 62
     0
100
AcDbCircle
 10
6.713101921836136
 20
-46.73162203570149
 30
0.0
 40
0.01
100
AcDbArc
 50
270.0000000000027
 51
29.99999999999615
  0
LINE
  5
6C
330
61
100
AcDbEntity
  8
0
  6
Continuous
 62
     0
100
AcDbLine
 10
6.864082683949663
 20
-46.72662203570149
 30
0.0
 11
6.900744426043207
 21
-46.66312203570148
 31
0.0
  0
ARC
  5
6D
330
61
100
AcDbEntity
  8
0
  6
Continuous
 62
     0
100
AcDbCircle
 10
6.872742937987508
 20
-46.73162203570149
 30
0.0
 40
0.01
100
AcDbArc
 50
150.0000000000035
 51
269.9999999999996
  0
LINE
  5
6E
330
61
100
AcDbEntity
  8
0
  6
Continuous
 62
     0
100
AcDbLine
 10
6.96800573240379
 20
-46.64662203570149
 30
0.0
 11
6.987346966421641
 21
-46.61312203570149
 31
0.0
  0
ARC
  5
6F
330
61
100
AcDbEntity
  8
0
  6
Continuous
 62
     0
100
AcDbCircle
 10
6.976665986441635
 20
-46.65162203570149
 30
0.0
 40
0.01
100
AcDbArc
 50
150.0000000000008
 51
269.9999999999993
  0
LINE
  5
70
330
61
100
AcDbEntity
  8
0
  6
Continuous
 62
     0
100
AcDbLine
 10
6.691119963552688
 20
-46.56662203570146
 30
0.0
 11
6.960500178904323
 21
-46.56662203570149
 31
0.0
  0
LINE
  5
71
330
61
100
AcDbEntity
  8
0
  6
Continuous
 62
     0
100
AcDbLine
 10
6.66011996355269
 20
-46.39762203570149
 30
0.0
 11
6.660119963552691
 21
-46.53562203570146
 31
0.0
  0
ARC
  5
72
330
61
100
AcDbEntity
  8
0
  6
Continuous
 62
     0
100
AcDbCircle
 10
6.691119963552691
 20
-46.53562203570146
 30
0.0
 40
0.031
100
AcDbArc
 50
179.9999999999997
 51
269.9999999999946
  0
ARC
  5
73
330
61
100
AcDbEntity
  8
0
  6
Continuous
 62
     0
100
AcDbCircle
 10
6.960500178904322
 20
-46.59762203570148
 30
0.0
 40
0.031
100
AcDbArc
 50
330.0000000000001
 51
89.99999999999849
  0
ARC
  5
74
330
61
100
AcDbEntity
  8
0
  6
Continuous
 62
     0
100
AcDbCircle
 10
6.711947221297757
 20
-46.64762203570147
 30
0.0
 40
0.031
100
AcDbArc
 50
90.0
 51
209.9999999999984
  0
ARC
  5
75
330
61
100
AcDbEntity
  8
0
  6
Continuous
 62
     0
100
AcDbCircle
 10
6.873897638525889
 20
-46.64762203570147
 30
0.0
 40
0.031
100
AcDbArc
 50
330.0000000000001
 51
89.99999999999849
  0
LINE
  5
76
330
61
100
AcDbEntity
  8
0
  6
Continuous
 62
     0
100
AcDbLine
 10
6.711947221297757
 20
-46.61662203570148
 30
0.0
 11
6.87389763852589
 21
-46.61662203570148
 31
0.0
  0
LINE
  5
77
330
61
100
AcDbEntity
  8
0
  6
Continuous
 62
     0
100
AcDbLine
 10
6.543978729296862
 20
-46.59559864530332
 30
0.0
 11
6.599176262937731
 21
-46.3895986453033
 31
0.0
  0
ARC
  5
78
330
61
100
AcDbEntity
  8
0
  6
Continuous
 62
     0
100
AcDbCircle
 10
6.629119963552691
 20
-46.39762203570149
 30
0.0
 40
0.031
100
AcDbArc
 50
0.0
 51
164.9999999999832
  0
ARC
  5
79
330
61
100
AcDbEntity
  8
0
  6
Continuous
 62
     0
100
AcDbCircle
 10
6.573922429911825
 20
-46.60362203570149
 30
0.0
 40
0.031
100
AcDbArc
 50
164.9999999999845
 51
224.999999999971
  0
ARC
  5
7A
330
61
100
AcDbEntity
  8
0
  6
Continuous
 62
     0
100
AcDbCircle
 10
8.411922429911829
 20
-46.60362203570153
 30
0.0
 40
0.031
100
AcDbArc
 50
315.0000000000265
 51
15.00000000001299
  0
ARC
  5
7B
330
61
100
AcDbEntity
  8
0
  6
Continuous
 62
     0
100
AcDbCircle
 10
8.356724896270973
 20
-46.39762203570152
 30
0.0
 40
0.031
100
AcDbArc
 50
15.00000000001426
 51
179.9999999999974
  0
LINE
  5
7C
330
61
100
AcDbEntity
  8
0
  6
Continuous
 62
     0
100
AcDbLine
 10
8.441866130526793
 20
-46.59559864530335
 30
0.0
 11
8.386668596885932
 21
-46.38959864530334
 31
0.0
  0
LINE
  5
7D
330
61
100
AcDbEntity
  8
0
  6
Continuous
 62
     0
100
AcDbLine
 10
8.273897638525898
 20
-46.61662203570151
 30
0.0
 11
8.111947221297764
 21
-46.61662203570151
 31
0.0
  0
ARC
  5
7E
330
61
100
AcDbEntity
  8
0
  6
Continuous
 62
     0
100
AcDbCircle
 10
8.111947221297764
 20
-46.64762203570151
 30
0.0
 40
0.031
100
AcDbArc
 50
89.99999999999896
 51
209.9999999999973
  0
ARC
  5
7F
330
61
100
AcDbEntity
  8
0
  6
Continuous
 62
     0
100
AcDbCircle
 10
8.273897638525896
 20
-46.64762203570151
 30
0.0
 40
0.031
100
AcDbArc
 50
329.999999999999
 51
89.99999999999747
  0
ARC
  5
80
330
61
100
AcDbEntity
  8
0
  6
Continuous
 62
     0
100
AcDbCircle
 10
8.025344680919333
 20
-46.59762203570151
 30
0.0
 40
0.031
100
AcDbArc
 50
89.99999999999896
 51
209.9999999999973
  0
ARC
  5
81
330
61
100
AcDbEntity
  8
0
  6
Continuous
 62
     0
100
AcDbCircle
 10
8.294724896270967
 20
-46.5356220357015
 30
0.0
 40
0.031
100
AcDbArc
 50
270.0000000000029
 51
359.9999999999978
  0
LINE
  5
82
330
61
100
AcDbEntity
  8
0
  6
Continuous
 62
     0
100
AcDbLine
 10
8.325724896270973
 20
-46.39762203570152
 30
0.0
 11
8.325724896270966
 21
-46.5356220357015
 31
0.0
  0
LINE
  5
83
330
61
100
AcDbEntity
  8
0
  6
Continuous
 62
     0
100
AcDbLine
 10
8.294724896270968
 20
-46.56662203570149
 30
0.0
 11
8.025344680919333
 21
-46.56662203570152
 31
0.0
  0
ARC
  5
84
330
61
100
AcDbEntity
  8
0
  6
Continuous
 62
     0
100
AcDbCircle
 10
8.009178873382017
 20
-46.65162203570151
 30
0.0
 40
0.01
100
AcDbArc
 50
269.9999999999983
 51
29.99999999999664
  0
LINE
  5
85
330
61
100
AcDbEntity
  8
0
  6
Continuous
 62
     0
100
AcDbLine
 10
8.017839127419863
 20
-46.64662203570151
 30
0.0
 11
7.998497893402013
 21
-46.61312203570151
 31
0.0
  0
ARC
  5
86
330
61
100
AcDbEntity
  8
0
  6
Continuous
 62
     0
100
AcDbCircle
 10
8.11310192183614
 20
-46.73162203570152
 30
0.0
 40
0.01
100
AcDbArc
 50
269.9999999999978
 51
29.99999999999392
  0
LINE
  5
87
330
61
100
AcDbEntity
  8
0
  6
Continuous
 62
     0
100
AcDbLine
 10
8.121762175873985
 20
-46.72662203570151
 30
0.0
 11
8.085100433780446
 21
-46.66312203570151
 31
0.0
  0
ARC
  5
88
330
61
100
AcDbEntity
  8
0
  6
Continuous
 62
     0
100
AcDbCircle
 10
8.272742937987512
 20
-46.73162203570153
 30
0.0
 40
0.01
100
AcDbArc
 50
150.0000000000013
 51
269.9999999999947
  0
LINE
  5
89
330
61
100
AcDbEntity
  8
0
  6
Continuous
 62
     0
100
AcDbLine
 10
8.26408268394967
 20
-46.72662203570152
 30
0.0
 11
8.300744426043213
 21
-46.66312203570151
 31
0.0
  0
ARC
  5
8A
330
61
100
AcDbEntity
  8
0
  6
Continuous
 62
     0
100
AcDbCircle
 10
8.392922429911823
 20
-46.73162203570153
 30
0.0
 40
0.01
100
AcDbArc
 50
269.9999999999974
 51
359.9999999999974
  0
LINE
  5
8B
330
61
100
AcDbEntity
  8
0
  6
Continuous
 62
     0
100
AcDbLine
 10
8.392922429911823
 20
-46.74162203570153
 30
0.0
 11
8.272742937987512
 21
-46.74162203570152
 31
0.0
  0
ARC
  5
8C
330
61
100
AcDbEntity
  8
0
  6
Continuous
 62
     0
100
AcDbCircle
 10
8.412922429911827
 20
-46.66532080978551
 30
0.0
 40
0.01
100
AcDbArc
 50
139.4034094482479
 51
179.9999999999982
  0
LINE
  5
8D
330
61
100
AcDbEntity
  8
0
  6
Continuous
 62
     0
100
AcDbLine
 10
8.402922429911825
 20
-46.66532080978551
 30
0.0
 11
8.402922429911825
 21
-46.73162203570153
 31
0.0
  0
LINE
  5
8E
330
61
100
AcDbEntity
  8
0
  6
Continuous
 62
     0
100
AcDbLine
 10
8.433842740128611
 20
-46.62554234591832
 30
0.0
 11
8.405329329601578
 21
-46.65881351943709
 31
0.0
  0
ENDBLK
  5
8F
330
61
100
AcDbEntity
  8
0
 62
     0
100
AcDbBlockEnd
  0
BLOCK
  5
163
330
162
100
AcDbEntity
  8
0
100
AcDbBlockBegin
  2
*X4
 70
     1
 10
0.0
 20
0.0
 30
0.0
  3
*X4
  1

  0
LINE
  5
164
330
162
100
AcDbEntity
  8
0
 62
     0
100
AcDbLine
 10
6.455653718588217
 20
3.485805237604717
 30
0.0
 11
6.482008789598947
 21
3.512160308615448
 31
0.0
  0
LINE
  5
165
330
162
100
AcDbEntity
  8
0
 62
     0
100
AcDbLine
 10
6.420298379528889
 20
3.485805237604717
 30
0.0
 11
6.482008789598947
 21
3.547515647674775
 31
0.0
  0
LINE
  5
166
330
162
100
AcDbEntity
  8
0
 62
     0
100
AcDbLine
 10
6.384943040469562
 20
3.485805237604717
 30
0.0
 11
6.482008789598947
 21
3.582870986734103
 31
0.0
  0
LINE
  5
167
330
162
100
AcDbEntity
  8
0
 62
     0
100
AcDbLine
 10
6.349587701410235
 20
3.485805237604717
 30
0.0
 11
6.482008789598947
 21
3.61822632579343
 31
0.0
  0
LINE
  5
168
330
162
100
AcDbEntity
  8
0
 62
     0
100
AcDbLine
 10
6.314232362350908
 20
3.485805237604717
 30
0.0
 11
6.482008789598947
 21
3.653581664852757
 31
0.0
  0
LINE
  5
169
330
162
100
AcDbEntity
  8
0
 62
     0
100
AcDbLine
 10
6.27887702329158
 20
3.485805237604717
 30
0.0
 11
6.482008789598947
 21
3.688937003912085
 31
0.0
  0
LINE
  5
16A
330
162
100
AcDbEntity
  8
0
 62
     0
100
AcDbLine
 10
6.243521684232253
 20
3.485805237604717
 30
0.0
 11
6.482008789598947
 21
3.724292342971412
 31
0.0
  0
LINE
  5
16B
330
162
100
AcDbEntity
  8
0
 62
     0
100
AcDbLine
 10
6.208166345172926
 20
3.485805237604717
 30
0.0
 11
6.482008789598947
 21
3.75964768203074
 31
0.0
  0
LINE
  5
16C
330
162
100
AcDbEntity
  8
0
 62
     0
100
AcDbLine
 10
6.172811006113598
 20
3.485805237604717
 30
0.0
 11
6.482008789598947
 21
3.795003021090066
 31
0.0
  0
LINE
  5
16D
330
162
100
AcDbEntity
  8
0
 62
     0
100
AcDbLine
 10
6.13745566705427
 20
3.485805237604717
 30
0.0
 11
6.482008789598947
 21
3.830358360149394
 31
0.0
  0
LINE
  5
16E
330
162
100
AcDbEntity
  8
0
 62
     0
100
AcDbLine
 10
6.107041342511141
 20
3.490746252120915
 30
0.0
 11
6.477067775082751
 21
3.860772684692525
 31
0.0
  0
LINE
  5
16F
330
162
100
AcDbEntity
  8
0
 62
     0
100
AcDbLine
 10
6.10944813505911
 20
3.528508383728212
 30
0.0
 11
6.439305643475454
 21
3.858365892144556
 31
0.0
  0
LINE
  5
170
330
162
100
AcDbEntity
  8
0
 62
     0
100
AcDbLine
 10
6.116884707869568
 20
3.571300295597997
 30
0.0
 11
6.396513731605669
 21
3.850929319334097
 31
0.0
  0
LINE
  5
171
330
162
100
AcDbEntity
  8
0
 62
     0
100
AcDbLine
 10
6.132862699926207
 20
3.622633626713963
 30
0.0
 11
6.345180400489703
 21
3.834951327277459
 31
0.0
  0
LINE
  5
172
330
162
100
AcDbEntity
  8
0
 62
     0
100
AcDbLine
 10
6.172699196925758
 20
3.697825462772842
 30
0.0
 11
6.269988564430825
 21
3.795114830277908
 31
0.0
  0
LINE
  5
173
330
162
100
AcDbEntity
  8
0
 62
     0
100
AcDbLine
 10
6.482008789598947
 20
3.47680496955612
 30
0.0
 11
6.491009057647545
 21
3.485805237604717
 31
0.0
  0
LINE
  5
174
330
162
100
AcDbEntity
  8
0
 62
     0
100
AcDbLine
 10
6.482008789598947
 20
3.441449630496793
 30
0.0
 11
6.526364396706872
 21
3.485805237604717
 31
0.0
  0
LINE
  5
175
330
162
100
AcDbEntity
  8
0
 62
     0
100
AcDbLine
 10
6.482008789598947
 20
3.406094291437466
 30
0.0
 11
6.5617197357662
 21
3.485805237604717
 31
0.0
  0
LINE
  5
176
330
162
100
AcDbEntity
  8
0
 62
     0
100
AcDbLine
 10
6.482008789598947
 20
3.370738952378138
 30
0.0
 11
6.597075074825526
 21
3.485805237604717
 31
0.0
  0
LINE
  5
177
330
162
100
AcDbEntity
  8
0
 62
     0
100
AcDbLine
 10
6.482008789598947
 20
3.335383613318811
 30
0.0
 11
6.632430413884853
 21
3.485805237604717
 31
0.0
  0
LINE
  5
178
330
162
100
AcDbEntity
  8
0
 62
     0
100
AcDbLine
 10
6.482008789598947
 20
3.300028274259484
 30
0.0
 11
6.667785752944181
 21
3.485805237604717
 31
0.0
  0
LINE
  5
179
330
162
100
AcDbEntity
  8
0
 62
     0
100
AcDbLine
 10
6.482008789598947
 20
3.264672935200156
 30
0.0
 11
6.703141092003509
 21
3.485805237604717
 31
0.0
  0
LINE
  5
17A
330
162
100
AcDbEntity
  8
0
 62
     0
100
AcDbLine
 10
6.482008789598947
 20
3.229317596140829
 30
0.0
 11
6.738496431062836
 21
3.485805237604717
 31
0.0
  0
LINE
  5
17B
330
162
100
AcDbEntity
  8
0
 62
     0
100
AcDbLine
 10
6.482008789598947
 20
3.193962257081501
 30
0.0
 11
6.773851770122163
 21
3.485805237604717
 31
0.0
  0
LINE
  5
17C
330
162
100
AcDbEntity
  8
0
 62
     0
100
AcDbLine
 10
6.482008789598947
 20
3.158606918022174
 30
0.0
 11
6.809207109181491
 21
3.485805237604717
 31
0.0
  0
LINE
  5
17D
330
162
100
AcDbEntity
  8
0
 62
     0
100
AcDbLine
 10
6.482008789598947
 20
3.123251578962847
 30
0.0
 11
6.844562448240818
 21
3.485805237604717
 31
0.0
  0
LINE
  5
17E
330
162
100
AcDbEntity
  8
0
 62
     0
100
AcDbLine
 10
6.505664664989164
 20
3.111552115293735
 30
0.0
 11
6.85626191190993
 21
3.462149362214502
 31
0.0
  0
LINE
  5
17F
330
162
100
AcDbEntity
  8
0
 62
     0
100
AcDbLine
 10
6.545725937059539
 20
3.116258048304783
 30
0.0
 11
6.851555978898883
 21
3.422088090144127
 31
0.0
  0
LINE
  5
180
330
162
100
AcDbEntity
  8
0
 62
     0
100
AcDbLine
 10
6.592175968206674
 20
3.127352740392591
 30
0.0
 11
6.840461286811075
 21
3.375638058996992
 31
0.0
  0
LINE
  5
181
330
162
100
AcDbEntity
  8
0
 62
     0
100
AcDbLine
 10
6.651444518775554
 20
3.151265951902144
 30
0.0
 11
6.816548075301522
 21
3.316369508428111
 31
0.0
  0
ENDBLK
  5
182
330
162
100
AcDbEntity
  8
0
100
AcDbBlockEnd
  0
BLOCK
  5
15F
330
15E
100
AcDbEntity
  8
0
100
AcDbBlockBegin
  2
work point
 70
     0
 10
0.0
 20
0.0
 30
0.0
  3
work point
  1

  0
LINE
  5
160
330
15E
100
AcDbEntity
  8
0
100
AcDbLine
 10
0.6056250806605572
 20
-88.19980482706348
 30
0.0
 11
1.070572365767889
 21
-88.19980482706348
 31
0.0
  0
INSERT
  5
161
330
15E
100
AcDbEntity
  8
0
100
AcDbBlockReference
  2
*X4
 10
-0.7831360848958014
 20
-89.07165010974274
 30
0.0
 41
0.2501130221717222
 42
0.2501130221716889
 43
0.2501130221716889
  0
CIRCLE
  5
183
330
15E
100
AcDbEntity
  8
0
100
AcDbCircle
 10
0.8380987232142231
 20
-88.19980482706348
 30
0.0
 40
0.0937923833143834
  0
LINE
  5
184
330
15E
100
AcDbEntity
  8
0
100
AcDbLine
 10
0.8380987232142231
 20
-87.96733118450983
 30
0.0
 11
0.8380987232142231
 21
-88.43227846961726
 31
0.0
  0
ENDBLK
  5
185
330
15E
100
AcDbEntity
  8
0
100
AcDbBlockEnd
  0
BLOCK
  5
188
330
187
100
AcDbEntity
  8
0
100
AcDbBlockBegin
  2
screwwy
 70
     0
 10
0.0
 20
0.0
 30
0.0
  3
screwwy
  1

  0
LINE
  5
189
330
187
100
AcDbEntity
  8
0
100
AcDbLine
 10
129.3480642029619
 20
-78.36458857551832
 30
0.0
 11
129.3480642029619
 21
-78.50287240126313
 31
0.0
  0
LINE
  5
18A
330
187
100
AcDbEntity
  8
0
100
AcDbLine
 10
129.6724408248369
 20
-78.36458857551832
 30
0.0
 11
129.6724408248369
 21
-78.50287240126313
 31
0.0
  0
LINE
  5
18B
330
187
100
AcDbEntity
  8
0
100
AcDbLine
 10
129.4561897435869
 20
-78.36458857551832
 30
0.0
 11
129.4561897435869
 21
-78.50287240126313
 31
0.0
  0
LINE
  5
18C
330
187
100
AcDbEntity
  8
0
100
AcDbLine
 10
129.7805663654619
 20
-78.36458857551832
 30
0.0
 11
129.7805663654619
 21
-78.50287240126313
 31
0.0
  0
LINE
  5
18D
330
187
100
AcDbEntity
  8
0
100
AcDbLine
 10
129.7805663654619
 20
-78.50287240126313
 30
0.0
 11
129.3480642029619
 21
-78.50287240126313
 31
0.0
  0
ARC
  5
18E
330
187
100
AcDbEntity
  8
0
100
AcDbCircle
 10
129.7265035951494
 20
-78.39897439319376
 30
0.0
 40
0.0640715817743712
100
AcDbArc
 50
32.45779082496143
 51
147.5422091750451
  0
LINE
  5
18F
330
187
100
AcDbEntity
  8
0
100
AcDbLine
 10
129.7265035951494
 20
-78.33490281141938
 30
0.0
 11
129.4021269732744
 21
-78.33490281141938
 31
0.0
  0
ARC
  5
190
330
187
100
AcDbEntity
  8
0
100
AcDbCircle
 10
129.4021269732744
 20
-78.39897439319374
 30
0.0
 40
0.0640715817743613
100
AcDbArc
 50
32.45779082493545
 51
147.5422091750645
  0
ARC
  5
191
330
187
100
AcDbEntity
  8
0
100
AcDbCircle
 10
129.5643152842119
 20
-78.54666049236844
 30
0.0
 40
0.2117576809490643
100
AcDbArc
 50
59.29554528941316
 51
120.7044547105868
  0
LINE
  5
192
330
187
100
AcDbEntity
  8
0
  6
Continuous
 62
     0
100
AcDbLine
 10
129.4393152842119
 20
-78.50287240126313
 30
0.0
 11
129.4393152842119
 21
-80.242733340918
 31
0.0
  0
LINE
  5
193
330
187
100
AcDbEntity
  8
0
  6
Continuous
 62
     0
100
AcDbLine
 10
129.6893152842119
 20
-78.50287240126315
 30
0.0
 11
129.6893152842119
 21
-80.242733340918
 31
0.0
  0
LINE
  5
194
330
187
100
AcDbEntity
  8
0
  6
Continuous
 62
     0
100
AcDbLine
 10
129.6883152842119
 20
-80.28315599064884
 30
0.0
 11
129.6893152842119
 21
-80.242733340918
 31
0.0
  0
LINE
  5
195
330
187
100
AcDbEntity
  8
0
  6
Continuous
 62
     0
100
AcDbLine
 10
129.4403152842119
 20
-80.2581559906488
 30
0.0
 11
129.4393152842119
 21
-80.242733340918
 31
0.0
  0
LINE
  5
196
330
187
100
AcDbEntity
  8
0
  6
Continuous
 62
     0
100
AcDbLine
 10
129.4403152842119
 20
-80.2581559906488
 30
0.0
 11
129.4683152842119
 21
-80.27432179818612
 31
0.0
  0
LINE
  5
197
330
187
100
AcDbEntity
  8
0
  6
Continuous
 62
     0
100
AcDbLine
 10
129.4403152842119
 20
-80.75815599064881
 30
0.0
 11
129.4683152842119
 21
-80.77432179818613
 31
0.0
  0
LINE
  5
198
330
187
100
AcDbEntity
  8
0
  6
Continuous
 62
     0
100
AcDbLine
 10
129.4403152842119
 20
-80.79048760572344
 30
0.0
 11
129.4683152842119
 21
-80.77432179818613
 31
0.0
  0
LINE
  5
199
330
187
100
AcDbEntity
  8
0
  6
Continuous
 62
     0
100
AcDbLine
 10
129.4403152842119
 20
-80.80815599064882
 30
0.0
 11
129.4403152842119
 21
-80.79048760572344
 31
0.0
  0
LINE
  5
19A
330
187
100
AcDbEntity
  8
0
  6
Continuous
 62
     0
100
AcDbLine
 10
129.4403152842119
 20
-80.80815599064882
 30
0.0
 11
129.4683152842119
 21
-80.82432179818614
 31
0.0
  0
LINE
  5
19B
330
187
100
AcDbEntity
  8
0
  6
Continuous
 62
     0
100
AcDbLine
 10
129.4393152842119
 20
-80.84106495599263
 30
0.0
 11
129.4683152842119
 21
-80.82432179818614
 31
0.0
  0
LINE
  5
19C
330
187
100
AcDbEntity
  8
0
  6
Continuous
 62
     0
100
AcDbLine
 10
129.4393152842119
 20
-80.85757864037963
 30
0.0
 11
129.4393152842119
 21
-80.84106495599263
 31
0.0
  0
LINE
  5
19D
330
187
100
AcDbEntity
  8
0
  6
Continuous
 62
     0
100
AcDbLine
 10
129.4393152842119
 20
-80.85757864037963
 30
0.0
 11
129.4683152842119
 21
-80.87432179818613
 31
0.0
  0
LINE
  5
19E
330
187
100
AcDbEntity
  8
0
  6
Continuous
 62
     0
100
AcDbLine
 10
129.4393152842119
 20
-80.89106495599263
 30
0.0
 11
129.4683152842119
 21
-80.87432179818613
 31
0.0
  0
LINE
  5
19F
330
187
100
AcDbEntity
  8
0
  6
Continuous
 62
     0
100
AcDbLine
 10
129.4393152842119
 20
-80.90757864037964
 30
0.0
 11
129.4393152842119
 21
-80.89106495599263
 31
0.0
  0
LINE
  5
1A0
330
187
100
AcDbEntity
  8
0
  6
Continuous
 62
     0
100
AcDbLine
 10
129.4393152842119
 20
-80.90757864037964
 30
0.0
 11
129.4683152842118
 21
-80.92432179818613
 31
0.0
  0
LINE
  5
1A1
330
187
100
AcDbEntity
  8
0
  6
Continuous
 62
     0
100
AcDbLine
 10
129.4403152842119
 20
-80.94048760572343
 30
0.0
 11
129.4683152842118
 21
-80.92432179818613
 31
0.0
  0
LINE
  5
1A2
330
187
100
AcDbEntity
  8
0
  6
Continuous
 62
     0
100
AcDbLine
 10
129.4403152842119
 20
-80.75815599064881
 30
0.0
 11
129.4403152842119
 21
-80.74048760572345
 31
0.0
  0
LINE
  5
1A3
330
187
100
AcDbEntity
  8
0
  6
Continuous
 62
     0
100
AcDbLine
 10
129.4403152842119
 20
-80.74048760572345
 30
0.0
 11
129.4683152842119
 21
-80.72432179818614
 31
0.0
  0
LINE
  5
1A4
330
187
100
AcDbEntity
  8
0
  6
Continuous
 62
     0
100
AcDbLine
 10
129.4403152842119
 20
-80.70815599064882
 30
0.0
 11
129.4683152842119
 21
-80.72432179818614
 31
0.0
  0
LINE
  5
1A5
330
187
100
AcDbEntity
  8
0
  6
Continuous
 62
     0
100
AcDbLine
 10
129.4403152842119
 20
-80.70815599064882
 30
0.0
 11
129.4403152842119
 21
-80.69048760572341
 31
0.0
  0
LINE
  5
1A6
330
187
100
AcDbEntity
  8
0
  6
Continuous
 62
     0
100
AcDbLine
 10
129.4403152842119
 20
-80.69048760572341
 30
0.0
 11
129.4683152842119
 21
-80.67432179818613
 31
0.0
  0
LINE
  5
1A7
330
187
100
AcDbEntity
  8
0
  6
Continuous
 62
     0
100
AcDbLine
 10
129.4403152842119
 20
-80.65815599064881
 30
0.0
 11
129.4683152842119
 21
-80.67432179818613
 31
0.0
  0
LINE
  5
1A8
330
187
100
AcDbEntity
  8
0
  6
Continuous
 62
     0
100
AcDbLine
 10
129.4403152842119
 20
-80.65815599064881
 30
0.0
 11
129.4403152842119
 21
-80.64048760572342
 31
0.0
  0
LINE
  5
1A9
330
187
100
AcDbEntity
  8
0
  6
Continuous
 62
     0
100
AcDbLine
 10
129.4403152842119
 20
-80.64048760572342
 30
0.0
 11
129.4683152842119
 21
-80.62432179818612
 31
0.0
  0
LINE
  5
1AA
330
187
100
AcDbEntity
  8
0
  6
Continuous
 62
     0
100
AcDbLine
 10
129.4403152842119
 20
-80.60815599064881
 30
0.0
 11
129.4683152842119
 21
-80.62432179818612
 31
0.0
  0
LINE
  5
1AB
330
187
100
AcDbEntity
  8
0
  6
Continuous
 62
     0
100
AcDbLine
 10
129.4403152842119
 20
-80.60815599064881
 30
0.0
 11
129.4403152842119
 21
-80.59048760572343
 31
0.0
  0
LINE
  5
1AC
330
187
100
AcDbEntity
  8
0
  6
Continuous
 62
     0
100
AcDbLine
 10
129.4403152842119
 20
-80.59048760572343
 30
0.0
 11
129.4683152842119
 21
-80.57432179818613
 31
0.0
  0
LINE
  5
1AD
330
187
100
AcDbEntity
  8
0
  6
Continuous
 62
     0
100
AcDbLine
 10
129.4403152842119
 20
-80.55815599064882
 30
0.0
 11
129.4683152842119
 21
-80.57432179818613
 31
0.0
  0
LINE
  5
1AE
330
187
100
AcDbEntity
  8
0
  6
Continuous
 62
     0
100
AcDbLine
 10
129.4403152842119
 20
-80.55815599064882
 30
0.0
 11
129.4403152842119
 21
-80.54048760572344
 31
0.0
  0
LINE
  5
1AF
330
187
100
AcDbEntity
  8
0
  6
Continuous
 62
     0
100
AcDbLine
 10
129.4403152842119
 20
-80.54048760572344
 30
0.0
 11
129.4683152842119
 21
-80.52432179818612
 31
0.0
  0
LINE
  5
1B0
330
187
100
AcDbEntity
  8
0
  6
Continuous
 62
     0
100
AcDbLine
 10
129.4403152842119
 20
-80.50815599064881
 30
0.0
 11
129.4683152842119
 21
-80.52432179818612
 31
0.0
  0
LINE
  5
1B1
330
187
100
AcDbEntity
  8
0
  6
Continuous
 62
     0
100
AcDbLine
 10
129.4403152842119
 20
-80.50815599064881
 30
0.0
 11
129.4403152842119
 21
-80.49048760572343
 31
0.0
  0
LINE
  5
1B2
330
187
100
AcDbEntity
  8
0
  6
Continuous
 62
     0
100
AcDbLine
 10
129.4403152842119
 20
-80.49048760572343
 30
0.0
 11
129.4683152842119
 21
-80.47432179818612
 31
0.0
  0
LINE
  5
1B3
330
187
100
AcDbEntity
  8
0
  6
Continuous
 62
     0
100
AcDbLine
 10
129.4403152842119
 20
-80.4581559906488
 30
0.0
 11
129.4683152842119
 21
-80.47432179818612
 31
0.0
  0
LINE
  5
1B4
330
187
100
AcDbEntity
  8
0
  6
Continuous
 62
     0
100
AcDbLine
 10
129.4403152842119
 20
-80.4581559906488
 30
0.0
 11
129.4403152842119
 21
-80.44048760572342
 31
0.0
  0
LINE
  5
1B5
330
187
100
AcDbEntity
  8
0
  6
Continuous
 62
     0
100
AcDbLine
 10
129.4403152842119
 20
-80.44048760572342
 30
0.0
 11
129.4683152842119
 21
-80.42432179818613
 31
0.0
  0
LINE
  5
1B6
330
187
100
AcDbEntity
  8
0
  6
Continuous
 62
     0
100
AcDbLine
 10
129.4403152842119
 20
-80.40815599064881
 30
0.0
 11
129.4683152842119
 21
-80.42432179818613
 31
0.0
  0
LINE
  5
1B7
330
187
100
AcDbEntity
  8
0
  6
Continuous
 62
     0
100
AcDbLine
 10
129.4403152842119
 20
-80.40815599064881
 30
0.0
 11
129.4403152842119
 21
-80.39048760572345
 31
0.0
  0
LINE
  5
1B8
330
187
100
AcDbEntity
  8
0
  6
Continuous
 62
     0
100
AcDbLine
 10
129.4403152842119
 20
-80.39048760572345
 30
0.0
 11
129.4683152842119
 21
-80.37432179818614
 31
0.0
  0
LINE
  5
1B9
330
187
100
AcDbEntity
  8
0
  6
Continuous
 62
     0
100
AcDbLine
 10
129.4403152842119
 20
-80.3581559906488
 30
0.0
 11
129.4683152842119
 21
-80.37432179818614
 31
0.0
  0
LINE
  5
1BA
330
187
100
AcDbEntity
  8
0
  6
Continuous
 62
     0
100
AcDbLine
 10
129.4403152842119
 20
-80.3581559906488
 30
0.0
 11
129.4403152842119
 21
-80.34048760572344
 31
0.0
  0
LINE
  5
1BB
330
187
100
AcDbEntity
  8
0
  6
Continuous
 62
     0
100
AcDbLine
 10
129.4403152842119
 20
-80.34048760572344
 30
0.0
 11
129.4683152842119
 21
-80.32432179818613
 31
0.0
  0
LINE
  5
1BC
330
187
100
AcDbEntity
  8
0
  6
Continuous
 62
     0
100
AcDbLine
 10
129.4403152842119
 20
-80.30815599064881
 30
0.0
 11
129.4683152842119
 21
-80.32432179818613
 31
0.0
  0
LINE
  5
1BD
330
187
100
AcDbEntity
  8
0
  6
Continuous
 62
     0
100
AcDbLine
 10
129.4403152842119
 20
-80.30815599064881
 30
0.0
 11
129.4403152842119
 21
-80.29048760572344
 31
0.0
  0
LINE
  5
1BE
330
187
100
AcDbEntity
  8
0
  6
Continuous
 62
     0
100
AcDbLine
 10
129.4403152842119
 20
-80.29048760572344
 30
0.0
 11
129.4683152842119
 21
-80.27432179818612
 31
0.0
  0
LINE
  5
1BF
330
187
100
AcDbEntity
  8
0
  6
Continuous
 62
     0
100
AcDbLine
 10
129.6883152842119
 20
-80.28315599064884
 30
0.0
 11
129.660315284212
 21
-80.29932179818613
 31
0.0
  0
LINE
  5
1C0
330
187
100
AcDbEntity
  8
0
  6
Continuous
 62
     0
100
AcDbLine
 10
129.6883152842119
 20
-80.3154876057234
 30
0.0
 11
129.660315284212
 21
-80.29932179818613
 31
0.0
  0
LINE
  5
1C1
330
187
100
AcDbEntity
  8
0
  6
Continuous
 62
     0
100
AcDbLine
 10
129.6883152842119
 20
-80.33315599064883
 30
0.0
 11
129.6883152842119
 21
-80.3154876057234
 31
0.0
  0
LINE
  5
1C2
330
187
100
AcDbEntity
  8
0
  6
Continuous
 62
     0
100
AcDbLine
 10
129.6883152842119
 20
-80.33315599064883
 30
0.0
 11
129.660315284212
 21
-80.34932179818609
 31
0.0
  0
LINE
  5
1C3
330
187
100
AcDbEntity
  8
0
  6
Continuous
 62
     0
100
AcDbLine
 10
129.6883152842119
 20
-80.36548760572337
 30
0.0
 11
129.660315284212
 21
-80.34932179818609
 31
0.0
  0
LINE
  5
1C4
330
187
100
AcDbEntity
  8
0
  6
Continuous
 62
     0
100
AcDbLine
 10
129.6883152842119
 20
-80.38315599064871
 30
0.0
 11
129.6883152842119
 21
-80.36548760572337
 31
0.0
  0
LINE
  5
1C5
330
187
100
AcDbEntity
  8
0
  6
Continuous
 62
     0
100
AcDbLine
 10
129.6883152842119
 20
-80.38315599064871
 30
0.0
 11
129.660315284212
 21
-80.39932179818601
 31
0.0
  0
LINE
  5
1C6
330
187
100
AcDbEntity
  8
0
  6
Continuous
 62
     0
100
AcDbLine
 10
129.6883152842119
 20
-80.41548760572327
 30
0.0
 11
129.660315284212
 21
-80.39932179818601
 31
0.0
  0
LINE
  5
1C7
330
187
100
AcDbEntity
  8
0
  6
Continuous
 62
     0
100
AcDbLine
 10
129.6883152842119
 20
-80.43315599064868
 30
0.0
 11
129.6883152842119
 21
-80.41548760572327
 31
0.0
  0
LINE
  5
1C8
330
187
100
AcDbEntity
  8
0
  6
Continuous
 62
     0
100
AcDbLine
 10
129.6883152842119
 20
-80.43315599064868
 30
0.0
 11
129.660315284212
 21
-80.44932179818598
 31
0.0
  0
LINE
  5
1C9
330
187
100
AcDbEntity
  8
0
  6
Continuous
 62
     0
100
AcDbLine
 10
129.6883152842119
 20
-80.46548760572326
 30
0.0
 11
129.660315284212
 21
-80.44932179818598
 31
0.0
  0
LINE
  5
1CA
330
187
100
AcDbEntity
  8
0
  6
Continuous
 62
     0
100
AcDbLine
 10
129.6883152842119
 20
-80.4831559906486
 30
0.0
 11
129.6883152842119
 21
-80.46548760572326
 31
0.0
  0
LINE
  5
1CB
330
187
100
AcDbEntity
  8
0
  6
Continuous
 62
     0
100
AcDbLine
 10
129.6883152842119
 20
-80.4831559906486
 30
0.0
 11
129.660315284212
 21
-80.49932179818588
 31
0.0
  0
LINE
  5
1CC
330
187
100
AcDbEntity
  8
0
  6
Continuous
 62
     0
100
AcDbLine
 10
129.6883152842119
 20
-80.51548760572314
 30
0.0
 11
129.660315284212
 21
-80.49932179818588
 31
0.0
  0
LINE
  5
1CD
330
187
100
AcDbEntity
  8
0
  6
Continuous
 62
     0
100
AcDbLine
 10
129.6883152842119
 20
-80.53315599064857
 30
0.0
 11
129.6883152842119
 21
-80.51548760572314
 31
0.0
  0
LINE
  5
1CE
330
187
100
AcDbEntity
  8
0
  6
Continuous
 62
     0
100
AcDbLine
 10
129.6883152842119
 20
-80.53315599064857
 30
0.0
 11
129.6603152842119
 21
-80.54932179818587
 31
0.0
  0
LINE
  5
1CF
330
187
100
AcDbEntity
  8
0
  6
Continuous
 62
     0
100
AcDbLine
 10
129.6883152842119
 20
-80.56548760572317
 30
0.0
 11
129.6603152842119
 21
-80.54932179818587
 31
0.0
  0
LINE
  5
1D0
330
187
100
AcDbEntity
  8
0
  6
Continuous
 62
     0
100
AcDbLine
 10
129.6883152842119
 20
-80.58315599064846
 30
0.0
 11
129.6883152842119
 21
-80.56548760572317
 31
0.0
  0
LINE
  5
1D1
330
187
100
AcDbEntity
  8
0
  6
Continuous
 62
     0
100
AcDbLine
 10
129.6883152842119
 20
-80.58315599064846
 30
0.0
 11
129.6603152842119
 21
-80.59932179818579
 31
0.0
  0
LINE
  5
1D2
330
187
100
AcDbEntity
  8
0
  6
Continuous
 62
     0
100
AcDbLine
 10
129.6883152842119
 20
-80.61548760572309
 30
0.0
 11
129.6603152842119
 21
-80.59932179818579
 31
0.0
  0
LINE
  5
1D3
330
187
100
AcDbEntity
  8
0
  6
Continuous
 62
     0
100
AcDbLine
 10
129.6883152842119
 20
-80.63315599064845
 30
0.0
 11
129.6883152842119
 21
-80.61548760572309
 31
0.0
  0
LINE
  5
1D4
330
187
100
AcDbEntity
  8
0
  6
Continuous
 62
     0
100
AcDbLine
 10
129.6883152842119
 20
-80.63315599064845
 30
0.0
 11
129.6603152842119
 21
-80.64932179818574
 31
0.0
  0
LINE
  5
1D5
330
187
100
AcDbEntity
  8
0
  6
Continuous
 62
     0
100
AcDbLine
 10
129.6883152842119
 20
-80.68315599064835
 30
0.0
 11
129.6603152842119
 21
-80.69932179818565
 31
0.0
  0
LINE
  5
1D6
330
187
100
AcDbEntity
  8
0
  6
Continuous
 62
     0
100
AcDbLine
 10
129.6883152842119
 20
-80.71548760572296
 30
0.0
 11
129.6603152842119
 21
-80.69932179818565
 31
0.0
  0
LINE
  5
1D7
330
187
100
AcDbEntity
  8
0
  6
Continuous
 62
     0
100
AcDbLine
 10
129.6883152842119
 20
-80.73315599064832
 30
0.0
 11
129.6883152842119
 21
-80.71548760572296
 31
0.0
  0
LINE
  5
1D8
330
187
100
AcDbEntity
  8
0
  6
Continuous
 62
     0
100
AcDbLine
 10
129.6883152842119
 20
-80.73315599064832
 30
0.0
 11
129.660315284212
 21
-80.7493217981856
 31
0.0
  0
LINE
  5
1D9
330
187
100
AcDbEntity
  8
0
  6
Continuous
 62
     0
100
AcDbLine
 10
129.6883152842119
 20
-80.76548760572288
 30
0.0
 11
129.660315284212
 21
-80.7493217981856
 31
0.0
  0
LINE
  5
1DA
330
187
100
AcDbEntity
  8
0
  6
Continuous
 62
     0
100
AcDbLine
 10
129.6883152842119
 20
-80.78315599064822
 30
0.0
 11
129.6883152842119
 21
-80.76548760572288
 31
0.0
  0
LINE
  5
1DB
330
187
100
AcDbEntity
  8
0
  6
Continuous
 62
     0
100
AcDbLine
 10
129.6883152842119
 20
-80.78315599064822
 30
0.0
 11
129.660315284212
 21
-80.7993217981855
 31
0.0
  0
LINE
  5
1DC
330
187
100
AcDbEntity
  8
0
  6
Continuous
 62
     0
100
AcDbLine
 10
129.6883152842119
 20
-80.81548760572278
 30
0.0
 11
129.660315284212
 21
-80.7993217981855
 31
0.0
  0
LINE
  5
1DD
330
187
100
AcDbEntity
  8
0
  6
Continuous
 62
     0
100
AcDbLine
 10
129.6883152842119
 20
-80.83315599064821
 30
0.0
 11
129.6883152842119
 21
-80.81548760572278
 31
0.0
  0
LINE
  5
1DE
330
187
100
AcDbEntity
  8
0
  6
Continuous
 62
     0
100
AcDbLine
 10
129.6883152842119
 20
-80.83315599064821
 30
0.0
 11
129.660315284212
 21
-80.84932179818549
 31
0.0
  0
LINE
  5
1DF
330
187
100
AcDbEntity
  8
0
  6
Continuous
 62
     0
100
AcDbLine
 10
129.6883152842119
 20
-80.86548760572275
 30
0.0
 11
129.660315284212
 21
-80.84932179818549
 31
0.0
  0
LINE
  5
1E0
330
187
100
AcDbEntity
  8
0
  6
Continuous
 62
     0
100
AcDbLine
 10
129.6883152842119
 20
-80.88315599064811
 30
0.0
 11
129.6883152842119
 21
-80.86548760572275
 31
0.0
  0
LINE
  5
1E1
330
187
100
AcDbEntity
  8
0
  6
Continuous
 62
     0
100
AcDbLine
 10
129.6883152842119
 20
-80.88315599064811
 30
0.0
 11
129.660315284212
 21
-80.89932179818537
 31
0.0
  0
LINE
  5
1E2
330
187
100
AcDbEntity
  8
0
  6
Continuous
 62
     0
100
AcDbLine
 10
129.6883152842119
 20
-80.91548760572266
 30
0.0
 11
129.660315284212
 21
-80.89932179818537
 31
0.0
  0
LINE
  5
1E3
330
187
100
AcDbEntity
  8
0
  6
Continuous
 62
     0
100
AcDbLine
 10
129.6883152842119
 20
-80.93315599064807
 30
0.0
 11
129.6883152842119
 21
-80.91548760572266
 31
0.0
  0
LINE
  5
1E4
330
187
100
AcDbEntity
  8
0
  6
Continuous
 62
     0
100
AcDbLine
 10
129.6883152842119
 20
-80.93315599064807
 30
0.0
 11
129.6603152842119
 21
-80.94932179818538
 31
0.0
  0
LINE
  5
1E5
330
187
100
AcDbEntity
  8
0
  6
Continuous
 62
     0
100
AcDbLine
 10
129.6883152842119
 20
-80.9654876057227
 30
0.0
 11
129.6603152842119
 21
-80.94932179818538
 31
0.0
  0
LINE
  5
1E6
330
187
100
AcDbEntity
  8
0
  6
Continuous
 62
     0
100
AcDbLine
 10
129.6883152842119
 20
-80.98315599064797
 30
0.0
 11
129.6883152842119
 21
-80.9654876057227
 31
0.0
  0
LINE
  5
1E7
330
187
100
AcDbEntity
  8
0
  6
Continuous
 62
     0
100
AcDbLine
 10
129.6883152842119
 20
-80.98315599064797
 30
0.0
 11
129.6603152842119
 21
-80.99932179818528
 31
0.0
  0
LINE
  5
1E8
330
187
100
AcDbEntity
  8
0
  6
Continuous
 62
     0
100
AcDbLine
 10
129.6883152842119
 20
-81.0154876057226
 30
0.0
 11
129.6603152842119
 21
-80.99932179818528
 31
0.0
  0
LINE
  5
1E9
330
187
100
AcDbEntity
  8
0
  6
Continuous
 62
     0
100
AcDbLine
 10
129.6883152842119
 20
-81.03315599064794
 30
0.0
 11
129.6883152842119
 21
-81.0154876057226
 31
0.0
  0
LINE
  5
1EA
330
187
100
AcDbEntity
  8
0
  6
Continuous
 62
     0
100
AcDbLine
 10
129.6883152842119
 20
-81.03315599064794
 30
0.0
 11
129.6603152842119
 21
-81.04932179818526
 31
0.0
  0
LINE
  5
1EB
330
187
100
AcDbEntity
  8
0
  6
Continuous
 62
     0
100
AcDbLine
 10
129.4403152842119
 20
-80.95815599064883
 30
0.0
 11
129.4403152842119
 21
-80.94048760572343
 31
0.0
  0
LINE
  5
1EC
330
187
100
AcDbEntity
  8
0
  6
Continuous
 62
     0
100
AcDbLine
 10
129.4403152842119
 20
-80.95815599064883
 30
0.0
 11
129.4683152842119
 21
-80.97432179818614
 31
0.0
  0
LINE
  5
1ED
330
187
100
AcDbEntity
  8
0
  6
Continuous
 62
     0
100
AcDbLine
 10
129.4403152842119
 20
-81.00815599064883
 30
0.0
 11
129.4683152842118
 21
-81.02432179818611
 31
0.0
  0
LINE
  5
1EE
330
187
100
AcDbEntity
  8
0
  6
Continuous
 62
     0
100
AcDbLine
 10
129.4403152842119
 20
-81.00815599064883
 30
0.0
 11
129.4403152842119
 21
-80.99048760572342
 31
0.0
  0
LINE
  5
1EF
330
187
100
AcDbEntity
  8
0
  6
Continuous
 62
     0
100
AcDbLine
 10
129.4403152842119
 20
-80.99048760572342
 30
0.0
 11
129.4683152842119
 21
-80.97432179818614
 31
0.0
  0
LINE
  5
1F0
330
187
100
AcDbEntity
  8
0
  6
Continuous
 62
     0
100
AcDbLine
 10
129.6883152842119
 20
-81.0154876057226
 30
0.0
 11
129.4403152842119
 21
-80.99048760572342
 31
0.0
  0
LINE
  5
1F1
330
187
100
AcDbEntity
  8
0
  6
Continuous
 62
     0
100
AcDbLine
 10
129.4403152842119
 20
-81.00815599064883
 30
0.0
 11
129.6883152842119
 21
-81.03315599064794
 31
0.0
  0
LINE
  5
1F2
330
187
100
AcDbEntity
  8
0
  6
Continuous
 62
     0
100
AcDbLine
 10
129.4683152842118
 20
-81.02432179818611
 30
0.0
 11
129.6603152842119
 21
-81.04932179818526
 31
0.0
  0
LINE
  5
1F3
330
187
100
AcDbEntity
  8
0
  6
Continuous
 62
     0
100
AcDbLine
 10
129.4683152842119
 20
-80.97432179818614
 30
0.0
 11
129.6603152842119
 21
-80.99932179818528
 31
0.0
  0
LINE
  5
1F4
330
187
100
AcDbEntity
  8
0
  6
Continuous
 62
     0
100
AcDbLine
 10
129.6883152842119
 20
-80.98315599064797
 30
0.0
 11
129.4403152842119
 21
-80.95815599064883
 31
0.0
  0
LINE
  5
1F5
330
187
100
AcDbEntity
  8
0
  6
Continuous
 62
     0
100
AcDbLine
 10
129.4403152842119
 20
-80.94048760572343
 30
0.0
 11
129.6883152842119
 21
-80.9654876057227
 31
0.0
  0
LINE
  5
1F6
330
187
100
AcDbEntity
  8
0
  6
Continuous
 62
     0
100
AcDbLine
 10
129.6603152842119
 20
-80.94932179818538
 30
0.0
 11
129.4683152842118
 21
-80.92432179818613
 31
0.0
  0
LINE
  5
1F7
330
187
100
AcDbEntity
  8
0
  6
Continuous
 62
     0
100
AcDbLine
 10
129.4393152842119
 20
-80.90757864037964
 30
0.0
 11
129.6883152842119
 21
-80.93315599064807
 31
0.0
  0
LINE
  5
1F8
330
187
100
AcDbEntity
  8
0
  6
Continuous
 62
     0
100
AcDbLine
 10
129.6883152842119
 20
-80.91548760572266
 30
0.0
 11
129.4393152842119
 21
-80.89106495599263
 31
0.0
  0
LINE
  5
1F9
330
187
100
AcDbEntity
  8
0
  6
Continuous
 62
     0
100
AcDbLine
 10
129.4683152842119
 20
-80.87432179818613
 30
0.0
 11
129.660315284212
 21
-80.89932179818537
 31
0.0
  0
LINE
  5
1FA
330
187
100
AcDbEntity
  8
0
  6
Continuous
 62
     0
100
AcDbLine
 10
129.6883152842119
 20
-80.88315599064811
 30
0.0
 11
129.4393152842119
 21
-80.85757864037963
 31
0.0
  0
LINE
  5
1FB
330
187
100
AcDbEntity
  8
0
  6
Continuous
 62
     0
100
AcDbLine
 10
129.4393152842119
 20
-80.84106495599263
 30
0.0
 11
129.6883152842119
 21
-80.86548760572275
 31
0.0
  0
LINE
  5
1FC
330
187
100
AcDbEntity
  8
0
  6
Continuous
 62
     0
100
AcDbLine
 10
129.4683152842119
 20
-80.82432179818614
 30
0.0
 11
129.660315284212
 21
-80.84932179818549
 31
0.0
  0
LINE
  5
1FD
330
187
100
AcDbEntity
  8
0
  6
Continuous
 62
     0
100
AcDbLine
 10
129.6883152842119
 20
-80.83315599064821
 30
0.0
 11
129.4403152842119
 21
-80.80815599064882
 31
0.0
  0
LINE
  5
1FE
330
187
100
AcDbEntity
  8
0
  6
Continuous
 62
     0
100
AcDbLine
 10
129.4403152842119
 20
-80.79048760572344
 30
0.0
 11
129.6883152842119
 21
-80.81548760572278
 31
0.0
  0
LINE
  5
1FF
330
187
100
AcDbEntity
  8
0
  6
Continuous
 62
     0
100
AcDbLine
 10
129.660315284212
 20
-80.7993217981855
 30
0.0
 11
129.4683152842119
 21
-80.77432179818613
 31
0.0
  0
LINE
  5
200
330
187
100
AcDbEntity
  8
0
  6
Continuous
 62
     0
100
AcDbLine
 10
129.4403152842119
 20
-80.75815599064881
 30
0.0
 11
129.6883152842119
 21
-80.78315599064822
 31
0.0
  0
LINE
  5
201
330
187
100
AcDbEntity
  8
0
  6
Continuous
 62
     0
100
AcDbLine
 10
129.6883152842119
 20
-80.76548760572288
 30
0.0
 11
129.4403152842119
 21
-80.74048760572345
 31
0.0
  0
LINE
  5
202
330
187
100
AcDbEntity
  8
0
  6
Continuous
 62
     0
100
AcDbLine
 10
129.4683152842119
 20
-80.72432179818614
 30
0.0
 11
129.660315284212
 21
-80.7493217981856
 31
0.0
  0
LINE
  5
203
330
187
100
AcDbEntity
  8
0
  6
Continuous
 62
     0
100
AcDbLine
 10
129.6883152842119
 20
-80.73315599064832
 30
0.0
 11
129.4403152842119
 21
-80.70815599064882
 31
0.0
  0
LINE
  5
204
330
187
100
AcDbEntity
  8
0
  6
Continuous
 62
     0
100
AcDbLine
 10
129.4403152842119
 20
-80.69048760572341
 30
0.0
 11
129.6883152842119
 21
-80.71548760572296
 31
0.0
  0
LINE
  5
205
330
187
100
AcDbEntity
  8
0
  6
Continuous
 62
     0
100
AcDbLine
 10
129.6603152842119
 20
-80.69932179818565
 30
0.0
 11
129.4683152842119
 21
-80.67432179818613
 31
0.0
  0
LINE
  5
206
330
187
100
AcDbEntity
  8
0
  6
Continuous
 62
     0
100
AcDbLine
 10
129.4403152842119
 20
-80.65815599064881
 30
0.0
 11
129.6883152842119
 21
-80.68315599064835
 31
0.0
  0
LINE
  5
207
330
187
100
AcDbEntity
  8
0
  6
Continuous
 62
     0
100
AcDbLine
 10
129.6883152842119
 20
-80.66548760572308
 30
0.0
 11
129.6603152842119
 21
-80.64932179818574
 31
0.0
  0
LINE
  5
208
330
187
100
AcDbEntity
  8
0
  6
Continuous
 62
     0
100
AcDbLine
 10
129.6883152842119
 20
-80.68315599064835
 30
0.0
 11
129.6883152842119
 21
-80.66548760572308
 31
0.0
  0
LINE
  5
209
330
187
100
AcDbEntity
  8
0
  6
Continuous
 62
     0
100
AcDbLine
 10
129.4403152842119
 20
-80.64048760572342
 30
0.0
 11
129.6883152842119
 21
-80.66548760572308
 31
0.0
  0
LINE
  5
20A
330
187
100
AcDbEntity
  8
0
  6
Continuous
 62
     0
100
AcDbLine
 10
129.6603152842119
 20
-80.64932179818574
 30
0.0
 11
129.4683152842119
 21
-80.62432179818612
 31
0.0
  0
LINE
  5
20B
330
187
100
AcDbEntity
  8
0
  6
Continuous
 62
     0
100
AcDbLine
 10
129.4403152842119
 20
-80.60815599064881
 30
0.0
 11
129.6883152842119
 21
-80.63315599064845
 31
0.0
  0
LINE
  5
20C
330
187
100
AcDbEntity
  8
0
  6
Continuous
 62
     0
100
AcDbLine
 10
129.6883152842119
 20
-80.61548760572309
 30
0.0
 11
129.4403152842119
 21
-80.59048760572343
 31
0.0
  0
LINE
  5
20D
330
187
100
AcDbEntity
  8
0
  6
Continuous
 62
     0
100
AcDbLine
 10
129.4683152842119
 20
-80.57432179818613
 30
0.0
 11
129.6603152842119
 21
-80.59932179818579
 31
0.0
  0
LINE
  5
20E
330
187
100
AcDbEntity
  8
0
  6
Continuous
 62
     0
100
AcDbLine
 10
129.6883152842119
 20
-80.58315599064846
 30
0.0
 11
129.4403152842119
 21
-80.55815599064882
 31
0.0
  0
LINE
  5
20F
330
187
100
AcDbEntity
  8
0
  6
Continuous
 62
     0
100
AcDbLine
 10
129.4403152842119
 20
-80.54048760572344
 30
0.0
 11
129.6883152842119
 21
-80.56548760572317
 31
0.0
  0
LINE
  5
210
330
187
100
AcDbEntity
  8
0
  6
Continuous
 62
     0
100
AcDbLine
 10
129.6603152842119
 20
-80.54932179818587
 30
0.0
 11
129.4683152842119
 21
-80.52432179818612
 31
0.0
  0
LINE
  5
211
330
187
100
AcDbEntity
  8
0
  6
Continuous
 62
     0
100
AcDbLine
 10
129.4403152842119
 20
-80.50815599064881
 30
0.0
 11
129.6883152842119
 21
-80.53315599064857
 31
0.0
  0
LINE
  5
212
330
187
100
AcDbEntity
  8
0
  6
Continuous
 62
     0
100
AcDbLine
 10
129.6883152842119
 20
-80.51548760572314
 30
0.0
 11
129.4403152842119
 21
-80.49048760572343
 31
0.0
  0
LINE
  5
213
330
187
100
AcDbEntity
  8
0
  6
Continuous
 62
     0
100
AcDbLine
 10
129.4683152842119
 20
-80.47432179818612
 30
0.0
 11
129.660315284212
 21
-80.49932179818588
 31
0.0
  0
LINE
  5
214
330
187
100
AcDbEntity
  8
0
  6
Continuous
 62
     0
100
AcDbLine
 10
129.6883152842119
 20
-80.4831559906486
 30
0.0
 11
129.4403152842119
 21
-80.4581559906488
 31
0.0
  0
LINE
  5
215
330
187
100
AcDbEntity
  8
0
  6
Continuous
 62
     0
100
AcDbLine
 10
129.4403152842119
 20
-80.44048760572342
 30
0.0
 11
129.6883152842119
 21
-80.46548760572326
 31
0.0
  0
LINE
  5
216
330
187
100
AcDbEntity
  8
0
  6
Continuous
 62
     0
100
AcDbLine
 10
129.660315284212
 20
-80.44932179818598
 30
0.0
 11
129.4683152842119
 21
-80.42432179818613
 31
0.0
  0
LINE
  5
217
330
187
100
AcDbEntity
  8
0
  6
Continuous
 62
     0
100
AcDbLine
 10
129.4403152842119
 20
-80.40815599064881
 30
0.0
 11
129.6883152842119
 21
-80.43315599064868
 31
0.0
  0
LINE
  5
218
330
187
100
AcDbEntity
  8
0
  6
Continuous
 62
     0
100
AcDbLine
 10
129.6883152842119
 20
-80.41548760572327
 30
0.0
 11
129.4403152842119
 21
-80.39048760572345
 31
0.0
  0
LINE
  5
219
330
187
100
AcDbEntity
  8
0
  6
Continuous
 62
     0
100
AcDbLine
 10
129.4683152842119
 20
-80.37432179818614
 30
0.0
 11
129.660315284212
 21
-80.39932179818601
 31
0.0
  0
LINE
  5
21A
330
187
100
AcDbEntity
  8
0
  6
Continuous
 62
     0
100
AcDbLine
 10
129.6883152842119
 20
-80.38315599064871
 30
0.0
 11
129.4403152842119
 21
-80.3581559906488
 31
0.0
  0
LINE
  5
21B
330
187
100
AcDbEntity
  8
0
  6
Continuous
 62
     0
100
AcDbLine
 10
129.4403152842119
 20
-80.34048760572344
 30
0.0
 11
129.6883152842119
 21
-80.36548760572337
 31
0.0
  0
LINE
  5
21C
330
187
100
AcDbEntity
  8
0
  6
Continuous
 62
     0
100
AcDbLine
 10
129.660315284212
 20
-80.34932179818609
 30
0.0
 11
129.4683152842119
 21
-80.32432179818613
 31
0.0
  0
LINE
  5
21D
330
187
100
AcDbEntity
  8
0
  6
Continuous
 62
     0
100
AcDbLine
 10
129.4403152842119
 20
-80.30815599064881
 30
0.0
 11
129.6883152842119
 21
-80.33315599064883
 31
0.0
  0
LINE
  5
21E
330
187
100
AcDbEntity
  8
0
  6
Continuous
 62
     0
100
AcDbLine
 10
129.6883152842119
 20
-80.3154876057234
 30
0.0
 11
129.4403152842119
 21
-80.29048760572344
 31
0.0
  0
LINE
  5
21F
330
187
100
AcDbEntity
  8
0
  6
Continuous
 62
     0
100
AcDbLine
 10
129.4683152842119
 20
-80.27432179818612
 30
0.0
 11
129.660315284212
 21
-80.29932179818613
 31
0.0
  0
LINE
  5
220
330
187
100
AcDbEntity
  8
0
  6
Continuous
 62
     0
100
AcDbLine
 10
129.4403152842119
 20
-80.2581559906488
 30
0.0
 11
129.6883152842119
 21
-80.28315599064884
 31
0.0
  0
LINE
  5
221
330
187
100
AcDbEntity
  8
0
  6
Continuous
 62
     0
100
AcDbLine
 10
129.4393152842119
 20
-80.242733340918
 30
0.0
 11
129.6893152842119
 21
-80.242733340918
 31
0.0
  0
ENDBLK
  5
222
330
187
100
AcDbEntity
  8
0
100
AcDbBlockEnd
  0
ENDSEC
  0
SECTION
  2
ENTITIES
  0
LINE
  5
32
330
2
100
AcDbEntity
  8
0
  6
Continuous
100
AcDbLine
 10
155.0420582911419
 20
-138.055448316976
 30
0.0
 11
155.0420582911419
 21
-141.2291908101281
 31
0.0
  0
LINE
  5
33
330
2
100
AcDbEntity
  8
Curb
  6
DASHED2
370
    25
100
AcDbLine
 10
158.0420582911419
 20
-128.7483206421522
 30
0.0
 11
158.0420582911419
 21
-141.2291908101281
 31
0.0
  0
HATCH
  5
37
330
2
100
AcDbEntity
  8
0
  6
Continuous
100
AcDbHatch
 10
0.0
 20
0.0
 30
0.0
210
0.0
220
0.0
230
1.0
  2
AR-CONC
 70
     0
 71
     0
 91
        1
 92
        7
 72
     1
 73
     1
 93
      163
 10
158.0420582911419
 20
-128.7483206421522
 42
0.0
 10
156.7098105196387
 20
-128.7483206421521
 42
0.0
 10
156.7098105196387
 20
-128.4983206421521
 42
0.0
 10
156.3743060626451
 20
-128.9983206421522
 42
0.0
 10
156.3743060626451
 20
-128.7483206421521
 42
0.0
 10
155.0420582911419
 20
-128.7483206421521
 42
0.0
 10
155.0420582911419
 20
-131.9220631353043
 42
0.0
 10
155.2920582911418
 20
-131.9220631353043
 42
0.0
 10
154.7920582911418
 20
-132.2575675922979
 42
0.0
 10
155.0420582911419
 20
-132.2575675922979
 42
0.0
 10
155.0420582911419
 20
-137.7199438599824
 42
0.0
 10
154.7920582911418
 20
-137.7199438599824
 42
0.0
 10
155.2920582911418
 20
-138.055448316976
 42
0.0
 10
155.0420582911419
 20
-138.055448316976
 42
0.0
 10
155.0420582911419
 20
-141.2291908101281
 42
0.0
 10
156.3743060626451
 20
-141.2291908101281
 42
0.0
 10
156.374306062645
 20
-141.4791908101281
 42
0.0
 10
156.7098105196387
 20
-140.9791908101281
 42
0.0
 10
156.7098105196386
 20
-141.2291908101281
 42
0.0
 10
158.0420582911419
 20
-141.2291908101282
 42
0.0
 10
158.0420582911419
 20
-137.2120174816414
 42
0.0
 10
158.0290297822634
 20
-137.189451442317
 42
0.0
 10
158.0001244429139
 20
-137.189451442317
 42
0.0
 10
157.9787721125887
 20
-137.2264347633004
 42
0.0
 10
157.9574197822634
 20
-137.189451442317
 42
0.0
 10
157.9285144429139
 20
-137.189451442317
 42
0.0
 10
157.9071621125887
 20
-137.2264347633004
 42
0.0
 10
157.8858097822634
 20
-137.189451442317
 42
0.0
 10
157.8569044429138
 20
-137.189451442317
 42
0.0
 10
157.8355521125887
 20
-137.2264347633004
 42
0.0
 10
157.8141997822634
 20
-137.189451442317
 42
0.0
 10
157.7852944429139
 20
-137.189451442317
 42
0.0
 10
157.7639421125886
 20
-137.2264347633003
 42
0.0
 10
157.7425897822634
 20
-137.189451442317
 42
0.0
 10
157.713684442914
 20
-137.189451442317
 42
0.0
 10
157.6923321125887
 20
-137.2264347633003
 42
0.0
 10
157.6709797822634
 20
-137.189451442317
 42
0.0
 10
157.6420744429139
 20
-137.189451442317
 42
0.0
 10
157.6207221125887
 20
-137.2264347633003
 42
0.0
 10
157.5993697822634
 20
-137.189451442317
 42
0.0
 10
157.5704644429139
 20
-137.189451442317
 42
0.0
 10
157.5491121125887
 20
-137.2264347633003
 42
0.0
 10
157.5277597822634
 20
-137.189451442317
 42
0.0
 10
157.4988544429139
 20
-137.189451442317
 42
0.0
 10
157.4775021125886
 20
-137.2264347633004
 42
0.0
 10
157.4561497822634
 20
-137.189451442317
 42
0.0
 10
157.4272444429139
 20
-137.189451442317
 42
0.0
 10
157.4058921125886
 20
-137.2264347633004
 42
0.0
 10
157.3845397822634
 20
-137.189451442317
 42
0.0
 10
157.3556344429139
 20
-137.189451442317
 42
0.0
 10
157.3342821125886
 20
-137.2264347633003
 42
0.0
 10
157.3129297822634
 20
-137.189451442317
 42
0.0
 10
157.2840244429139
 20
-137.189451442317
 42
0.0
 10
157.2626721125886
 20
-137.2264347633004
 42
0.0
 10
157.2413197822634
 20
-137.189451442317
 42
0.0
 10
157.2124144429139
 20
-137.189451442317
 42
0.0
 10
157.1910621125886
 20
-137.2264347633004
 42
0.0
 10
157.1697097822633
 20
-137.189451442317
 42
0.0
 10
157.1408044429139
 20
-137.189451442317
 42
0.0
 10
157.1194521125887
 20
-137.2264347633003
 42
0.0
 10
157.0980997822634
 20
-137.189451442317
 42
0.0
 10
157.0691944429139
 20
-137.189451442317
 42
0.0
 10
157.0478421125886
 20
-137.2264347633004
 42
0.0
 10
157.0264897822634
 20
-137.189451442317
 42
0.0
 10
156.9975844429138
 20
-137.189451442317
 42
0.0
 10
156.9762321125887
 20
-137.2264347633004
 42
0.0
 10
156.9548797822633
 20
-137.189451442317
 42
0.0
 10
156.9259744429139
 20
-137.189451442317
 42
0.0
 10
156.9046221125886
 20
-137.2264347633003
 42
0.0
 10
156.8832697822633
 20
-137.189451442317
 42
0.0
 10
156.8543644429138
 20
-137.189451442317
 42
0.0
 10
156.8330121125886
 20
-137.2264347633004
 42
0.0
 10
156.8116597822634
 20
-137.189451442317
 42
0.0
 10
156.7827544429138
 20
-137.189451442317
 42
0.0
 10
156.7614021125886
 20
-137.2264347633004
 42
0.0
 10
156.7400497822633
 20
-137.189451442317
 42
0.0
 10
156.7111444429139
 20
-137.189451442317
 42
0.0
 10
156.6897921125886
 20
-137.2264347633004
 42
0.0
 10
156.6684397822634
 20
-137.189451442317
 42
0.0
 10
156.6395344429139
 20
-137.189451442317
 42
0.0
 10
156.6181821125886
 20
-137.2264347633003
 42
0.0
 10
156.5968297822634
 20
-137.189451442317
 42
0.0
 10
156.5679244429139
 20
-137.189451442317
 42
0.0
 10
156.546614138967
 20
-137.2263619714778
 42
0.0
 10
156.5254762776499
 20
-137.1897501217134
 42
0.0
 10
156.4965709383004
 20
-137.1897501217134
 42
0.0
 10
156.4752186079752
 20
-137.2267334426967
 42
0.0
 10
156.4538662776499
 20
-137.1897501217134
 42
0.0
 10
156.4323157852534
 20
-137.1808236154977
 42
0.0
 10
156.4196976383396
 20
-137.1982377546856
 42
0.0
 10
156.3959107435177
 20
-137.1570376442996
 42
0.0
 10
156.3940827845862
 20
-137.1562804789197
 42
-0.6681786382274984
 10
156.3940827845862
 20
-137.0985380081275
 42
0.0
 10
156.4274266313065
 20
-137.0847265346109
 42
0.0
 10
156.4452769067885
 20
-137.0612035404679
 42
0.0
 10
156.4617509501205
 20
-137.0772670093317
 42
0.0
 10
156.4893829400199
 20
-137.06479804368
 42
0.0
 10
156.5107352703452
 20
-137.0278147226967
 42
0.0
 10
156.5320876006705
 20
-137.06479804368
 42
0.0
 10
156.56099294002
 20
-137.06479804368
 42
0.0
 10
156.5823032439669
 20
-137.0278875145192
 42
0.0
 10
156.6034411052839
 20
-137.0644993642837
 42
0.0
 10
156.6323464446334
 20
-137.0644993642837
 42
0.0
 10
156.6536987749586
 20
-137.0275160433004
 42
0.0
 10
156.6750511052839
 20
-137.0644993642837
 42
0.0
 10
156.7039564446334
 20
-137.0644993642837
 42
0.0
 10
156.7253087749587
 20
-137.0275160433003
 42
0.0
 10
156.7466611052839
 20
-137.0644993642837
 42
0.0
 10
156.7755664446334
 20
-137.0644993642837
 42
0.0
 10
156.7969187749586
 20
-137.0275160433003
 42
0.0
 10
156.8182711052839
 20
-137.0644993642837
 42
0.0
 10
156.8471764446334
 20
-137.0644993642837
 42
0.0
 10
156.8685287749586
 20
-137.0275160433003
 42
0.0
 10
156.8898811052839
 20
-137.0644993642837
 42
0.0
 10
156.9187864446334
 20
-137.0644993642837
 42
0.0
 10
156.9401387749587
 20
-137.0275160433004
 42
0.0
 10
156.961491105284
 20
-137.0644993642837
 42
0.0
 10
156.9903964446334
 20
-137.0644993642837
 42
0.0
 10
157.0117487749587
 20
-137.0275160433004
 42
0.0
 10
157.0331011052839
 20
-137.0644993642837
 42
0.0
 10
157.0620064446334
 20
-137.0644993642837
 42
0.0
 10
157.0833587749587
 20
-137.0275160433004
 42
0.0
 10
157.1047111052839
 20
-137.0644993642837
 42
0.0
 10
157.1336164446334
 20
-137.0644993642837
 42
0.0
 10
157.1549687749587
 20
-137.0275160433003
 42
0.0
 10
157.176321105284
 20
-137.0644993642837
 42
0.0
 10
157.2052264446334
 20
-137.0644993642837
 42
0.0
 10
157.2265787749587
 20
-137.0275160433004
 42
0.0
 10
157.2479311052839
 20
-137.0644993642837
 42
0.0
 10
157.2768364446334
 20
-137.0644993642837
 42
0.0
 10
157.2981887749587
 20
-137.0275160433003
 42
0.0
 10
157.319541105284
 20
-137.0644993642837
 42
0.0
 10
157.3484464446334
 20
-137.0644993642837
 42
0.0
 10
157.3697987749586
 20
-137.0275160433004
 42
0.0
 10
157.3911511052839
 20
-137.0644993642837
 42
0.0
 10
157.4200564446334
 20
-137.0644993642837
 42
0.0
 10
157.4414087749587
 20
-137.0275160433004
 42
0.0
 10
157.4627611052839
 20
-137.0644993642837
 42
0.0
 10
157.4916664446334
 20
-137.0644993642837
 42
0.0
 10
157.5130187749587
 20
-137.0275160433004
 42
0.0
 10
157.5343711052839
 20
-137.0644993642837
 42
0.0
 10
157.5632764446334
 20
-137.0644993642836
 42
0.0
 10
157.5846287749587
 20
-137.0275160433004
 42
0.0
 10
157.605981105284
 20
-137.0644993642837
 42
0.0
 10
157.6348864446334
 20
-137.0644993642837
 42
0.0
 10
157.6562387749587
 20
-137.0275160433004
 42
0.0
 10
157.6775911052839
 20
-137.0644993642837
 42
0.0
 10
157.7064964446335
 20
-137.0644993642837
 42
0.0
 10
157.7278487749587
 20
-137.0275160433004
 42
0.0
 10
157.7492011052839
 20
-137.0644993642837
 42
0.0
 10
157.7781064446334
 20
-137.0644993642837
 42
0.0
 10
157.7994587749587
 20
-137.0275160433003
 42
0.0
 10
157.820811105284
 20
-137.0644993642837
 42
0.0
 10
157.8497164446334
 20
-137.0644993642837
 42
0.0
 10
157.8710687749587
 20
-137.0275160433003
 42
0.0
 10
157.892421105284
 20
-137.0644993642837
 42
0.0
 10
157.9213264446335
 20
-137.0644993642837
 42
0.0
 10
157.9426787749587
 20
-137.0275160433004
 42
0.0
 10
157.9640311052839
 20
-137.0644993642837
 42
0.0
 10
157.9929364446334
 20
-137.0644993642836
 42
0.0
 10
158.0142887749587
 20
-137.0275160433004
 42
0.0
 10
158.0356411052839
 20
-137.0644993642836
 42
0.0
 10
158.0420582911419
 20
-137.0644993642836
 42
0.0
 97
        0
 75
     0
 76
     1
 52
0.0
 41
0.5
 77
     0
 78
    13
 53
50.0
 43
1.447803424832613
 44
-90.35954721680175
 45
3.586300913003767
 46
-0.3137606749129755
 79
     2
 49
0.375
 49
-4.125
 53
355.0
 43
1.447803424832613
 44
-90.35954721680175
 45
-0.6937566680650001
 46
3.760960668500059
 79
     2
 49
0.3
 49
-3.299999999999999
 53
100.4514
 43
1.746661824832614
 44
-90.38569391680175
 45
2.892546908570107
 46
3.447197710304767
 79
     2
 49
0.3187009499999998
 49
-3.505710559999998
 53
46.1842
 43
1.447803424832613
 44
-89.35954721680174
 45
5.336205243128222
 46
-0.8275950716450903
 79
     2
 49
0.5625
 49
-6.1875
 53
96.63559999999998
 43
1.892487149832611
 44
-89.42851375180174
 45
4.673313527743516
 46
4.870589354502208
 79
     2
 49
0.4780514399999997
 49
-5.258564999999995
 53
351.1842000000001
 43
1.447803424832613
 44
-89.35954721680174
 45
4.673309725668135
 46
4.870593004626623
 79
     2
 49
0.45
 49
-4.95
 53
21.0
 43
1.947803424832613
 44
-89.60954721680174
 45
2.984535260592308
 46
-2.013094453326694
 79
     2
 49
0.375
 49
-4.125
 53
326.0
 43
1.947803424832613
 44
-89.60954721680174
 45
1.216576659607908
 46
3.625750225234265
 79
     2
 49
0.3
 49
-3.299999999999999
 53
71.45140000000001
 43
2.196514589832617
 44
-89.77730524680174
 45
4.201113142907449
 46
1.612652483549761
 79
     2
 49
0.31870095
 49
-3.505710559999999
 53
37.5
 43
1.447803424832613
 44
-90.35954721680175
 45
0.0607992765864534
 46
1.664469269156557
 79
     6
 49
0.0
 49
-3.259999999999999
 49
0.0
 49
-3.35
 49
0.0
 49
-3.3125
 53
7.499999999999999
 43
1.447803424832613
 44
-90.35954721680175
 45
1.315347687210743
 46
1.972058559411801
 79
     6
 49
0.0
 49
-1.909999999999999
 49
0.0
 49
-3.185
 49
0.0
 49
-1.262499999999999
 53
327.5
 43
0.3328034248326119
 44
-90.35954721680175
 45
2.669112180862045
 46
-0.112774358671899
 79
     6
 49
0.0
 49
-1.25
 49
0.0
 49
-3.9
 49
0.0
 49
-5.174999999999999
 53
317.5
 43
-0.1671965751673881
 44
-90.35954721680175
 45
2.915930846711931
 46
0.5005249116615883
 79
     6
 49
0.0
 49
-1.625
 49
0.0
 49
-2.589999999999999
 49
0.0
 49
-3.674999999999999
 47
0.033741021485901
 98
        1
 10
156.68295971748
 20
-132.7823038570145
  0
LINE
  5
38
330
2
100
AcDbEntity
  8
0
  6
Continuous
100
AcDbLine
 10
158.2920582911419
 20
-141.2291908101282
 30
0.0
 11
156.7098105196386
 21
-141.2291908101281
 31
0.0
  0
LINE
  5
39
330
2
100
AcDbEntity
  8
0
  6
Continuous
100
AcDbLine
 10
156.3743060626451
 20
-141.4791908101281
 30
0.0
 11
156.3743060626451
 21
-141.2291908101281
 31
0.0
  0
LINE
  5
3A
330
2
100
AcDbEntity
  8
0
  6
Continuous
100
AcDbLine
 10
156.7098105196387
 20
-140.9791908101281
 30
0.0
 11
156.3743060626451
 21
-141.4791908101281
 31
0.0
  0
LINE
  5
3B
330
2
100
AcDbEntity
  8
0
  6
Continuous
100
AcDbLine
 10
156.7098105196387
 20
-141.2291908101281
 30
0.0
 11
156.7098105196387
 21
-140.9791908101281
 31
0.0
  0
LINE
  5
3C
330
2
100
AcDbEntity
  8
0
  6
Continuous
100
AcDbLine
 10
156.3743060626451
 20
-141.2291908101281
 30
0.0
 11
154.7920582911418
 21
-141.2291908101281
 31
0.0
  0
LINE
  5
3D
330
2
100
AcDbEntity
  8
0
  6
Continuous
100
AcDbLine
 10
159.0886492149275
 20
-128.7483206421522
 30
0.0
 11
156.7098105196386
 21
-128.7483206421521
 31
0.0
  0
LINE
  5
3E
330
2
100
AcDbEntity
  8
0
  6
Continuous
100
AcDbLine
 10
155.0420582911419
 20
-128.7483206421522
 30
0.0
 11
155.0420582911419
 21
-131.9220631353043
 31
0.0
  0
LINE
  5
3F
330
2
100
AcDbEntity
  8
0
  6
Continuous
100
AcDbLine
 10
155.2920582911418
 20
-131.9220631353043
 30
0.0
 11
155.0420582911419
 21
-131.9220631353043
 31
0.0
  0
LINE
  5
40
330
2
100
AcDbEntity
  8
0
  6
Continuous
100
AcDbLine
 10
154.7920582911418
 20
-132.2575675922979
 30
0.0
 11
155.2920582911418
 21
-131.9220631353043
 31
0.0
  0
LINE
  5
41
330
2
100
AcDbEntity
  8
0
  6
Continuous
100
AcDbLine
 10
155.0420582911419
 20
-132.2575675922979
 30
0.0
 11
154.7920582911418
 21
-132.2575675922979
 31
0.0
  0
LINE
  5
42
330
2
100
AcDbEntity
  8
0
  6
Continuous
100
AcDbLine
 10
155.0420582911419
 20
-137.7199438599824
 30
0.0
 11
154.7920582911418
 21
-137.7199438599824
 31
0.0
  0
LINE
  5
43
330
2
100
AcDbEntity
  8
0
  6
Continuous
100
AcDbLine
 10
154.7920582911418
 20
-137.7199438599824
 30
0.0
 11
155.2920582911418
 21
-138.055448316976
 31
0.0
  0
LINE
  5
44
330
2
100
AcDbEntity
  8
0
  6
Continuous
100
AcDbLine
 10
155.2920582911418
 20
-138.055448316976
 30
0.0
 11
155.0420582911419
 21
-138.055448316976
 31
0.0
  0
LINE
  5
45
330
2
100
AcDbEntity
  8
0
  6
Continuous
100
AcDbLine
 10
155.0420582911419
 20
-132.2575675922979
 30
0.0
 11
155.0420582911419
 21
-137.7199438599824
 31
0.0
  0
LINE
  5
46
330
2
100
AcDbEntity
  8
0
  6
Continuous
100
AcDbLine
 10
156.7098105196387
 20
-128.7483206421521
 30
0.0
 11
156.7098105196387
 21
-128.4983206421521
 31
0.0
  0
LINE
  5
47
330
2
100
AcDbEntity
  8
0
  6
Continuous
100
AcDbLine
 10
156.7098105196387
 20
-128.4983206421521
 30
0.0
 11
156.3743060626451
 21
-128.9983206421521
 31
0.0
  0
LINE
  5
48
330
2
100
AcDbEntity
  8
0
  6
Continuous
100
AcDbLine
 10
156.3743060626451
 20
-128.9983206421521
 30
0.0
 11
156.3743060626451
 21
-128.7483206421521
 31
0.0
  0
LINE
  5
49
330
2
100
AcDbEntity
  8
0
  6
Continuous
100
AcDbLine
 10
156.3743060626451
 20
-128.7483206421521
 30
0.0
 11
154.7920582911418
 21
-128.7483206421521
 31
0.0
  0
MTEXT
  5
4A
102
{ACAD_REACTORS
330
5D
102
}
330
2
100
AcDbEntity
  8
0
  6
Continuous
100
AcDbMText
 10
163.9963621595342
 20
-132.2819736012516
 30
0.0
 40
0.1875
 41
4.975
 71
     1
 72
     1
  1
ALUMINUM END WALL FLASHING
 73
     1
 44
1.0
1001
ACAD
1000
MTEXTBEGIN
1070
    73
1070
     1
1070
    44
1040
1.0
1070
    74
1070
     0
1000
MTEXTEND
  0
MTEXT
  5
4B
102
{ACAD_REACTORS
330
2E2
102
}
330
2
100
AcDbEntity
  8
0
  6
Continuous
100
AcDbMText
 10
163.9963621595342
 20
-132.9550383892784
 30
0.0
 40
0.1875
 41
4.4125
 71
     1
 72
     1
  1
ALUMINUM SNAP CAP
 73
     1
 44
1.0
1001
ACAD
1000
MTEXTBEGIN
1070
    73
1070
     1
1070
    44
1040
1.0
1070
    74
1070
     0
1000
MTEXTEND
  0
MTEXT
  5
4C
102
{ACAD_REACTORS
330
2E1
102
}
330
2
100
AcDbEntity
  8
0
  6
Continuous
100
AcDbMText
 10
163.9963621595342
 20
-133.2206260242356
 30
0.0
 40
0.1875
 41
4.4125
 71
     1
 72
     1
  1
ALUMINUM PRESSURE CAP
 73
     1
 44
1.0
1001
ACAD
1000
MTEXTBEGIN
1070
    73
1070
     1
1070
    44
1040
1.0
1070
    74
1070
     0
1000
MTEXTEND
  0
MTEXT
  5
4D
102
{ACAD_REACTORS
330
2E0
102
}
330
2
100
AcDbEntity
  8
0
  6
Continuous
100
AcDbMText
 10
163.9963621595342
 20
-133.6175680595674
 30
0.0
 40
0.1875
 41
4.4125
 71
     1
 72
     1
  1
GLAZING (SEE GLAZING SPEC.)
 73
     1
 44
1.0
1001
ACAD
1000
MTEXTBEGIN
1070
    73
1070
     1
1070
    44
1040
1.0
1070
    74
1070
     0
1000
MTEXTEND
  0
MTEXT
  5
4E
102
{ACAD_REACTORS
330
5F
102
}
330
2
100
AcDbEntity
  8
0
  6
Continuous
100
AcDbMText
 10
163.9963621595342
 20
-134.704573458974
 30
0.0
 40
0.1875
 41
4.4125
 71
     1
 72
     1
  1
WORKPOINT
 73
     1
 44
1.0
1001
ACAD
1000
MTEXTBEGIN
1070
    73
1070
     1
1070
    44
1040
1.0
1070
    74
1070
     0
1000
MTEXTEND
  0
MTEXT
  5
4F
102
{ACAD_REACTORS
330
2DF
102
}
330
2
100
AcDbEntity
  8
0
  6
Continuous
100
AcDbMText
 10
163.9963621595342
 20
-134.9647601392455
 30
0.0
 40
0.1875
 41
4.4125
 71
     1
 72
     1
  1
EPDM GLAZING GASKET
 73
     1
 44
1.0
1001
ACAD
1000
MTEXTBEGIN
1070
    73
1070
     1
1070
    44
1040
1.0
1070
    74
1070
     0
1000
MTEXTEND
  0
MTEXT
  5
50
102
{ACAD_REACTORS
330
5E
102
}
330
2
100
AcDbEntity
  8
0
  6
Continuous
100
AcDbMText
 10
163.9963621595342
 20
-134.023829928078
 30
0.0
 40
0.1875
 41
4.4125
 71
     1
 72
     1
  1
1/4"-20 BOLT (8" O.C.)
 73
     1
 44
1.0
1001
ACAD
1000
MTEXTBEGIN
1070
    73
1070
     1
1070
    44
1040
1.0
1070
    74
1070
     0
1000
MTEXTEND
  0
MTEXT
  5
51
102
{ACAD_REACTORS
330
2E4
102
}
330
2
100
AcDbEntity
  8
0
  6
Continuous
100
AcDbMText
 10
163.9963621595342
 20
-137.0361206084311
 30
0.0
 40
0.1875
 41
4.4125
 71
     1
 72
     1
  1
INTER-SKY RAFTER
 73
     1
 44
1.0
1001
ACAD
1000
MTEXTBEGIN
1070
    73
1070
     1
1070
    44
1040
1.0
1070
    74
1070
     0
1000
MTEXTEND
  0
MTEXT
  5
52
102
{ACAD_REACTORS
330
2E3
102
}
330
2
100
AcDbEntity
  8
0
  6
Continuous
100
AcDbMText
 10
163.9963621595342
 20
-138.704389328993
 30
0.0
 40
0.1875
 41
4.4125
 71
     1
 72
     1
  1
CONDENSATION GUTTER
 73
     1
 44
1.0
1001
ACAD
1000
MTEXTBEGIN
1070
    73
1070
     1
1070
    44
1040
1.0
1070
    74
1070
     0
1000
MTEXTEND
  0
LINE
  5
53
330
2
100
AcDbEntity
  8
.050 Flashing
  6
Continuous
100
AcDbLine
 10
158.1371976940639
 20
-128.9983206421521
 30
0.0
 11
158.1371976940639
 21
-132.9773568242311
 31
0.0
  0
LINE
  5
55
330
2
100
AcDbEntity
  8
.050 Flashing
  6
Continuous
100
AcDbLine
 10
158.0871976940639
 20
-128.9983206421521
 30
0.0
 11
158.0871976940639
 21
-133.0273568242311
 31
0.0
  0
ARC
  5
56
330
2
100
AcDbEntity
  8
Glazing
  6
Continuous
100
AcDbCircle
 10
160.0420582911418
 20
-133.3547783893381
 30
0.0
 40
0.2574215651070681
100
AcDbArc
 50
359.9999999999988
 51
179.9999999999987
  0
ARC
  5
58
330
2
100
AcDbEntity
  8
Glazing
  6
Continuous
100
AcDbCircle
 10
160.0420582911418
 20
-133.3547783893381
 30
0.0
 40
0.2774215651070682
100
AcDbArc
 50
359.9999999999988
 51
179.9999999999987
  0
ARC
  5
59
330
2
100
AcDbEntity
  8
Glazing
  6
Continuous
100
AcDbCircle
 10
160.0420582911418
 20
-133.3547783893381
 30
0.0
 40
0.2974215651070682
100
AcDbArc
 50
359.9999999999988
 51
179.9999999999987
  0
ARC
  5
5A
330
2
100
AcDbEntity
  8
Glazing
  6
Continuous
100
AcDbCircle
 10
160.0420582911418
 20
-133.3547783893381
 30
0.0
 40
0.3174215651070682
100
AcDbArc
 50
359.9999999999988
 51
179.9999999999987
  0
ARC
  5
5B
330
2
100
AcDbEntity
  8
Glazing
  6
Continuous
100
AcDbCircle
 10
160.0420582911418
 20
-133.3547783893381
 30
0.0
 40
0.2374215651070682
100
AcDbArc
 50
44.93761506709833
 51
135.0623849328932
  0
ARC
  5
5C
330
2
100
AcDbEntity
  8
Glazing
  6
Continuous
100
AcDbCircle
 10
160.0420582911418
 20
-133.3547783893381
 30
0.0
 40
0.2174215651070682
100
AcDbArc
 50
50.58366442544491
 51
129.4163355745551
  0
LEADER
  5
5D
330
2
100
AcDbEntity
  8
0
  6
Continuous
100
AcDbLeader
  3
STANDARD
 73
     0
 40
0.1938949522510232
 41
4.734055252387449
 76
     2
 10
158.1371976940639
 20
-132.3757236012516
 30
0.0
 10
163.9063621595342
 20
-132.3757236012516
 30
0.0
340
4A
213
0.0
223
-0.09375
233
0.0
1001
ACAD
1000
DSTYLE
1002
{
1070
   147
1040
0.09
1070
    77
1070
     0
1002
}
  0
LEADER
  5
5E
330
2
100
AcDbEntity
  8
0
  6
Continuous
100
AcDbLeader
  3
STANDARD
 73
     0
 40
0.245949863574352
 41
2.651730900409276
 76
     2
 10
160.0946916627411
 20
-134.117579928078
 30
0.0
 10
163.9063621595342
 20
-134.117579928078
 30
0.0
340
50
213
0.0
223
-0.09375
233
0.0
1001
ACAD
1000
DSTYLE
1002
{
1070
   147
1040
0.09
1070
    77
1070
     0
1002
}
  0
LEADER
  5
5F
330
2
100
AcDbEntity
  8
0
  6
Continuous
100
AcDbLeader
  3
STANDARD
 73
     0
 40
0.1940228512960437
 41
1.606795702592087
 76
     2
 10
160.094802589649
 20
-134.798323458974
 30
0.0
 10
163.9063621595342
 20
-134.798323458974
 30
0.0
340
4E
213
0.0
223
-0.09375
233
0.0
1001
ACAD
1000
DSTYLE
1002
{
1070
   147
1040
0.09
1070
    77
1070
     0
1002
}
  0
INSERT
  5
60
330
2
100
AcDbEntity
  8
0
  6
Continuous
 62
     0
100
AcDbBlockReference
  2
pressure cap
 10
152.54913586123
 20
-86.69315635363664
 30
0.0
  0
INSERT
  5
90
330
2
100
AcDbEntity
  8
0
  6
Continuous
 62
     0
100
AcDbBlockReference
  2
snap cap
 10
155.9773439598414
 20
-86.72021077434362
 30
0.0
  0
INSERT
  5
A8
330
2
100
AcDbEntity
  8
0
  6
Continuous
 62
     0
100
AcDbBlockReference
  2
R4
 10
153.1575657219839
 20
-108.2347136369538
 30
0.0
  0
INSERT
  5
15D
330
2
100
AcDbEntity
  8
0
  6
Continuous
100
AcDbBlockReference
  2
work point
 10
159.2039595679276
 20
-46.66578150742705
 30
0.0
  0
INSERT
  5
186
330
2
100
AcDbEntity
  8
0
  6
Continuous
100
AcDbBlockReference
  2
screwwy
 10
30.47774300692993
 20
-54.851905988075
 30
0.0
  0
ARC
  5
223
330
2
100
AcDbEntity
  8
Glazing
  6
Continuous
100
AcDbCircle
 10
160.0420582911418
 20
-133.3547783893381
 30
0.0
 40
0.2374215651070682
100
AcDbArc
 50
155.6205366986622
 51
179.9999999999987
  0
ARC
  5
224
330
2
100
AcDbEntity
  8
Glazing
  6
Continuous
100
AcDbCircle
 10
160.0420582911418
 20
-133.3547783893381
 30
0.0
 40
0.2174215651070682
100
AcDbArc
 50
174.0520944610372
 51
179.9999999999987
  0
ARC
  5
225
330
2
100
AcDbEntity
  8
Glazing
  6
Continuous
100
AcDbCircle
 10
160.0420582911418
 20
-133.3547783893381
 30
0.0
 40
0.1974215651070682
100
AcDbArc
 50
58.30062356346299
 51
121.699376436537
  0
ARC
  5
226
330
2
100
AcDbEntity
  8
Glazing
  6
Continuous
100
AcDbCircle
 10
160.0420582911418
 20
-133.3547783893381
 30
0.0
 40
0.1774215651070682
100
AcDbArc
 50
71.21362954167591
 51
108.7863704583241
  0
ARC
  5
236
330
2
100
AcDbEntity
  8
Glazing
  6
Continuous
100
AcDbCircle
 10
158.8069407789843
 20
-130.4976226995211
 30
0.0
 40
2.803784883753113
100
AcDbArc
 50
273.6523043663616
 51
274.8103118546288
  0
ARC
  5
237
330
2
100
AcDbEntity
  8
Glazing
  6
Continuous
100
AcDbCircle
 10
158.8069407789843
 20
-130.4976226995211
 30
0.0
 40
2.783784883753113
100
AcDbArc
 50
273.1053797857385
 51
274.8449536744352
  0
ARC
  5
238
330
2
100
AcDbEntity
  8
Glazing
  6
Continuous
100
AcDbCircle
 10
158.8069407789843
 20
-130.4976226995211
 30
0.0
 40
2.843784883753113
100
AcDbArc
 50
274.3272255333859
 51
274.7424950969336
  0
ARC
  5
239
330
2
100
AcDbEntity
  8
Glazing
  6
Continuous
100
AcDbCircle
 10
158.8069407789843
 20
-130.4976226995211
 30
0.0
 40
2.823784883753113
100
AcDbArc
 50
274.0465218464465
 51
274.7761624748245
  0
ARC
  5
23A
330
2
100
AcDbEntity
  8
Glazing
  6
Continuous
100
AcDbCircle
 10
158.8069407789843
 20
-130.4976226995211
 30
0.0
 40
2.863784883753113
100
AcDbArc
 50
274.5141004511481
 51
274.7092995761339
  0
ARC
  5
23B
330
2
100
AcDbEntity
  8
Glazing
  6
Continuous
100
AcDbCircle
 10
158.8069407789843
 20
-130.4976226995211
 30
0.0
 40
2.763784883753113
100
AcDbArc
 50
272.3106980936862
 51
274.8800986762871
  0
ARC
  5
23C
330
2
100
AcDbEntity
  8
Glazing
  6
Continuous
100
AcDbCircle
 10
158.8069407789843
 20
-130.4976226995211
 30
0.0
 40
2.743784883753113
100
AcDbArc
 50
270.8189977498377
 51
274.9157579173409
  0
ARC
  5
23D
330
2
100
AcDbEntity
  8
Glazing
  6
Continuous
100
AcDbCircle
 10
158.8069407789843
 20
-130.4976226995211
 30
0.0
 40
2.863784883753113
100
AcDbArc
 50
264.6929072442396
 51
264.9107556798821
  0
ARC
  5
23E
330
2
100
AcDbEntity
  8
Glazing
  6
Continuous
100
AcDbCircle
 10
158.8069407789843
 20
-130.4976226995211
 30
0.0
 40
2.843784883753113
100
AcDbArc
 50
264.6554748452299
 51
265.1030363993005
  0
ARC
  5
23F
330
2
100
AcDbEntity
  8
Glazing
  6
Continuous
100
AcDbCircle
 10
158.8069407789843
 20
-130.4976226995211
 30
0.0
 40
2.823784883753113
100
AcDbArc
 50
264.6175098649962
 51
265.388959949208
  0
ARC
  5
240
330
2
100
AcDbEntity
  8
Glazing
  6
Continuous
100
AcDbCircle
 10
158.8069407789843
 20
-130.4976226995211
 30
0.0
 40
2.803784883753113
100
AcDbArc
 50
264.5790008386452
 51
265.7882210439614
  0
ARC
  5
241
330
2
100
AcDbEntity
  8
Glazing
  6
Continuous
100
AcDbCircle
 10
158.8069407789843
 20
-130.4976226995211
 30
0.0
 40
2.783784883753113
100
AcDbArc
 50
264.5399359693239
 51
266.3400219848597
  0
ARC
  5
242
330
2
100
AcDbEntity
  8
Glazing
  6
Continuous
100
AcDbCircle
 10
158.8069407789843
 20
-130.4976226995211
 30
0.0
 40
2.763784883753113
100
AcDbArc
 50
264.5003031160982
 51
267.1394211432634
  0
ARC
  5
243
330
2
100
AcDbEntity
  8
Glazing
  6
Continuous
100
AcDbCircle
 10
158.8069407789843
 20
-130.4976226995211
 30
0.0
 40
2.743784883753113
100
AcDbArc
 50
264.4600897812951
 51
268.635687841508
  0
ARC
  5
244
330
2
100
AcDbEntity
  8
Glazing
  6
Continuous
100
AcDbCircle
 10
158.8069407789843
 20
-130.4976226995211
 30
0.0
 40
2.723784883753113
100
AcDbArc
 50
264.4192830972843
 51
274.9519427815209
  0
ARC
  5
245
330
2
100
AcDbEntity
  8
Glazing
  6
Continuous
100
AcDbCircle
 10
158.8069407789843
 20
-130.4976226995211
 30
0.0
 40
2.703784883753113
100
AcDbArc
 50
264.377869812662
 51
274.9886649916954
  0
ARC
  5
246
330
2
100
AcDbEntity
  8
Glazing
  6
Continuous
100
AcDbCircle
 10
158.8069407789843
 20
-130.4976226995211
 30
0.0
 40
2.683784883753113
100
AcDbArc
 50
264.3358362778134
 51
275.0259366224032
  0
ARC
  5
247
330
2
100
AcDbEntity
  8
Glazing
  6
Continuous
100
AcDbCircle
 10
158.8069407789843
 20
-130.4976226995211
 30
0.0
 40
2.663784883753113
100
AcDbArc
 50
264.2931684298154
 51
275.0637701131569
  0
ARC
  5
248
330
2
100
AcDbEntity
  8
Glazing
  6
Continuous
100
AcDbCircle
 10
158.8069407789843
 20
-130.4976226995211
 30
0.0
 40
2.643784883753113
100
AcDbArc
 50
264.2498517766479
 51
275.1021782823569
  0
ARC
  5
249
330
2
100
AcDbEntity
  8
Glazing
  6
Continuous
100
AcDbCircle
 10
158.8069407789843
 20
-130.4976226995211
 30
0.0
 40
2.623784883753113
100
AcDbArc
 50
264.2058713806704
 51
275.1411743418474
  0
ARC
  5
24A
330
2
100
AcDbEntity
  8
Glazing
  6
Continuous
100
AcDbCircle
 10
158.8069407789843
 20
-130.4976226995211
 30
0.0
 40
2.603784883753113
100
AcDbArc
 50
264.161211841335
 51
275.1807719121489
  0
ARC
  5
24B
330
2
100
AcDbEntity
  8
Glazing
  6
Continuous
100
AcDbCircle
 10
158.8069407789843
 20
-130.4976226995211
 30
0.0
 40
2.583784883753112
100
AcDbArc
 50
264.1158572770801
 51
275.220985038406
  0
ARC
  5
24C
330
2
100
AcDbEntity
  8
Glazing
  6
Continuous
100
AcDbCircle
 10
158.8069407789843
 20
-130.4976226995211
 30
0.0
 40
2.563784883753112
100
AcDbArc
 50
264.0697913063682
 51
275.261828207088
  0
ARC
  5
24D
330
2
100
AcDbEntity
  8
Glazing
  6
Continuous
100
AcDbCircle
 10
158.8069407789843
 20
-130.4976226995211
 30
0.0
 40
2.543784883753112
100
AcDbArc
 50
264.0229970278203
 51
275.3033163634856
  0
ARC
  5
24E
330
2
100
AcDbEntity
  8
Glazing
  6
Continuous
100
AcDbCircle
 10
158.8069407789843
 20
-130.4976226995211
 30
0.0
 40
2.523784883753112
100
AcDbArc
 50
263.975456999388
 51
275.3695545451145
  0
ARC
  5
24F
330
2
100
AcDbEntity
  8
Glazing
  6
Continuous
100
AcDbCircle
 10
158.8069407789843
 20
-130.4976226995211
 30
0.0
 40
2.503784883753112
100
AcDbArc
 50
263.9271532165224
 51
276.0633717443091
  0
ELLIPSE
  5
250
330
2
100
AcDbEntity
  8
0
  6
Continuous
100
AcDbEllipse
 10
158.7920582911418
 20
-133.3964715793608
 30
0.0
 11
-0.2500000000000568
 21
0.0
 31
0.0
210
0.0
220
0.0
230
1.0
 40
0.6364590205190242
 41
0.0
 42
6.283185307179586
  0
LINE
  5
251
330
2
100
AcDbEntity
  8
Glazing
  6
Continuous
100
AcDbLine
 10
158.5420582911419
 20
-132.9873568242311
 30
0.0
 11
159.0730582911418
 21
-132.9873568242311
 31
0.0
  0
LINE
  5
252
330
2
100
AcDbEntity
  8
.050 Flashing
  6
Continuous
100
AcDbLine
 10
158.4920582911418
 20
-133.047356824231
 30
0.0
 11
158.4920582911417
 21
-133.5955863344905
 31
0.0
  0
LINE
  5
253
330
2
100
AcDbEntity
  8
.050 Flashing
  6
Continuous
100
AcDbLine
 10
158.4820582911419
 20
-133.0373568242311
 30
0.0
 11
158.0971976940638
 21
-133.0373568242311
 31
0.0
  0
LINE
  5
254
330
2
100
AcDbEntity
  8
.050 Flashing
  6
Continuous
100
AcDbLine
 10
158.5320582911419
 20
-132.9873568242311
 30
0.0
 11
158.1471976940639
 21
-132.9873568242311
 31
0.0
  0
LINE
  5
255
330
2
100
AcDbEntity
  8
.050 Flashing
  6
Continuous
100
AcDbLine
 10
158.5420582911419
 20
-132.9973568242311
 30
0.0
 11
158.5420582911418
 21
-133.5455863344906
 31
0.0
  0
LINE
  5
256
330
2
100
AcDbEntity
  8
.050 Flashing
  6
Continuous
100
AcDbLine
 10
158.5020582911417
 20
-133.6055863344905
 30
0.0
 11
159.644134014898
 21
-133.6055863344906
 31
0.0
  0
LINE
  5
257
330
2
100
AcDbEntity
  8
.050 Flashing
  6
Continuous
100
AcDbLine
 10
159.654134014898
 20
-133.6155863344906
 30
0.0
 11
159.654134014898
 21
-134.8055863344905
 31
0.0
  0
LINE
  5
258
330
2
100
AcDbEntity
  8
.050 Flashing
  6
Continuous
100
AcDbLine
 10
159.644134014898
 20
-134.8155863344905
 30
0.0
 11
159.0007681701102
 21
-134.8155863344905
 31
0.0
  0
LINE
  5
259
330
2
100
AcDbEntity
  8
.050 Flashing
  6
Continuous
100
AcDbLine
 10
159.0007681701102
 20
-134.8155863344905
 30
0.0
 11
159.0007681701102
 21
-134.8655863344905
 31
0.0
  0
LINE
  5
25A
330
2
100
AcDbEntity
  8
.050 Flashing
  6
Continuous
100
AcDbLine
 10
158.5520582911418
 20
-133.5555863344906
 30
0.0
 11
159.694134014898
 21
-133.5555863344906
 31
0.0
  0
LINE
  5
25B
330
2
100
AcDbEntity
  8
.050 Flashing
  6
Continuous
100
AcDbLine
 10
159.694134014898
 20
-134.8655863344905
 30
0.0
 11
159.0007681701102
 21
-134.8655863344905
 31
0.0
  0
INSERT
  5
25C
330
2
100
AcDbEntity
  8
0
  6
Continuous
 62
     0
100
AcDbBlockReference
  2
epdm
 10
163.1120073253484
 20
-140.1740553474175
 30
0.0
  0
INSERT
  5
2CA
330
2
100
AcDbEntity
  8
0
  6
Continuous
 62
     0
100
AcDbBlockReference
  2
epdm
 10
155.5229092957372
 20
-128.2471173215636
 30
0.0
 50
180.0
  0
LINE
  5
2CB
330
2
100
AcDbEntity
  8
.050 Flashing
  6
Continuous
100
AcDbLine
 10
159.7041340148979
 20
-133.5655863344906
 30
0.0
 11
159.7041340148979
 21
-134.8555863344905
 31
0.0
  0
ARC
  5
2CC
330
2
100
AcDbEntity
  8
Glazing
  6
Continuous
100
AcDbCircle
 10
160.0420582911418
 20
-133.3547783893381
 30
0.0
 40
0.2374215651070682
100
AcDbArc
 50
359.9999999999988
 51
24.37946330133776
  0
ARC
  5
2CD
330
2
100
AcDbEntity
  8
Glazing
  6
Continuous
100
AcDbCircle
 10
160.0420582911418
 20
-133.3547783893381
 30
0.0
 40
0.2174215651070682
100
AcDbArc
 50
359.9999999999988
 51
5.947905538962811
  0
LINE
  5
2CE
330
2
100
AcDbEntity
  8
Glazing
  6
Continuous
100
AcDbLine
 10
160.5420582911419
 20
-133.5555863344905
 30
0.0
 11
160.5420582911419
 21
-134.8655863344905
 31
0.0
  0
LINE
  5
2CF
330
2
100
AcDbEntity
  8
Glazing
  6
Continuous
100
AcDbLine
 10
160.5420582911419
 20
-133.5555863344905
 30
0.0
 11
162.5420582911418
 21
-133.5555863344905
 31
0.0
  0
LINE
  5
2D0
330
2
100
AcDbEntity
  8
Glazing
  6
Continuous
100
AcDbLine
 10
160.5420582911419
 20
-133.8055863344905
 30
0.0
 11
162.5420582911418
 21
-133.8055863344905
 31
0.0
  0
LINE
  5
2D1
330
2
100
AcDbEntity
  8
Glazing
  6
Continuous
100
AcDbLine
 10
160.5420582911419
 20
-134.3055863344905
 30
0.0
 11
162.6836361420761
 21
-134.3055863344905
 31
0.0
  0
LINE
  5
2D2
330
2
100
AcDbEntity
  8
Glazing
  6
Continuous
100
AcDbLine
 10
160.5420582911419
 20
-134.5555863344905
 30
0.0
 11
162.5420582911418
 21
-134.5555863344905
 31
0.0
  0
LINE
  5
2D3
330
2
100
AcDbEntity
  8
Glazing
  6
Continuous
100
AcDbLine
 10
160.5420582911419
 20
-134.6155863344905
 30
0.0
 11
162.5420582911418
 21
-134.6155863344905
 31
0.0
  0
LINE
  5
2D4
330
2
100
AcDbEntity
  8
Glazing
  6
Continuous
100
AcDbLine
 10
160.5420582911419
 20
-134.8655863344905
 30
0.0
 11
162.5420582911418
 21
-134.8655863344905
 31
0.0
  0
LINE
  5
2D5
330
2
100
AcDbEntity
  8
Glazing
  6
Continuous
100
AcDbLine
 10
161.0420582911418
 20
-133.8055863344905
 30
0.0
 11
161.0420582911418
 21
-134.3055863344905
 31
0.0
  0
LINE
  5
2D6
330
2
100
AcDbEntity
  8
0
  6
Continuous
100
AcDbLine
 10
160.5420582911419
 20
-133.8055863344905
 30
0.0
 11
161.0420582911418
 21
-134.3055863344905
 31
0.0
  0
LINE
  5
2D7
330
2
100
AcDbEntity
  8
0
  6
Continuous
100
AcDbLine
 10
161.0420582911418
 20
-133.8055863344905
 30
0.0
 11
160.5420582911419
 21
-134.3055863344905
 31
0.0
  0
LINE
  5
2D8
330
2
100
AcDbEntity
  8
0
  6
Continuous
100
AcDbLine
 10
162.2920582911419
 20
-134.0428341059937
 30
0.0
 11
162.7920582911418
 21
-134.3783385629873
 31
0.0
  0
LINE
  5
2D9
330
2
100
AcDbEntity
  8
0
  6
Continuous
100
AcDbLine
 10
162.7920582911418
 20
-134.3783385629873
 30
0.0
 11
162.5420582911418
 21
-134.3783385629873
 31
0.0
  0
LINE
  5
2DA
330
2
100
AcDbEntity
  8
0
  6
Continuous
100
AcDbLine
 10
162.5420582911418
 20
-134.0428341059937
 30
0.0
 11
162.2920582911419
 21
-134.0428341059937
 31
0.0
  0
LINE
  5
2DB
330
2
100
AcDbEntity
  8
0
  6
Continuous
 62
     0
100
AcDbLine
 10
162.5420582911419
 20
-134.3783385629873
 30
0.0
 11
162.5420582911418
 21
-134.9605863344905
 31
0.0
  0
LINE
  5
2DC
330
2
100
AcDbEntity
  8
0
  6
Continuous
 62
     0
100
AcDbLine
 10
162.5420582911419
 20
-133.4605863344905
 30
0.0
 11
162.5420582911419
 21
-134.0428341059937
 31
0.0
  0
INSERT
  5
2DD
330
2
100
AcDbEntity
  8
0
  6
Continuous
 62
     0
100
AcDbBlockReference
  2
epdm
 10
156.9229092957372
 20
-128.2471173215636
 30
0.0
 50
180.0
  0
INSERT
  5
2DE
330
2
100
AcDbEntity
  8
0
  6
Continuous
 62
     0
100
AcDbBlockReference
  2
epdm
 10
156.9721092569353
 20
-140.1740553474175
 30
0.0
 41
-1.0
  0
LEADER
  5
2DF
330
2
100
AcDbEntity
  8
0
  6
Continuous
100
AcDbLeader
  3
STANDARD
 73
     0
 40
0.1938949522510232
 41
3.088761937244202
 76
     2
 10
160.798256564275
 20
-135.0585101392455
 30
0.0
 10
163.9063621595342
 20
-135.0585101392455
 30
0.0
340
4F
213
0.0
223
-0.09375
233
0.0
1001
ACAD
1000
DSTYLE
1002
{
1070
   147
1040
0.09
1070
    77
1070
     0
1002
}
  0
LEADER
  5
2E0
330
2
100
AcDbEntity
  8
0
  6
Continuous
100
AcDbLeader
  3
STANDARD
 73
     0
 40
0.2458219645293315
 41
3.97919508867667
 76
     2
 10
161.2721295127933
 20
-133.7113180595674
 30
0.0
 10
163.9063621595342
 20
-133.7113180595674
 30
0.0
340
4D
213
0.0
223
-0.09375
233
0.0
1001
ACAD
1000
DSTYLE
1002
{
1070
   147
1040
0.09
1070
    77
1070
     0
1002
}
  0
LEADER
  5
2E1
330
2
100
AcDbEntity
  8
0
  6
Continuous
100
AcDbLeader
  3
STANDARD
 73
     0
 40
0.1938949522510232
 41
3.511596180081855
 76
     2
 10
160.9116856065063
 20
-133.3143760242356
 30
0.0
 10
163.9063621595342
 20
-133.3143760242356
 30
0.0
340
4C
213
0.0
223
-0.09375
233
0.0
1001
ACAD
1000
DSTYLE
1002
{
1070
   147
1040
0.09
1070
    77
1070
     0
1002
}
  0
LEADER
  5
2E2
330
2
100
AcDbEntity
  8
0
  6
Continuous
100
AcDbLeader
  3
STANDARD
 73
     0
 40
0.1938949522510232
 41
2.783850613915415
 76
     2
 10
161.0221206687038
 20
-133.0487883892784
 30
0.0
 10
163.9063621595342
 20
-133.0487883892784
 30
0.0
340
4B
213
0.0
223
-0.09375
233
0.0
1001
ACAD
1000
DSTYLE
1002
{
1070
   147
1040
0.09
1070
    77
1070
     0
1002
}
  0
LEADER
  5
2E3
330
2
100
AcDbEntity
  8
0
  6
Continuous
100
AcDbLeader
  3
STANDARD
 73
     0
 40
0.1940228512960437
 41
3.243391882673943
 76
     2
 10
161.2920582911419
 20
-138.798139328993
 30
0.0
 10
163.9063621595342
 20
-138.798139328993
 30
0.0
340
52
213
0.0
223
-0.09375
233
0.0
1001
ACAD
1000
DSTYLE
1002
{
1070
   147
1040
0.09
1070
    77
1070
     0
1002
}
  0
LEADER
  5
2E4
330
2
100
AcDbEntity
  8
0
  6
Continuous
100
AcDbLeader
  3
STANDARD
 73
     0
 40
0.1938949522510232
 41
2.489938608458389
 76
     2
 10
161.0420582911418
 20
-137.1298706084311
 30
0.0
 10
163.9063621595342
 20
-137.1298706084311
 30
0.0
340
51
213
0.0
223
-0.09375
233
0.0
1001
ACAD
1000
DSTYLE
1002
{
1070
   147
1040
0.09
1070
    77
1070
     0
1002
}
  0
LINE
  5
2E5
330
2
100
AcDbEntity
  8
.050 Flashing
  6
Continuous
100
AcDbLine
 10
158.0871976940639
 20
-128.9983206421521
 30
0.0
 11
158.1371976940639
 21
-128.9983206421521
 31
0.0
  0
TEXT
  5
2E6
330
2
100
AcDbEntity
  8
0
  6
Continuous
100
AcDbText
 10
164.2344851657502
 20
-137.3762985941574
 30
0.0
 40
0.1082863998362349
  1
-800-972-9112-
100
AcDbText
  0
ARC
  5
2EF
330
2
100
AcDbEntity
  8
.050 Flashing
  6
Continuous
100
AcDbCircle
 10
158.4820582911419
 20
-133.047356824231
 30
0.0
 40
0.01
100
AcDbArc
 50
359.9999999999886
 51
90.0
  0
ARC
  5
2F0
330
2
100
AcDbEntity
  8
.050 Flashing
  6
Continuous
100
AcDbCircle
 10
158.5320582911419
 20
-132.9973568242311
 30
0.0
 40
0.01
100
AcDbArc
 50
359.9999999999857
 51
90.0
  0
ARC
  5
2F1
330
2
100
AcDbEntity
  8
.050 Flashing
  6
Continuous
100
AcDbCircle
 10
158.1471976940639
 20
-132.9773568242311
 30
0.0
 40
0.01
100
AcDbArc
 50
180.0000000000008
 51
270.0
  0
ARC
  5
2F2
330
2
100
AcDbEntity
  8
.050 Flashing
  6
Continuous
100
AcDbCircle
 10
158.0971976940638
 20
-133.0273568242311
 30
0.0
 40
0.01
100
AcDbArc
 50
180.0000000000004
 51
270.0000000000041
  0
ARC
  5
2F3
330
2
100
AcDbEntity
  8
.050 Flashing
  6
Continuous
100
AcDbCircle
 10
158.5520582911418
 20
-133.5455863344906
 30
0.0
 40
0.01
100
AcDbArc
 50
179.9999999999825
 51
270.0
  0
ARC
  5
2F4
330
2
100
AcDbEntity
  8
.050 Flashing
  6
Continuous
100
AcDbCircle
 10
158.5020582911417
 20
-133.5955863344905
 30
0.0
 40
0.01
100
AcDbArc
 50
179.9999999999912
 51
269.9999999999944
  0
ARC
  5
2F5
330
2
100
AcDbEntity
  8
.050 Flashing
  6
Continuous
100
AcDbCircle
 10
159.644134014898
 20
-133.6155863344906
 30
0.0
 40
0.01
100
AcDbArc
 50
359.9999999999987
 51
89.99999999999435
  0
ARC
  5
2F6
330
2
100
AcDbEntity
  8
.050 Flashing
  6
Continuous
100
AcDbCircle
 10
159.694134014898
 20
-133.5655863344906
 30
0.0
 40
0.01
100
AcDbArc
 50
0.0
 51
90.0
  0
ARC
  5
2F7
330
2
100
AcDbEntity
  8
.050 Flashing
  6
Continuous
100
AcDbCircle
 10
159.644134014898
 20
-134.8055863344905
 30
0.0
 40
0.01
100
AcDbArc
 50
270.0000000000025
 51
359.9999999999973
  0
ARC
  5
2F8
330
2
100
AcDbEntity
  8
.050 Flashing
  6
Continuous
100
AcDbCircle
 10
159.694134014898
 20
-134.8555863344905
 30
0.0
 40
0.01
100
AcDbArc
 50
270.0
 51
0.0
  0
LINE
  5
2F9
330
2
100
AcDbEntity
  8
0
  6
Continuous
100
AcDbLine
 10
158.4204986504583
 20
-131.7234128424783
 30
0.0
 11
159.0677783507364
 21
-130.8110654045527
 31
0.0
  0
LINE
  5
2FA
330
2
100
AcDbEntity
  8
0
  6
Continuous
100
AcDbLine
 10
159.0654087909514
 20
-130.7971231957455
 30
0.0
 11
158.4204986504581
 21
-130.33958122753
 31
0.0
  0
LINE
  5
2FB
330
2
100
AcDbEntity
  8
0
  6
Continuous
100
AcDbLine
 10
158.4162849749693
 20
-130.3314253432339
 30
0.0
 11
158.4162849749695
 21
-128.7583206421522
 31
0.0
  0
LINE
  5
2FC
330
2
100
AcDbEntity
  8
0
  6
Continuous
100
AcDbLine
 10
158.4762849749697
 20
-130.3004268003229
 30
0.0
 11
158.4762849749694
 21
-128.7583206421522
 31
0.0
  0
LINE
  5
2FD
330
2
100
AcDbEntity
  8
0
  6
Continuous
100
AcDbLine
 10
159.1490620437949
 20
-130.7829058370352
 30
0.0
 11
158.4804986504585
 21
-130.308582684619
 31
0.0
  0
LINE
  5
2FE
330
2
100
AcDbEntity
  8
0
  6
Continuous
100
AcDbLine
 10
158.4694339562352
 20
-131.7581307895449
 30
0.0
 11
159.15143160358
 21
-130.7968480458425
 31
0.0
  0
ARC
  5
301
330
2
100
AcDbEntity
  8
0
  6
Continuous
100
AcDbCircle
 10
159.1432757192838
 20
-130.7910617213313
 30
0.0
 40
0.01
100
AcDbArc
 50
324.6455860880479
 51
54.64558608804827
  0
ARC
  5
302
330
2
100
AcDbEntity
  8
0
  6
Continuous
100
AcDbCircle
 10
159.0596224664403
 20
-130.8052790800416
 30
0.0
 40
0.01
100
AcDbArc
 50
324.6455860880479
 51
54.64558608804827
  0
LINE
  5
308
330
2
100
AcDbEntity
  8
0
  6
Continuous
100
AcDbLine
 10
158.4204986504583
 20
-131.7234128424783
 30
0.0
 11
158.4694339562352
 21
-131.7581307895449
 31
0.0
  0
MTEXT
  5
309
102
{ACAD_REACTORS
330
30A
102
}
330
2
100
AcDbEntity
  8
0
  6
Continuous
100
AcDbMText
 10
163.9963621595342
 20
-129.6609317147944
 30
0.0
 40
0.1875
 41
4.975
 71
     1
 72
     1
  1
COUNTER FLASHING BY OTHERS
 73
     1
 44
1.0
1001
ACAD
1000
MTEXTBEGIN
1070
    73
1070
     1
1070
    44
1040
1.0
1070
    74
1070
     0
1000
MTEXTEND
  0
LEADER
  5
30A
330
2
100
AcDbEntity
  8
0
  6
Continuous
100
AcDbLeader
  3
STANDARD
 73
     0
 40
0.1940228512960437
 41
4.237551159618007
 76
     2
 10
158.4762849749696
 20
-129.7546817147945
 30
0.0
 10
163.9063621595342
 20
-129.7546817147944
 30
0.0
340
309
213
0.0
223
-0.09375
233
0.0
1001
ACAD
1000
DSTYLE
1002
{
1070
   147
1040
0.09
1070
    77
1070
     0
1002
}
  0
ARC
  5
30B
330
2
100
AcDbEntity
  8
0
  6
Continuous
100
AcDbCircle
 10
158.4262849749693
 20
-130.3314253432339
 30
0.0
 40
0.01
100
AcDbArc
 50
179.9999999999943
 51
234.645586088046
  0
ARC
  5
30C
330
2
100
AcDbEntity
  8
0
  6
Continuous
100
AcDbCircle
 10
158.4862849749696
 20
-130.3004268003229
 30
0.0
 40
0.01
100
AcDbArc
 50
180.000000000008
 51
234.6455860880474
  0
ENDSEC
  0
SECTION
  2
OBJECTS
  0
DICTIONARY
  5
9
330
0
100
AcDbDictionary
281
     1
  3
ACAD_COLOR
350
30
  3
ACAD_GROUP
350
2C
  3
ACAD_LAYOUT
350
D
  3
ACAD_MATERIAL
350
2F
  3
ACAD_MLINESTYLE
350
2D
  3
ACAD_PLOTSETTINGS
350
2E
  3
ACAD_PLOTSTYLENAME
350
8
  3
ACDBHEADERROUNDTRIPXREC
350
324
  3
AcDbVariableDictionary
350
31F
  0
DICTIONARY
  5
15
330
14
100
AcDbDictionary
280
     1
281
     1
  3
ACAD_LAYERFILTERS
360
16
  3
ACAD_LAYERSTATES
360
1A
  0
DICTIONARY
  5
3
330
2
100
AcDbDictionary
280
     1
281
     1
  3
ACAD_LAYOUTSELFREF
360
4
  0
DICTIONARY
  5
F
330
E
100
AcDbDictionary
280
     1
281
     1
  3
ACAD_LAYOUTSELFREF
360
10
  0
DICTIONARY
  5
30
102
{ACAD_REACTORS
330
9
102
}
330
9
100
AcDbDictionary
281
     1
  0
DICTIONARY
  5
2C
102
{ACAD_REACTORS
330
9
102
}
330
9
100
AcDbDictionary
281
     1
  0
DICTIONARY
  5
D
102
{ACAD_REACTORS
330
9
102
}
330
9
100
AcDbDictionary
281
     1
  3
Layout1
350
13
  3
Model
350
C
  0
DICTIONARY
  5
2F
102
{ACAD_REACTORS
330
9
102
}
330
9
100
AcDbDictionary
281
     1
  0
DICTIONARY
  5
2D
102
{ACAD_REACTORS
330
9
102
}
330
9
100
AcDbDictionary
281
     1
  3
STANDARD
350
31
  0
DICTIONARY
  5
2E
102
{ACAD_REACTORS
330
9
102
}
330
9
100
AcDbDictionary
281
     1
  0
ACDBDICTIONARYWDFLT
  5
8
102
{ACAD_REACTORS
330
9
102
}
330
9
100
AcDbDictionary
281
     1
  3
Normal
350
7
100
AcDbDictionaryWithDefault
340
7
  0
DICTIONARY
  5
324
102
{ACAD_REACTORS
330
9
102
}
330
9
100
AcDbDictionary
281
     1
  3
COLORDICT
350
326
  3
MATERIALDICT
350
325
  0
DICTIONARY
  5
31F
102
{ACAD_REACTORS
330
9
102
}
330
9
100
AcDbDictionary
281
     1
  3
DIMASSOC
350
321
  3
HIDETEXT
350
320
  3
PROJECTNAME
350
322
  0
DICTIONARY
  5
16
102
{ACAD_REACTORS
330
15
102
}
330
15
100
AcDbDictionary
280
     1
281
     1
  3
clg
360
17
  3
Roof
360
18
  3
sk
360
19
  0
DICTIONARY
  5
1A
102
{ACAD_REACTORS
330
15
102
}
330
15
100
AcDbDictionary
281
     1
  0
XRECORD
  5
4
102
{ACAD_REACTORS
330
3
102
}
330
3
100
AcDbXrecord
280
     1
340
2
  0
XRECORD
  5
10
102
{ACAD_REACTORS
330
F
102
}
330
F
100
AcDbXrecord
280
     1
340
E
  0
LAYOUT
  5
13
102
{ACAD_XDICTIONARY
360
329
102
}
102
{ACAD_REACTORS
330
D
102
}
330
D
100
AcDbPlotSettings
  1

  2
HP DesignJet 430 Plotter
  4

  6

 40
0.0
 41
0.0
 42
0.0
 43
0.0
 44
0.0
 45
0.0
 46
0.0
 47
0.0
 48
0.0
 49
0.0
140
0.0
141
0.0
142
1.0
143
1.0
 70
   688
 72
     0
 73
     0
 74
     5
  7
acad.ctb
 75
    16
147
1.0
148
0.0
149
0.0
100
AcDbLayout
  1
Layout1
 70
     1
 71
     1
 10
0.0
 20
0.0
 11
11.0
 21
8.5
 12
0.0
 22
0.0
 32
0.0
 14
0.0
 24
0.0
 34
0.0
 15
11.0
 25
8.5
 35
0.0
146
0.0
 13
0.0
 23
0.0
 33
0.0
 16
1.0
 26
0.0
 36
0.0
 17
0.0
 27
1.0
 37
0.0
 76
     0
330
E
  0
LAYOUT
  5
C
102
{ACAD_XDICTIONARY
360
327
102
}
102
{ACAD_REACTORS
330
D
102
}
330
D
100
AcDbPlotSettings
  1

  2
Brother MFC9700
  4
Letter
  6

 40
7.143749713897705
 41
5.027085304260253
 42
7.14373779296875
 43
5.027069091796875
 44
215.8999938964844
 45
279.3999938964844
 46
17.272
 47
0.0
 48
0.0
 49
0.0
140
0.0
141
0.0
142
1.0
143
0.1454883688845959
 70
 11956
 72
     0
 73
     1
 74
     0
  7
acad.ctb
 75
     0
147
6.873401686104671
148
-475.9428163058331
149
1456.585280992969
100
AcDbLayout
  1
Model
 70
     1
 71
     0
 10
0.0
 20
0.0
 11
12.0
 21
9.0
 12
0.0
 22
0.0
 32
0.0
 14
0.0
 24
0.0
 34
0.0
 15
0.0
 25
0.0
 35
0.0
146
0.0
 13
0.0
 23
0.0
 33
0.0
 16
1.0
 26
0.0
 36
0.0
 17
0.0
 27
1.0
 37
0.0
 76
     0
330
2
  0
MLINESTYLE
  5
31
102
{ACAD_REACTORS
330
2D
102
}
330
2D
100
AcDbMlineStyle
  2
STANDARD
 70
     0
  3

 62
   256
 51
90.0
 52
90.0
 71
     2
 49
0.5
 62
   256
  6
BYLAYER
 49
-0.5
 62
   256
  6
BYLAYER
  0
ACDBPLACEHOLDER
  5
7
102
{ACAD_REACTORS
330
8
102
}
330
8
  0
XRECORD
  5
326
102
{ACAD_REACTORS
330
324
102
}
330
324
100
AcDbXrecord
280
     1
340
30
  0
XRECORD
  5
325
102
{ACAD_REACTORS
330
324
102
}
330
324
100
AcDbXrecord
280
     1
340
2F
  0
DICTIONARYVAR
  5
321
102
{ACAD_REACTORS
330
31F
102
}
330
31F
100
DictionaryVariables
280
     0
  1
1
  0
DICTIONARYVAR
  5
320
102
{ACAD_REACTORS
330
31F
102
}
330
31F
100
DictionaryVariables
280
     0
  1
1
  0
DICTIONARYVAR
  5
322
102
{ACAD_REACTORS
330
31F
102
}
330
31F
100
DictionaryVariables
280
     0
  1

  0
XRECORD
  5
17
102
{ACAD_REACTORS
330
16
102
}
330
16
100
AcDbXrecord
280
     1
  1
clg
  1
a-c*
  1
*
  1
*
 70
     0
  1
*
  1
*
  0
XRECORD
  5
18
102
{ACAD_REACTORS
330
16
102
}
330
16
100
AcDbXrecord
280
     1
  1
Roof
  1
a-roo*.*
  1
*
  1
*
 70
     0
  1
*
  1
*
  0
XRECORD
  5
19
102
{ACAD_REACTORS
330
16
102
}
330
16
100
AcDbXrecord
280
     1
  1
sk
  1
*sketch
  1
*
  1
*
 70
     0
  1
*
  1
*
  0
DICTIONARY
  5
329
330
13
100
AcDbDictionary
280
     1
281
     1
  3
ACAD_XREC_ROUNDTRIP
360
32A
  0
DICTIONARY
  5
327
330
C
100
AcDbDictionary
280
     1
281
     1
  3
ACAD_XREC_ROUNDTRIP
360
328
  0
XRECORD
  5
32A
102
{ACAD_REACTORS
330
329
102
}
330
329
100
AcDbXrecord
280
     1
102
SHADEPLOT
 70
     0
102
SHADEPLOTRESLEVEL
 70
     2
102
SHADEPLOTCUSTOMDPI
 70
   300
  0
XRECORD
  5
328
102
{ACAD_REACTORS
330
327
102
}
330
327
100
AcDbXrecord
280
     1
102
SHADEPLOT
 70
     0
102
SHADEPLOTRESLEVEL
 70
     2
102
SHADEPLOTCUSTOMDPI
 70
   300
  0
ENDSEC
  0
EOF
