  0
SECTION
  2
HEADER
  9
$ACADVER
  1
AC1015
  9
$ACADMAINTVER
 70
    20
  9
$DWGCODEPAGE
  3
ANSI_1252
  9
$INSBASE
 10
0.0
 20
0.0
 30
0.0
  9
$EXTMIN
 10
134.2111827468163
 20
-109.4427510924869
 30
-0.0015258207003583
  9
$EXTMAX
 10
171.4713141511558
 20
-96.59351281601994
 30
0.0000000349246037
  9
$LIMMIN
 10
0.0
 20
0.0
  9
$LIMMAX
 10
408.0
 20
264.0
  9
$ORTHOMODE
 70
     1
  9
$REGENMODE
 70
     1
  9
$FILLMODE
 70
     1
  9
$QTEXTMODE
 70
     0
  9
$MIRRTEXT
 70
     1
  9
$LTSCALE
 40
0.25
  9
$ATTMODE
 70
     1
  9
$TEXTSIZE
 40
0.1875
  9
$TRACEWID
 40
0.05
  9
$TEXTSTYLE
  7
STANDARD
  9
$CLAYER
  8
0
  9
$CELTYPE
  6
CONTINUOUS
  9
$CECOLOR
 62
   256
  9
$CELTSCALE
 40
1.0
  9
$DISPSILH
 70
     0
  9
$DIMSCALE
 40
1.0
  9
$DIMASZ
 40
0.125
  9
$DIMEXO
 40
0.0625
  9
$DIMDLI
 40
0.38
  9
$DIMRND
 40
0.0
  9
$DIMDLE
 40
0.0
  9
$DIMEXE
 40
0.09375
  9
$DIMTP
 40
0.0
  9
$DIMTM
 40
0.0
  9
$DIMTXT
 40
0.18
  9
$DIMCEN
 40
0.09
  9
$DIMTSZ
 40
0.0
  9
$DIMTOL
 70
     0
  9
$DIMLIM
 70
     0
  9
$DIMTIH
 70
     1
  9
$DIMTOH
 70
     1
  9
$DIMSE1
 70
     0
  9
$DIMSE2
 70
     0
  9
$DIMTAD
 70
     0
  9
$DIMZIN
 70
     0
  9
$DIMBLK
  1

  9
$DIMASO
 70
     1
  9
$DIMSHO
 70
     1
  9
$DIMPOST
  1

  9
$DIMAPOST
  1

  9
$DIMALT
 70
     1
  9
$DIMALTD
 70
     4
  9
$DIMALTF
 40
1.0
  9
$DIMLFAC
 40
1.0
  9
$DIMTOFL
 70
     0
  9
$DIMTVP
 40
0.0
  9
$DIMTIX
 70
     0
  9
$DIMSOXD
 70
     0
  9
$DIMSAH
 70
     0
  9
$DIMBLK1
  1

  9
$DIMBLK2
  1

  9
$DIMSTYLE
  2
STANDARD
  9
$DIMCLRD
 70
     0
  9
$DIMCLRE
 70
     0
  9
$DIMCLRT
 70
     0
  9
$DIMTFAC
 40
1.0
  9
$DIMGAP
 40
0.09
  9
$DIMJUST
 70
     0
  9
$DIMSD1
 70
     0
  9
$DIMSD2
 70
     0
  9
$DIMTOLJ
 70
     1
  9
$DIMTZIN
 70
     0
  9
$DIMALTZ
 70
     0
  9
$DIMALTTZ
 70
     0
  9
$DIMUPT
 70
     0
  9
$DIMDEC
 70
     4
  9
$DIMTDEC
 70
     4
  9
$DIMALTU
 70
     5
  9
$DIMALTTD
 70
     4
  9
$DIMTXSTY
  7
STANDARD
  9
$DIMAUNIT
 70
     0
  9
$DIMADEC
 70
     8
  9
$DIMALTRND
 40
0.0
  9
$DIMAZIN
 70
     0
  9
$DIMDSEP
 70
    46
  9
$DIMATFIT
 70
     3
  9
$DIMFRAC
 70
     0
  9
$DIMLDRBLK
  1

  9
$DIMLUNIT
 70
     2
  9
$DIMLWD
 70
    -2
  9
$DIMLWE
 70
    -2
  9
$DIMTMOVE
 70
     0
  9
$LUNITS
 70
     4
  9
$LUPREC
 70
     5
  9
$SKETCHINC
 40
0.1
  9
$FILLETRAD
 40
0.01
  9
$AUNITS
 70
     0
  9
$AUPREC
 70
     1
  9
$MENU
  1
acad
  9
$ELEVATION
 40
0.0
  9
$PELEVATION
 40
0.0
  9
$THICKNESS
 40
0.0
  9
$LIMCHECK
 70
     0
  9
$CHAMFERA
 40
0.0
  9
$CHAMFERB
 40
0.0
  9
$CHAMFERC
 40
1.0
  9
$CHAMFERD
 40
0.0
  9
$SKPOLY
 70
     0
  9
$TDCREATE
 40
2453453.437640602
  9
$TDUCREATE
 40
2453453.770973935
  9
$TDUPDATE
 40
2453808.512902732
  9
$TDUUPDATE
 40
2453808.846236065
  9
$TDINDWG
 40
4.9486370023
  9
$TDUSRTIMER
 40
4.9486370023
  9
$USRTIMER
 70
     1
  9
$ANGBASE
 50
0.0
  9
$ANGDIR
 70
     0
  9
$PDMODE
 70
     0
  9
$PDSIZE
 40
0.0
  9
$PLINEWID
 40
0.0
  9
$SPLFRAME
 70
     0
  9
$SPLINETYPE
 70
     6
  9
$SPLINESEGS
 70
     8
  9
$HANDSEED
  5
2B4
  9
$SURFTAB1
 70
     6
  9
$SURFTAB2
 70
     6
  9
$SURFTYPE
 70
     6
  9
$SURFU
 70
     6
  9
$SURFV
 70
     6
  9
$UCSBASE
  2

  9
$UCSNAME
  2

  9
$UCSORG
 10
0.0
 20
0.0
 30
0.0
  9
$UCSXDIR
 10
1.0
 20
0.0
 30
0.0
  9
$UCSYDIR
 10
0.0
 20
1.0
 30
0.0
  9
$UCSORTHOREF
  2

  9
$UCSORTHOVIEW
 70
     1
  9
$UCSORGTOP
 10
0.0
 20
0.0
 30
0.0
  9
$UCSORGBOTTOM
 10
0.0
 20
0.0
 30
0.0
  9
$UCSORGLEFT
 10
0.0
 20
0.0
 30
0.0
  9
$UCSORGRIGHT
 10
0.0
 20
0.0
 30
0.0
  9
$UCSORGFRONT
 10
0.0
 20
0.0
 30
0.0
  9
$UCSORGBACK
 10
0.0
 20
0.0
 30
0.0
  9
$PUCSBASE
  2

  9
$PUCSNAME
  2

  9
$PUCSORG
 10
0.0
 20
0.0
 30
0.0
  9
$PUCSXDIR
 10
1.0
 20
0.0
 30
0.0
  9
$PUCSYDIR
 10
0.0
 20
1.0
 30
0.0
  9
$PUCSORTHOREF
  2

  9
$PUCSORTHOVIEW
 70
     0
  9
$PUCSORGTOP
 10
0.0
 20
0.0
 30
0.0
  9
$PUCSORGBOTTOM
 10
0.0
 20
0.0
 30
0.0
  9
$PUCSORGLEFT
 10
0.0
 20
0.0
 30
0.0
  9
$PUCSORGRIGHT
 10
0.0
 20
0.0
 30
0.0
  9
$PUCSORGFRONT
 10
0.0
 20
0.0
 30
0.0
  9
$PUCSORGBACK
 10
0.0
 20
0.0
 30
0.0
  9
$USERI1
 70
     0
  9
$USERI2
 70
     0
  9
$USERI3
 70
     0
  9
$USERI4
 70
     0
  9
$USERI5
 70
     0
  9
$USERR1
 40
0.0
  9
$USERR2
 40
0.0
  9
$USERR3
 40
0.0
  9
$USERR4
 40
0.0
  9
$USERR5
 40
0.0
  9
$WORLDVIEW
 70
     1
  9
$SHADEDGE
 70
     3
  9
$SHADEDIF
 70
    70
  9
$TILEMODE
 70
     1
  9
$MAXACTVP
 70
    48
  9
$PINSBASE
 10
0.0
 20
0.0
 30
0.0
  9
$PLIMCHECK
 70
     0
  9
$PEXTMIN
 10
0.0
 20
0.0
 30
0.0
  9
$PEXTMAX
 10
11.0
 20
8.5
 30
0.0
  9
$PLIMMIN
 10
0.0
 20
0.0
  9
$PLIMMAX
 10
11.0
 20
8.5
  9
$UNITMODE
 70
     0
  9
$VISRETAIN
 70
     1
  9
$PLINEGEN
 70
     0
  9
$PSLTSCALE
 70
     1
  9
$TREEDEPTH
 70
  3020
  9
$CMLSTYLE
  2
STANDARD
  9
$CMLJUST
 70
     0
  9
$CMLSCALE
 40
1.0
  9
$PROXYGRAPHICS
 70
     1
  9
$MEASUREMENT
 70
     0
  9
$CELWEIGHT
370
    -1
  9
$ENDCAPS
280
     0
  9
$JOINSTYLE
280
     0
  9
$LWDISPLAY
290
     0
  9
$INSUNITS
 70
     0
  9
$HYPERLINKBASE
  1

  9
$STYLESHEET
  1

  9
$XEDIT
290
     1
  9
$CEPSNTYPE
380
     0
  9
$PSTYLEMODE
290
     1
  9
$FINGERPRINTGUID
  2
{429355A8-7BC6-4FCE-9B99-57A0ED0E2088}
  9
$VERSIONGUID
  2
{CD3AF67C-BD0F-4F40-896B-385B5377534F}
  9
$EXTNAMES
290
     1
  9
$PSVPSCALE
 40
0.0
  9
$OLESTARTUP
290
     0
  0
ENDSEC
  0
SECTION
  2
CLASSES
  0
CLASS
  1
DICTIONARYVAR
  2
AcDbDictionaryVar
  3
ObjectDBX Classes
 90
        0
280
     0
281
     0
  0
CLASS
  1
ACDBDICTIONARYWDFLT
  2
AcDbDictionaryWithDefault
  3
ObjectDBX Classes
 90
        0
280
     0
281
     0
  0
CLASS
  1
ACDBPLACEHOLDER
  2
AcDbPlaceHolder
  3
ObjectDBX Classes
 90
        0
280
     0
281
     0
  0
CLASS
  1
LAYOUT
  2
AcDbLayout
  3
ObjectDBX Classes
 90
        0
280
     0
281
     0
  0
ENDSEC
  0
SECTION
  2
TABLES
  0
TABLE
  2
VPORT
  5
24
330
0
100
AcDbSymbolTable
 70
     3
  0
VPORT
  5
2AC
330
24
100
AcDbSymbolTableRecord
100
AcDbViewportTableRecord
  2
*Active
 70
     0
 10
0.0
 20
0.0
 11
1.0
 21
1.0
 12
152.8412484489861
 22
-103.0181319542534
 13
0.0
 23
0.0
 14
0.5
 24
0.5
 15
0.5
 25
0.5
 16
0.0
 26
0.0
 36
1.0
 17
0.0
 27
0.0
 37
0.0
 40
25.71698881389803
 41
1.45595238095238
 42
50.0
 43
0.0
 44
0.0
 50
0.0
 51
0.0
 71
     0
 72
   100
 73
     1
 74
     1
 75
     0
 76
     0
 77
     0
 78
     1
281
     0
 65
     1
110
0.0
120
0.0
130
0.0
111
1.0
121
0.0
131
0.0
112
0.0
122
1.0
132
0.0
 79
     0
146
0.0
  0
ENDTAB
  0
TABLE
  2
LTYPE
  5
1F
330
0
100
AcDbSymbolTable
 70
     5
  0
LTYPE
  5
20
330
1F
100
AcDbSymbolTableRecord
100
AcDbLinetypeTableRecord
  2
BYBLOCK
 70
     0
  3

 72
    65
 73
     0
 40
0.0
  0
LTYPE
  5
21
330
1F
100
AcDbSymbolTableRecord
100
AcDbLinetypeTableRecord
  2
BYLAYER
 70
     0
  3

 72
    65
 73
     0
 40
0.0
  0
LTYPE
  5
A
330
1F
100
AcDbSymbolTableRecord
100
AcDbLinetypeTableRecord
  2
CONTINUOUS
 70
     0
  3
Solid line
 72
    65
 73
     0
 40
0.0
  0
LTYPE
  5
35
330
1F
100
AcDbSymbolTableRecord
100
AcDbLinetypeTableRecord
  2
ACAD_ISO02W100
 70
     0
  3
ISO dash __ __ __ __ __ __ __ __ __ __ __ __ __
 72
    65
 73
     2
 40
15.0
 49
12.0
 74
     0
 49
-3.0
 74
     0
  0
LTYPE
  5
59
330
1F
100
AcDbSymbolTableRecord
100
AcDbLinetypeTableRecord
  2
CENTER
 70
     0
  3
Center ____ _ ____ _ ____ _ ____ _ ____ _ ____
 72
    65
 73
     4
 40
2.0
 49
1.25
 74
     0
 49
-0.25
 74
     0
 49
0.25
 74
     0
 49
-0.25
 74
     0
  0
LTYPE
  5
3C
330
1F
100
AcDbSymbolTableRecord
100
AcDbLinetypeTableRecord
  2
DASHED2
 70
     0
  3
Dashed (.5x) _ _ _ _ _ _ _ _ _ _ _ _ _ _ _ _ _
 72
    65
 73
     2
 40
0.375
 49
0.25
 74
     0
 49
-0.125
 74
     0
  0
LTYPE
  5
4F
330
1F
100
AcDbSymbolTableRecord
100
AcDbLinetypeTableRecord
  2
HIDDEN
 70
     0
  3
Hidden __ __ __ __ __ __ __ __ __ __ __ __ __ _
 72
    65
 73
     2
 40
0.375
 49
0.25
 74
     0
 49
-0.125
 74
     0
  0
ENDTAB
  0
TABLE
  2
LAYER
  5
14
102
{ACAD_XDICTIONARY
360
15
102
}
330
0
100
AcDbSymbolTable
 70
     5
  0
LAYER
  5
6
330
14
100
AcDbSymbolTableRecord
100
AcDbLayerTableRecord
  2
0
 70
     0
 62
     7
  6
CONTINUOUS
370
    -3
390
7
  0
LAYER
  5
258
330
14
100
AcDbSymbolTableRecord
100
AcDbLayerTableRecord
  2
.0625 Flashing
 70
     0
 62
    80
  6
CONTINUOUS
370
     5
390
7
  0
LAYER
  5
58
330
14
100
AcDbSymbolTableRecord
100
AcDbLayerTableRecord
  2
2
 70
     0
 62
     4
  6
CENTER
370
    -3
390
7
  0
LAYER
  5
34
330
14
100
AcDbSymbolTableRecord
100
AcDbLayerTableRecord
  2
HIDDEN
 70
     0
 62
     8
  6
ACAD_ISO02W100
370
    -3
390
7
  0
LAYER
  5
266
330
14
100
AcDbSymbolTableRecord
100
AcDbLayerTableRecord
  2
Glazing
 70
     0
 62
     5
  6
CONTINUOUS
370
    -3
390
7
  0
ENDTAB
  0
TABLE
  2
STYLE
  5
1B
330
0
100
AcDbSymbolTable
 70
     2
  0
STYLE
  5
1C
330
1B
100
AcDbSymbolTableRecord
100
AcDbTextStyleTableRecord
  2
STANDARD
 70
     0
 40
0.1875
 41
1.0
 50
0.0
 71
     0
 42
0.1875
  3
ARIAL.TTF
  4

1001
ACAD
1000
Arial
1071
       34
  0
STYLE
  5
2A
330
1B
100
AcDbSymbolTableRecord
100
AcDbTextStyleTableRecord
  2
ARCHITXT
 70
     0
 40
3.0
 41
1.0
 50
0.0
 71
     0
 42
3.0
  3
architxt.shx
  4

  0
ENDTAB
  0
TABLE
  2
VIEW
  5
22
330
0
100
AcDbSymbolTable
 70
     0
  0
ENDTAB
  0
TABLE
  2
UCS
  5
23
330
0
100
AcDbSymbolTable
 70
     0
  0
ENDTAB
  0
TABLE
  2
APPID
  5
26
330
0
100
AcDbSymbolTable
 70
     1
  0
APPID
  5
1D
330
26
100
AcDbSymbolTableRecord
100
AcDbRegAppTableRecord
  2
ACAD
 70
     0
  0
ENDTAB
  0
TABLE
  2
DIMSTYLE
  5
27
330
0
100
AcDbSymbolTable
 70
     2
100
AcDbDimStyleTable
 71
     2
340
28
340
29
  0
DIMSTYLE
105
28
330
27
100
AcDbSymbolTableRecord
100
AcDbDimStyleTableRecord
  2
STANDARD
 70
     0
 41
0.125
 44
0.09375
143
1.0
170
     1
171
     4
179
     8
273
     5
274
     4
340
1C
  0
DIMSTYLE
105
29
330
27
100
AcDbSymbolTableRecord
100
AcDbDimStyleTableRecord
  2
ARCHITXT_WS
 70
     0
 40
24.0
 41
0.1875
 43
0.375
 44
0.1875
140
0.125
141
0.0625
147
0.0625
174
     1
271
     5
272
     5
276
     2
277
     4
340
2A
  0
ENDTAB
  0
TABLE
  2
BLOCK_RECORD
  5
1
330
0
100
AcDbSymbolTable
 70
     0
  0
BLOCK_RECORD
  5
2
102
{ACAD_XDICTIONARY
360
3
102
}
330
1
100
AcDbSymbolTableRecord
100
AcDbBlockTableRecord
  2
*MODEL_SPACE
340
C
  0
BLOCK_RECORD
  5
E
102
{ACAD_XDICTIONARY
360
F
102
}
330
1
100
AcDbSymbolTableRecord
100
AcDbBlockTableRecord
  2
*PAPER_SPACE
340
13
  0
ENDTAB
  0
ENDSEC
  0
SECTION
  2
BLOCKS
  0
BLOCK
  5
5
330
2
100
AcDbEntity
  8
0
100
AcDbBlockBegin
  2
*MODEL_SPACE
 70
     0
 10
0.0
 20
0.0
 30
0.0
  3
*MODEL_SPACE
  1

  0
ENDBLK
  5
B
330
2
100
AcDbEntity
  8
0
100
AcDbBlockEnd
  0
BLOCK
  5
11
330
E
100
AcDbEntity
 67
     1
  8
0
100
AcDbBlockBegin
  2
*PAPER_SPACE
 70
     0
 10
0.0
 20
0.0
 30
0.0
  3
*PAPER_SPACE
  1

  0
ENDBLK
  5
12
330
E
100
AcDbEntity
 67
     1
  8
0
100
AcDbBlockEnd
  0
ENDSEC
  0
SECTION
  2
ENTITIES
  0
LINE
  5
32
330
2
100
AcDbEntity
  8
0
  6
Continuous
100
AcDbLine
 10
151.2275675631762
 20
-104.5127004407484
 30
0.0
 11
151.2275675631761
 21
-103.1364266264395
 31
0.0
  0
HATCH
  5
33
330
2
100
AcDbEntity
  8
HIDDEN
  6
Continuous
100
AcDbHatch
 10
0.0
 20
0.0
 30
0.0
210
0.0
220
0.0
230
1.0
  2
ANSI31
 70
     0
 71
     0
 91
       23
 92
        7
 72
     0
 73
     1
 93
        5
 10
162.1033505497264
 20
-102.9630621022348
 10
161.8533505497265
 20
-102.9630621022348
 10
161.8533505497265
 20
-104.7857384133192
 10
162.0733505497265
 20
-104.7857384133192
 10
162.1033505497264
 20
-104.7857384133192
 97
        0
 92
        7
 72
     0
 73
     1
 93
        4
 10
162.1033505497265
 20
-104.7857384133192
 10
161.8533505497265
 20
-104.7857384133192
 10
161.8533505497265
 20
-104.8190717466525
 10
162.1033505497265
 20
-104.8190717466525
 97
        0
 92
        7
 72
     0
 73
     1
 93
        4
 10
162.1033505497265
 20
-104.8190717466525
 10
161.8533505497265
 20
-104.8190717466525
 10
161.8533505497265
 20
-104.9419884133192
 10
162.1033505497265
 20
-104.9419884133192
 97
        0
 92
        7
 72
     0
 73
     1
 93
        4
 10
162.1033505497265
 20
-104.9419884133192
 10
161.8533505497265
 20
-104.9419884133192
 10
161.8533505497265
 20
-105.0649050799859
 10
162.1033505497265
 20
-105.0649050799859
 97
        0
 92
        7
 72
     0
 73
     1
 93
        5
 10
162.1033505497265
 20
-105.0649050799859
 10
161.8533505497265
 20
-105.0649050799859
 10
161.8533505497265
 20
-105.0982384133192
 10
162.0733505497265
 20
-105.0982384133192
 10
162.1033505497264
 20
-105.0982384133192
 97
        0
 92
        7
 72
     0
 73
     1
 93
        4
 10
162.1033505497265
 20
-105.0982384133192
 10
161.8533505497265
 20
-105.0982384133192
 10
161.8533505497265
 20
-106.1288673893068
 10
162.1033505497265
 20
-106.1288673893068
 97
        0
 92
        7
 72
     0
 73
     1
 93
        5
 10
162.1033505497265
 20
-106.1288673893068
 10
161.8533505497265
 20
-106.1288673893069
 10
161.8533505497265
 20
-106.1622007226402
 10
161.9133409637265
 20
-106.1622007226402
 10
162.1033505497265
 20
-106.1622007226402
 97
        0
 92
        7
 72
     0
 73
     1
 93
        4
 10
162.1033505497265
 20
-106.1622007226401
 10
161.8533505497265
 20
-106.1622007226402
 10
161.8533505497265
 20
-106.2851173893069
 10
162.1033505497265
 20
-106.2851173893069
 97
        0
 92
        7
 72
     0
 73
     1
 93
        5
 10
162.1033505497265
 20
-106.2851173893069
 10
161.8533505497265
 20
-106.2851173893069
 10
161.8533505497265
 20
-106.4080340559736
 10
161.9133409637265
 20
-106.4080340559736
 10
162.1033505497265
 20
-106.4080340559736
 97
        0
 92
        7
 72
     0
 73
     1
 93
        4
 10
162.1033505497265
 20
-106.4080340559736
 10
161.8533505497265
 20
-106.4080340559736
 10
161.8533505497265
 20
-106.4413673893069
 10
162.1033505497265
 20
-106.4413673893069
 97
        0
 92
        7
 72
     0
 73
     1
 93
        4
 10
162.1033505497265
 20
-106.4413673893069
 10
161.8533505497265
 20
-106.4413673893069
 10
161.8533505497265
 20
-107.0862353194952
 10
162.1033505497265
 20
-107.0862353194952
 97
        0
 92
        7
 72
     0
 73
     1
 93
        4
 10
167.9406611509558
 20
-106.8362353194952
 10
162.1033505497265
 20
-106.8362353194952
 10
162.1033505497265
 20
-107.0862353194952
 10
167.9406611509558
 20
-107.0862353194952
 97
        0
 92
        7
 72
     0
 73
     1
 93
        5
 10
168.1906611509559
 20
-106.4413673893069
 10
167.9706611509558
 20
-106.4413673893069
 10
167.9406611509558
 20
-106.4413673893069
 10
167.9406611509558
 20
-107.0862353194952
 10
168.1906611509558
 20
-107.0862353194952
 97
        0
 92
        7
 72
     0
 73
     1
 93
        5
 10
168.1906611509559
 20
-106.4080340559736
 10
168.1306707369558
 20
-106.4080340559736
 10
167.9406611509558
 20
-106.4080340559736
 10
167.9406611509558
 20
-106.4413673893068
 10
168.1906611509559
 20
-106.4413673893069
 97
        0
 92
        7
 72
     0
 73
     1
 93
        4
 10
168.1906611509559
 20
-106.2851173893069
 10
167.9406611509558
 20
-106.2851173893069
 10
167.9406611509558
 20
-106.4080340559736
 10
168.1906611509558
 20
-106.4080340559736
 97
        0
 92
        7
 72
     0
 73
     1
 93
        5
 10
168.1906611509558
 20
-106.1622007226401
 10
168.1306707369558
 20
-106.1622007226402
 10
167.9406611509558
 20
-106.1622007226402
 10
167.9406611509558
 20
-106.2851173893069
 10
168.1906611509558
 20
-106.2851173893069
 97
        0
 92
        7
 72
     0
 73
     1
 93
        5
 10
168.1906611509559
 20
-106.1288673893069
 10
167.9706611509558
 20
-106.1288673893069
 10
167.9406611509558
 20
-106.1288673893069
 10
167.9406611509558
 20
-106.1622007226402
 10
168.1906611509558
 20
-106.1622007226402
 97
        0
 92
        7
 72
     0
 73
     1
 93
        5
 10
168.1906611509558
 20
-105.0982384133192
 10
167.9706611509558
 20
-105.0982384133192
 10
167.9406611509558
 20
-105.0982384133192
 10
167.9406611509558
 20
-106.1288673893068
 10
168.1906611509559
 20
-106.1288673893069
 97
        0
 92
        7
 72
     0
 73
     1
 93
        5
 10
168.1906611509558
 20
-105.0649050799859
 10
168.1306707369558
 20
-105.0649050799859
 10
167.9406611509558
 20
-105.0649050799859
 10
167.9406611509558
 20
-105.0982384133192
 10
168.1906611509558
 20
-105.0982384133192
 97
        0
 92
        7
 72
     0
 73
     1
 93
        4
 10
168.1906611509558
 20
-104.9419884133192
 10
167.9406611509558
 20
-104.9419884133192
 10
167.9406611509558
 20
-105.0649050799859
 10
168.1906611509558
 20
-105.0649050799859
 97
        0
 92
        7
 72
     0
 73
     1
 93
        5
 10
168.1906611509558
 20
-104.8190717466525
 10
168.1306707369558
 20
-104.8190717466525
 10
167.9406611509558
 20
-104.8190717466525
 10
167.9406611509558
 20
-104.9419884133192
 10
168.1906611509558
 20
-104.9419884133192
 97
        0
 92
        7
 72
     0
 73
     1
 93
        5
 10
168.1906611509558
 20
-104.7857384133192
 10
167.9706611509558
 20
-104.7857384133192
 10
167.9406611509558
 20
-104.7857384133192
 10
167.9406611509558
 20
-104.8190717466525
 10
168.1906611509558
 20
-104.8190717466525
 97
        0
 92
        7
 72
     0
 73
     1
 93
        4
 10
168.1906611509558
 20
-102.9630621022348
 10
167.9406611509558
 20
-102.9630621022348
 10
167.9406611509558
 20
-104.7857384133192
 10
168.1906611509558
 20
-104.7857384133192
 97
        0
 75
     0
 76
     1
 52
0.0
 41
1.0
 77
     0
 78
     1
 53
45.0
 43
2.759450978738755
 44
14.3899394776065
 45
-0.0883883476483184
 46
0.0883883476483185
 79
     0
 47
0.0131184425082193
 98
       23
 10
161.9544497164817
 20
-104.1472611562474
 10
161.989036922077
 20
-104.7997314726863
 10
162.0010571059335
 20
-104.8688212462265
 10
162.0100721199321
 20
-104.9949847365446
 10
162.0130767942146
 20
-105.0790937300901
 10
162.0130767942146
 20
-105.1601988796345
 10
162.0165601944343
 20
-106.1545393197709
 10
162.0165601944343
 20
-106.2051175855493
 10
162.0207765508247
 20
-106.3547450969681
 10
162.0397506501575
 20
-106.4221826712129
 10
162.0418588283528
 20
-106.4769761895816
 10
162.7838171282327
 20
-106.964547213435
 10
168.0507281718571
 20
-106.7255872535086
 10
168.1230063724313
 20
-106.4250803169898
 10
168.1192241401826
 20
-106.3759296004172
 10
168.1135507918095
 20
-106.2095728052807
 10
168.1022040950632
 20
-106.1490793014569
 10
168.0908573983171
 20
-106.0810242798446
 10
168.1285736676465
 20
-105.0806798958742
 10
168.1264060203907
 20
-105.0026643658196
 10
168.1112305072984
 20
-104.8704707224904
 10
168.0982231370373
 20
-104.801123622484
 10
168.096054994206
 20
-104.7577814722431
  0
LINE
  5
36
330
2
100
AcDbEntity
  8
0
  6
Continuous
100
AcDbLine
 10
167.9406611509558
 20
-102.9630621022348
 30
0.0
 11
167.9406611509558
 21
-107.0862353194952
 31
0.0
  0
LINE
  5
37
330
2
100
AcDbEntity
  8
0
  6
Continuous
100
AcDbLine
 10
162.1033505497265
 20
-102.9630621022348
 30
0.0
 11
162.1033505497265
 21
-107.0862353194952
 31
0.0
  0
HATCH
  5
38
330
2
100
AcDbEntity
  8
0
  6
Continuous
100
AcDbHatch
 10
0.0
 20
0.0
 30
0.0
210
0.0
220
0.0
230
1.0
  2
ANSI31
 70
     0
 71
     0
 91
        4
 92
        7
 72
     0
 73
     1
 93
       21
 10
143.8499656531546
 20
-100.094045140134
 10
146.267858871968
 20
-100.0940451401338
 10
147.9775675631761
 20
-101.8037538313417
 10
147.9775675631762
 20
-104.2216470501551
 10
146.2678588719684
 20
-105.9313557413632
 10
143.849965653155
 20
-105.9313557413633
 10
142.1402569619469
 20
-104.2216470501554
 10
142.1402569619468
 20
-103.1689504407487
 10
141.8902569619468
 20
-103.1689504407487
 10
141.8902569619469
 20
-104.3252004407487
 10
143.7464122625617
 20
-106.1813557413633
 10
146.3714122625616
 20
-106.1813557413632
 10
148.2275675631763
 20
-104.3252004407484
 10
148.2275675631761
 20
-101.7002004407484
 10
146.3714122625613
 20
-99.84404514013384
 10
143.7464122625614
 20
-99.84404514013398
 10
141.8902569619468
 20
-101.7002004407487
 10
141.8902569619468
 20
-102.8564504407487
 10
142.1402569619468
 20
-102.8564504407486
 10
142.1402569619468
 20
-102.6727004407487
 10
142.1402569619468
 20
-101.803753831342
 97
        0
 92
       23
 72
     0
 73
     1
 93
        4
 10
142.1402569619468
 20
-102.8564504407487
 10
141.8902569619469
 20
-102.8564504407487
 10
141.8902569619469
 20
-102.889783774082
 10
142.1402569619468
 20
-102.889783774082
 97
        0
 92
       23
 72
     0
 73
     1
 93
        4
 10
142.1402569619468
 20
-102.889783774082
 10
141.8902569619468
 20
-102.889783774082
 10
141.8902569619469
 20
-103.1356171074154
 10
142.1402569619468
 20
-103.1356171074154
 97
        0
 92
       23
 72
     0
 73
     1
 93
        4
 10
142.1402569619468
 20
-103.1356171074154
 10
141.8902569619468
 20
-103.1356171074154
 10
141.8902569619468
 20
-103.1689504407486
 10
142.1402569619468
 20
-103.1689504407486
 97
        0
 75
     0
 76
     1
 52
0.0
 41
0.75
 77
     0
 78
     1
 53
45.0
 43
-17.2036426090408
 44
2.471228032130909
 45
-0.0662912607362388
 46
0.0662912607362388
 79
     0
 47
0.0062340533424704
 98
        4
 10
142.3727322049343
 20
-101.4359881492254
 10
142.0967457110198
 20
-102.8715338769958
 10
142.0967457110198
 20
-102.9570489758748
 10
142.0830584111669
 20
-103.148603001591
  0
LINE
  5
3A
330
2
100
AcDbEntity
  8
0
  6
Continuous
100
AcDbLine
 10
168.1906611509558
 20
-102.9630621022348
 30
0.0
 11
168.1906611509558
 21
-107.0862353194952
 31
0.0
  0
LINE
  5
3B
330
2
100
AcDbEntity
  8
HIDDEN
  6
DASHED2
100
AcDbLine
 10
168.3156611509558
 20
-102.9943208100768
 30
0.0
 11
168.3156611509558
 21
-107.1174940273372
 31
0.0
  0
LINE
  5
3D
330
2
100
AcDbEntity
  8
HIDDEN
  6
DASHED2
100
AcDbLine
 10
168.5656611509558
 20
-103.0568382257608
 30
0.0
 11
168.5656611509558
 21
-107.1800114430212
 31
0.0
  0
HATCH
  5
3E
330
2
100
AcDbEntity
  8
HIDDEN
  6
Continuous
100
AcDbHatch
 10
0.0
 20
0.0
 30
0.0
210
0.0
220
0.0
230
1.0
  2
ANSI31
 70
     0
 71
     0
 91
       10
 92
        7
 72
     0
 73
     1
 93
        4
 10
168.3156611509558
 20
-102.9943208100768
 10
168.5656611509559
 20
-103.0568382257607
 10
168.5656611509558
 20
-104.7857384133192
 10
168.3156611509558
 20
-104.7857384133192
 97
        0
 92
        7
 72
     0
 73
     1
 93
        4
 10
168.3156611509558
 20
-104.8190717466525
 10
168.3156611509558
 20
-104.7857384133192
 10
168.5656611509558
 20
-104.7857384133192
 10
168.5656611509558
 20
-104.8190717466525
 97
        0
 92
        7
 72
     0
 73
     1
 93
        4
 10
168.5656611509559
 20
-104.8190717466525
 10
168.5656611509559
 20
-105.0649050799859
 10
168.3156611509558
 20
-105.0649050799859
 10
168.3156611509558
 20
-104.8190717466525
 97
        0
 92
        7
 72
     0
 73
     1
 93
        4
 10
168.5656611509558
 20
-105.0649050799859
 10
168.5656611509558
 20
-105.0982384133192
 10
168.3156611509558
 20
-105.0982384133192
 10
168.3156611509559
 20
-105.0649050799859
 97
        0
 92
        7
 72
     0
 73
     1
 93
        4
 10
168.3156611509558
 20
-105.0982384133192
 10
168.5656611509558
 20
-105.0982384133192
 10
168.5656611509558
 20
-106.1288673893068
 10
168.3156611509558
 20
-106.1288673893069
 97
        0
 92
        7
 72
     0
 73
     1
 93
        5
 10
168.3156611509558
 20
-106.1622007226401
 10
168.3156611509559
 20
-106.1288673893068
 10
168.4406611509558
 20
-106.1288673893069
 10
168.5656611509558
 20
-106.1288673893069
 10
168.5656611509558
 20
-106.1622007226401
 97
        0
 92
        7
 72
     0
 73
     1
 93
        4
 10
168.3156611509558
 20
-106.1622007226402
 10
168.5656611509558
 20
-106.1622007226402
 10
168.5656611509559
 20
-106.4080340559735
 10
168.3156611509558
 20
-106.4080340559736
 97
        0
 92
        7
 72
     0
 73
     1
 93
        4
 10
168.5656611509559
 20
-106.4080340559736
 10
168.5656611509559
 20
-106.4413673893069
 10
168.3156611509558
 20
-106.4413673893069
 10
168.3156611509559
 20
-106.4080340559736
 97
        0
 92
        7
 72
     0
 73
     1
 93
        5
 10
168.3156611509558
 20
-106.4413673893069
 10
168.4406611509558
 20
-106.4413673893069
 10
168.5656611509558
 20
-106.4413673893068
 10
168.5656611509558
 20
-106.7934639539031
 10
168.3156611509558
 20
-106.7309465382191
 97
        0
 92
        7
 72
     0
 73
     1
 93
        4
 10
168.3156611509558
 20
-106.7309465382191
 10
168.5656611509559
 20
-106.793463953903
 10
168.5656611509558
 20
-107.1800114430212
 10
168.3156611509558
 20
-107.1174940273372
 97
        0
 75
     0
 76
     1
 52
0.0
 41
1.0
 77
     0
 78
     1
 53
135.0
 43
327.2845607219436
 44
14.3899394776065
 45
0.0883883476483184
 46
0.0883883476483185
 79
     0
 47
0.0052107691100793
 98
       10
 10
168.4066853206885
 20
-103.4338878937351
 10
168.4264035349352
 20
-104.8082901464859
 10
168.4230356293813
 20
-104.8554286146954
 10
168.4129307451322
 20
-105.0742850152255
 10
168.372511208136
 20
-105.2089661238412
 10
168.341193597902
 20
-106.1486383935155
 10
168.3554947908912
 20
-106.2372716731092
 10
168.3526347858108
 20
-106.417397150461
 10
168.3583547959716
 20
-106.50317111092
 10
168.3990989222358
 20
-106.9519996103471
  0
LINE
  5
3F
330
2
100
AcDbEntity
  8
0
  6
Continuous
100
AcDbLine
 10
171.1906611509558
 20
-101.4093608052164
 30
0.0
 11
171.1906611509558
 21
-104.5801503279628
 31
0.0
  0
HATCH
  5
40
330
2
100
AcDbEntity
  8
HIDDEN
  6
Continuous
100
AcDbHatch
 10
0.0
 20
0.0
 30
0.0
210
0.0
220
0.0
230
1.0
  2
ANSI31
 70
     0
 71
     0
 91
       10
 92
        7
 72
     0
 73
     1
 93
        4
 10
161.7283505497265
 20
-102.9943208100768
 10
161.4783505497264
 20
-103.0568382257607
 10
161.4783505497265
 20
-104.7857384133192
 10
161.7283505497265
 20
-104.7857384133192
 97
        0
 92
        7
 72
     0
 73
     1
 93
        4
 10
161.7283505497265
 20
-104.8190717466525
 10
161.7283505497265
 20
-104.7857384133192
 10
161.4783505497265
 20
-104.7857384133192
 10
161.4783505497265
 20
-104.8190717466525
 97
        0
 92
        7
 72
     0
 73
     1
 93
        4
 10
161.4783505497264
 20
-104.8190717466525
 10
161.4783505497264
 20
-105.0649050799859
 10
161.7283505497265
 20
-105.0649050799859
 10
161.7283505497265
 20
-104.8190717466525
 97
        0
 92
        7
 72
     0
 73
     1
 93
        4
 10
161.4783505497265
 20
-105.0649050799859
 10
161.4783505497265
 20
-105.0982384133192
 10
161.7283505497265
 20
-105.0982384133192
 10
161.7283505497264
 20
-105.0649050799859
 97
        0
 92
        7
 72
     0
 73
     1
 93
        4
 10
161.7283505497265
 20
-105.0982384133192
 10
161.4783505497265
 20
-105.0982384133192
 10
161.4783505497265
 20
-106.1288673893068
 10
161.7283505497265
 20
-106.1288673893069
 97
        0
 92
        7
 72
     0
 73
     1
 93
        5
 10
161.7283505497265
 20
-106.1622007226401
 10
161.7283505497264
 20
-106.1288673893068
 10
161.6033505497265
 20
-106.1288673893069
 10
161.4783505497265
 20
-106.1288673893069
 10
161.4783505497265
 20
-106.1622007226401
 97
        0
 92
        7
 72
     0
 73
     1
 93
        4
 10
161.7283505497265
 20
-106.1622007226402
 10
161.4783505497265
 20
-106.1622007226402
 10
161.4783505497264
 20
-106.4080340559735
 10
161.7283505497265
 20
-106.4080340559736
 97
        0
 92
        7
 72
     0
 73
     1
 93
        4
 10
161.4783505497264
 20
-106.4080340559736
 10
161.4783505497264
 20
-106.4413673893069
 10
161.7283505497265
 20
-106.4413673893069
 10
161.7283505497264
 20
-106.4080340559736
 97
        0
 92
        7
 72
     0
 73
     1
 93
        5
 10
161.7283505497265
 20
-106.4413673893069
 10
161.6033505497265
 20
-106.4413673893069
 10
161.4783505497265
 20
-106.4413673893068
 10
161.4783505497265
 20
-106.7934639539031
 10
161.7283505497265
 20
-106.7309465382191
 97
        0
 92
        7
 72
     0
 73
     1
 93
        4
 10
161.7283505497265
 20
-106.7309465382191
 10
161.4783505497264
 20
-106.793463953903
 10
161.4783505497265
 20
-107.1800114430212
 10
161.7283505497265
 20
-107.1174940273372
 97
        0
 75
     0
 76
     1
 52
0.0
 41
1.0
 77
     0
 78
     1
 53
45.0
 43
2.759450978738755
 44
14.3899394776065
 45
-0.0883883476483184
 46
0.0883883476483185
 79
     0
 47
0.0052107691100793
 98
       10
 10
161.6373263799938
 20
-103.4338878937351
 10
161.6176081657471
 20
-104.8082901464859
 10
161.620976071301
 20
-104.8554286146954
 10
161.6310809555501
 20
-105.0742850152255
 10
161.6715004925463
 20
-105.2089661238412
 10
161.7028181027802
 20
-106.1486383935155
 10
161.6885169097911
 20
-106.2372716731092
 10
161.6913769148715
 20
-106.417397150461
 10
161.6856569047107
 20
-106.50317111092
 10
161.6449127784465
 20
-106.9519996103471
  0
LINE
  5
41
330
2
100
AcDbEntity
  8
HIDDEN
  6
DASHED2
100
AcDbLine
 10
161.4783505497265
 20
-103.0568382257608
 30
0.0
 11
161.4783505497265
 21
-107.1800114430212
 31
0.0
  0
LINE
  5
42
330
2
100
AcDbEntity
  8
HIDDEN
  6
DASHED2
100
AcDbLine
 10
161.7283505497265
 20
-102.9943208100768
 30
0.0
 11
161.7283505497265
 21
-107.1174940273372
 31
0.0
  0
LINE
  5
43
330
2
100
AcDbEntity
  8
0
  6
Continuous
100
AcDbLine
 10
166.3345058503412
 20
-102.9630621022348
 30
0.0
 11
166.3345058503412
 21
-106.8362353194952
 31
0.0
  0
LINE
  5
44
330
2
100
AcDbEntity
  8
0
  6
Continuous
100
AcDbLine
 10
163.7095058503413
 20
-102.9630621022348
 30
0.0
 11
163.7095058503413
 21
-106.8362353194952
 31
0.0
  0
LINE
  5
45
330
2
100
AcDbEntity
  8
0
  6
Continuous
100
AcDbLine
 10
158.8533505497265
 20
-101.4093608052164
 30
0.0
 11
158.8533505497265
 21
-104.5801503279628
 31
0.0
  0
LINE
  5
46
330
2
100
AcDbEntity
  8
0
  6
Continuous
100
AcDbLine
 10
168.1906611509558
 20
-102.9630621022348
 30
0.0
 11
168.1906611509558
 21
-107.0862353194952
 31
0.0
  0
LINE
  5
47
330
2
100
AcDbEntity
  8
0
  6
Continuous
100
AcDbLine
 10
161.8533505497265
 20
-102.9630621022348
 30
0.0
 11
161.8533505497265
 21
-107.0862353194952
 31
0.0
  0
LINE
  5
48
330
2
100
AcDbEntity
  8
0
  6
Continuous
100
AcDbLine
 10
138.8902569619468
 20
-103.1364266264398
 30
0.0
 11
138.8902569619469
 21
-104.5127004407487
 31
0.0
  0
LWPOLYLINE
  5
49
330
2
100
AcDbEntity
  8
0
  6
Continuous
100
AcDbPolyline
 90
        8
 70
     1
 43
0.0
 10
142.1402569619468
 20
-101.803753831342
 10
142.1402569619469
 20
-104.2216470501554
 10
143.849965653155
 20
-105.9313557413633
 10
146.2678588719684
 20
-105.9313557413632
 10
147.9775675631763
 20
-104.2216470501551
 10
147.9775675631761
 20
-101.8037538313417
 10
146.2678588719681
 20
-100.0940451401338
 10
143.8499656531546
 20
-100.094045140134
  0
LWPOLYLINE
  5
4A
330
2
100
AcDbEntity
  8
0
  6
Continuous
100
AcDbPolyline
 90
        8
 70
     1
 43
0.0
 10
141.8902569619468
 20
-101.7002004407487
 10
141.8902569619469
 20
-104.3252004407487
 10
143.7464122625617
 20
-106.1813557413633
 10
146.3714122625617
 20
-106.1813557413632
 10
148.2275675631762
 20
-104.3252004407484
 10
148.2275675631761
 20
-101.7002004407484
 10
146.3714122625613
 20
-99.84404514013384
 10
143.7464122625613
 20
-99.84404514013398
  0
LINE
  5
4B
330
2
100
AcDbEntity
  8
0
  6
Continuous
100
AcDbLine
 10
139.6363540969148
 20
-106.3139382628359
 30
0.0
 11
140.6095266437821
 21
-107.2871108097031
 31
0.0
  0
LINE
  5
4C
330
2
100
AcDbEntity
  8
0
  6
Continuous
100
AcDbLine
 10
139.8131307922114
 20
-106.4907149581325
 30
0.0
 11
141.9344511357711
 21
-104.3693946145729
 31
0.0
  0
LINE
  5
4D
330
2
100
AcDbEntity
  8
0
  6
Continuous
100
AcDbLine
 10
141.998090746078
 20
-104.4330342248796
 30
0.0
 11
139.8767704025182
 21
-106.5543545684392
 31
0.0
  0
LINE
  5
4E
330
2
100
AcDbEntity
  8
HIDDEN
  6
HIDDEN
100
AcDbLine
 10
140.0782958351564
 20
-106.7558800010774
 30
0.0
 11
142.199616178716
 21
-104.6345596575178
 31
0.0
  0
LINE
  5
50
330
2
100
AcDbEntity
  8
0
  6
Continuous
100
AcDbLine
 10
139.9899074875081
 20
-106.6674916534291
 30
0.0
 11
142.1112278310677
 21
-104.5461713098695
 31
0.0
  0
HATCH
  5
51
330
2
100
AcDbEntity
  8
HIDDEN
  6
Continuous
100
AcDbHatch
 10
0.0
 20
0.0
 30
0.0
210
0.0
220
0.0
230
1.0
  2
ANSI31
 70
     0
 71
     0
 91
        8
 92
        7
 72
     0
 73
     1
 93
        4
 10
142.1112278310677
 20
-104.5461713098695
 10
139.9899074875081
 20
-106.6674916534291
 10
140.0782958351564
 20
-106.7558800010774
 10
142.199616178716
 20
-104.6345596575178
 97
        0
 92
        7
 72
     0
 73
     1
 93
        4
 10
143.4370530457925
 20
-105.8719965245942
 10
141.3157327022329
 20
-107.9933168681538
 10
141.4041210498813
 20
-108.0817052158021
 10
143.5254413934409
 20
-105.9603848722425
 97
        0
 92
        7
 72
     0
 73
     1
 93
        4
 10
142.8404316991664
 20
-105.4521518732647
 10
142.6636550038697
 20
-105.6289285685614
 10
143.1718880028475
 20
-106.1371615675392
 10
143.3486646981442
 20
-105.9603848722425
 97
        0
 92
        7
 72
     0
 73
     1
 93
        4
 10
142.8168614731268
 20
-105.4285816472252
 10
142.6400847778302
 20
-105.6053583425218
 10
142.6636550038697
 20
-105.6289285685614
 10
142.8404316991664
 20
-105.4521518732647
 97
        0
 92
        7
 72
     0
 73
     1
 93
        4
 10
142.7299462646059
 20
-105.3416664387043
 10
142.5531695693093
 20
-105.518443134001
 10
142.6400847778302
 20
-105.6053583425219
 10
142.8168614731268
 20
-105.4285816472252
 97
        0
 92
        7
 72
     0
 73
     1
 93
        4
 10
142.643031056085
 20
-105.2547512301835
 10
142.4662543607884
 20
-105.4315279254801
 10
142.5531695693093
 20
-105.518443134001
 10
142.7299462646059
 20
-105.3416664387043
 97
        0
 92
        7
 72
     0
 73
     1
 93
        4
 10
142.6194608300455
 20
-105.231181004144
 10
142.4426841347489
 20
-105.4079576994406
 10
142.4662543607885
 20
-105.4315279254801
 10
142.6430310560851
 20
-105.2547512301835
 97
        0
 92
        7
 72
     0
 73
     1
 93
        4
 10
142.1112278310677
 20
-104.7229480051661
 10
141.934451135771
 20
-104.8997247004628
 10
142.4426841347489
 20
-105.4079576994406
 10
142.6194608300456
 20
-105.231181004144
 97
        0
 75
     0
 76
     1
 52
45.0
 41
1.0
 77
     0
 78
     1
 53
90.0
 43
-44.26644174917257
 44
-143.161252193743
 45
-0.125
 46
0.0
 79
     0
 47
0.0103572092086768
 98
        8
 10
140.7808940591562
 20
-105.957830501357
 10
142.7488116195271
 20
-106.6986795843837
 10
143.042215775475
 20
-105.7488835575456
 10
142.7981377380638
 20
-105.4690723975697
 10
142.7534838243904
 20
-105.448240565606
 10
142.607619790314
 20
-105.3500200226547
 10
142.559992154179
 20
-105.3083482430943
 10
142.4766408359118
 20
-105.2547741908171
  0
MTEXT
  5
52
102
{ACAD_REACTORS
330
E4
102
}
330
2
100
AcDbEntity
  8
0
  6
Continuous
100
AcDbMText
 10
157.4515497965765
 20
-104.8745435908545
 30
0.0
 40
0.1875
 41
4.4125
 71
     3
 72
     1
  1
MACHINE BOLT
 73
     1
 44
1.0
1001
ACAD
1000
MTEXTBEGIN
1070
    73
1070
     1
1070
    44
1040
1.0
1070
    74
1070
     0
1000
MTEXTEND
  0
LINE
  5
53
330
2
100
AcDbEntity
  8
0
  6
Continuous
100
AcDbLine
 10
150.3046937329117
 20
-106.4907149581322
 30
0.0
 11
148.1833733893522
 21
-104.3693946145727
 31
0.0
  0
LINE
  5
54
330
2
100
AcDbEntity
  8
0
  6
Continuous
100
AcDbLine
 10
148.5369267799454
 20
-108.2584819110987
 30
0.0
 11
146.4156064363858
 21
-106.137161567539
 31
0.0
  0
LINE
  5
55
330
2
100
AcDbEntity
  8
0
  6
Continuous
100
AcDbLine
 10
148.1197337790452
 20
-104.4330342248794
 30
0.0
 11
150.241054122605
 21
-106.554354568439
 31
0.0
  0
LINE
  5
56
330
2
100
AcDbEntity
  8
0
  6
Continuous
100
AcDbLine
 10
146.4792460466926
 20
-106.0735219572321
 30
0.0
 11
148.6005663902521
 21
-108.1948423007918
 31
0.0
  0
LINE
  5
57
330
2
100
AcDbEntity
  8
2
  6
Continuous
100
AcDbLine
 10
147.299489912869
 20
-105.2532780910558
 30
0.0
 11
149.4208102564286
 21
-107.3745984346154
 31
0.0
  0
LINE
  5
5A
330
2
100
AcDbEntity
  8
0
  6
Continuous
100
AcDbLine
 10
150.1279170376151
 20
-106.6674916534289
 30
0.0
 11
148.0065966940555
 21
-104.5461713098693
 31
0.0
  0
LINE
  5
5B
330
2
100
AcDbEntity
  8
HIDDEN
  6
HIDDEN
100
AcDbLine
 10
150.0395286899668
 20
-106.7558800010772
 30
0.0
 11
147.9182083464072
 21
-104.6345596575176
 31
0.0
  0
LINE
  5
5C
330
2
100
AcDbEntity
  8
HIDDEN
  6
HIDDEN
100
AcDbLine
 10
148.8020918228904
 20
-107.9933168681537
 30
0.0
 11
146.6807714793308
 21
-105.8719965245941
 31
0.0
  0
LINE
  5
5D
330
2
100
AcDbEntity
  8
0
  6
Continuous
100
AcDbLine
 10
148.7137034752421
 20
-108.081705215802
 30
0.0
 11
146.5923831316825
 21
-105.9603848722424
 31
0.0
  0
HATCH
  5
5E
330
2
100
AcDbEntity
  8
HIDDEN
  6
Continuous
100
AcDbHatch
 10
0.0
 20
0.0
 30
0.0
210
0.0
220
0.0
230
1.0
  2
ANSI31
 70
     0
 71
     0
 91
        8
 92
        7
 72
     0
 73
     1
 93
        4
 10
146.5923831316825
 20
-105.9603848722424
 10
148.713703475242
 20
-108.081705215802
 10
148.8020918228903
 20
-107.9933168681537
 10
146.6807714793307
 20
-105.8719965245941
 97
        0
 92
        7
 72
     0
 73
     1
 93
        4
 10
147.9182083464071
 20
-104.6345596575176
 10
150.0395286899667
 20
-106.7558800010772
 10
150.127917037615
 20
-106.6674916534288
 10
148.0065966940554
 20
-104.5461713098692
 97
        0
 92
        7
 72
     0
 73
     1
 93
        4
 10
147.4983636950776
 20
-105.2311810041437
 10
147.6751403903743
 20
-105.4079576994404
 10
148.1833733893521
 20
-104.8997247004626
 10
148.0065966940555
 20
-104.7229480051659
 97
        0
 92
        7
 72
     0
 73
     1
 93
        4
 10
147.4747934690381
 20
-105.2547512301833
 10
147.6515701643348
 20
-105.4315279254799
 10
147.6751403903743
 20
-105.4079576994404
 10
147.4983636950776
 20
-105.2311810041437
 97
        0
 92
        7
 72
     0
 73
     1
 93
        4
 10
147.3878782605173
 20
-105.3416664387041
 10
147.5646549558139
 20
-105.5184431340007
 10
147.6515701643348
 20
-105.4315279254799
 10
147.4747934690382
 20
-105.2547512301833
 97
        0
 92
        7
 72
     0
 73
     1
 93
        4
 10
147.3009630519964
 20
-105.428581647225
 10
147.477739747293
 20
-105.6053583425216
 10
147.5646549558139
 20
-105.5184431340007
 10
147.3878782605173
 20
-105.3416664387041
 97
        0
 92
        7
 72
     0
 73
     1
 93
        4
 10
147.2773928259569
 20
-105.4521518732645
 10
147.4541695212535
 20
-105.6289285685611
 10
147.4777397472931
 20
-105.6053583425216
 10
147.3009630519964
 20
-105.428581647225
 97
        0
 92
        7
 72
     0
 73
     1
 93
        4
 10
146.7691598269791
 20
-105.9603848722424
 10
146.9459365222757
 20
-106.137161567539
 10
147.4541695212536
 20
-105.6289285685612
 10
147.2773928259569
 20
-105.4521518732645
 97
        0
 75
     0
 76
     1
 52
134.9999999999999
 41
1.0
 77
     0
 78
     1
 53
179.9999999999999
 43
185.2074640155558
 44
-292.3380544524827
 45
-0.0000000000000001
 46
-0.125
 79
     0
 47
0.0103572092086768
 98
        8
 10
148.00404232317
 20
-107.2907186441538
 10
148.7448914061966
 20
-105.322801083783
 10
147.7950953793585
 20
-105.0293969278351
 10
147.5152842193826
 20
-105.2734749652463
 10
147.494452387419
 20
-105.3181288789197
 10
147.3962318444676
 20
-105.463992912996
 10
147.3545600649073
 20
-105.511620549131
 10
147.30098601263
 20
-105.5949718673983
  0
ARC
  5
5F
330
2
100
AcDbEntity
  8
HIDDEN
  6
Continuous
100
AcDbCircle
 10
144.1839122625617
 20
-106.3063557413632
 30
0.0
 40
0.0758931761693191
100
AcDbArc
 50
0.0
 51
90.00000000000813
  0
ARC
  5
60
330
2
100
AcDbEntity
  8
HIDDEN
  6
Continuous
100
AcDbCircle
 10
144.1839122625617
 20
-106.3063557413632
 30
0.0
 40
0.0658931761693191
100
AcDbArc
 50
0.0
 51
90.00000000000813
  0
ARC
  5
61
330
2
100
AcDbEntity
  8
HIDDEN
  6
Continuous
100
AcDbCircle
 10
144.1839122625617
 20
-106.3063557413632
 30
0.0
 40
0.0558931761693191
100
AcDbArc
 50
0.0
 51
90.00000000000813
  0
ARC
  5
62
330
2
100
AcDbEntity
  8
HIDDEN
  6
Continuous
100
AcDbCircle
 10
144.1839122625617
 20
-106.3063557413632
 30
0.0
 40
0.0458931761693191
100
AcDbArc
 50
0.0
 51
90.00000000000813
  0
LINE
  5
63
330
2
100
AcDbEntity
  8
HIDDEN
  6
HIDDEN
100
AcDbLine
 10
144.1839122625617
 20
-106.3063557413633
 30
0.0
 11
145.9339122625616
 21
-106.3063557413632
 31
0.0
  0
LINE
  5
64
330
2
100
AcDbEntity
  8
HIDDEN
  6
HIDDEN
100
AcDbLine
 10
144.1839122625617
 20
-106.5563557413633
 30
0.0
 11
145.9339122625616
 21
-106.5563557413632
 31
0.0
  0
LINE
  5
65
330
2
100
AcDbEntity
  8
0
  6
Continuous
100
AcDbLine
 10
143.5589122625616
 20
-109.1813557413633
 30
0.0
 11
144.9351860768705
 21
-109.1813557413632
 31
0.0
  0
HATCH
  5
66
330
2
100
AcDbEntity
  8
HIDDEN
  6
Continuous
100
AcDbHatch
 10
0.0
 20
0.0
 30
0.0
210
0.0
220
0.0
230
1.0
  2
ANSI31
 70
     0
 71
     0
 91
        8
 92
        7
 72
     0
 73
     1
 93
        4
 10
144.0589122625617
 20
-106.1813557413633
 10
144.0589122625616
 20
-109.1813557413632
 10
144.1839122625616
 20
-109.1813557413632
 10
144.1839122625616
 20
-106.1813557413633
 97
        0
 92
        7
 72
     0
 73
     1
 93
        4
 10
145.9339122625616
 20
-106.1813557413632
 10
145.9339122625616
 20
-109.1813557413631
 10
146.0589122625616
 20
-109.1813557413631
 10
146.0589122625616
 20
-106.1813557413631
 97
        0
 92
        7
 72
     0
 73
     1
 93
        4
 10
145.2151622625617
 20
-106.3063557413632
 10
145.2151622625617
 20
-106.5563557413632
 10
145.9339122625616
 20
-106.5563557413632
 10
145.9339122625616
 20
-106.3063557413632
 97
        0
 92
        7
 72
     0
 73
     1
 93
        4
 10
145.1818289292283
 20
-106.3063557413632
 10
145.1818289292283
 20
-106.5563557413632
 10
145.2151622625617
 20
-106.5563557413633
 10
145.2151622625616
 20
-106.3063557413632
 97
        0
 92
        7
 72
     0
 73
     1
 93
        4
 10
145.0589122625617
 20
-106.3063557413632
 10
145.0589122625617
 20
-106.5563557413632
 10
145.1818289292284
 20
-106.5563557413632
 10
145.1818289292284
 20
-106.3063557413632
 97
        0
 92
        7
 72
     0
 73
     1
 93
        4
 10
144.9359955958949
 20
-106.3063557413633
 10
144.9359955958949
 20
-106.5563557413632
 10
145.0589122625617
 20
-106.5563557413632
 10
145.0589122625616
 20
-106.3063557413632
 97
        0
 92
        7
 72
     0
 73
     1
 93
        4
 10
144.9026622625617
 20
-106.3063557413633
 10
144.9026622625617
 20
-106.5563557413632
 10
144.9359955958949
 20
-106.5563557413632
 10
144.9359955958949
 20
-106.3063557413632
 97
        0
 92
        7
 72
     0
 73
     1
 93
        4
 10
144.1839122625616
 20
-106.3063557413633
 10
144.1839122625616
 20
-106.5563557413633
 10
144.9026622625617
 20
-106.5563557413633
 10
144.9026622625617
 20
-106.3063557413633
 97
        0
 75
     0
 76
     1
 52
89.99999999999998
 41
1.0
 77
     0
 78
     1
 53
134.9999999999999
 43
39.57498378968196
 44
-265.2752553123509
 45
-0.0883883476483185
 46
-0.0883883476483184
 79
     0
 47
0.0103572092086768
 98
        8
 10
144.1164180182267
 20
-108.1202375597485
 10
146.031805280425
 20
-107.2525691184381
 10
145.5676661374028
 20
-106.3734938388178
 10
145.19722053334
 20
-106.3482267055393
 10
145.150915118529
 20
-106.3650714610583
 10
144.9783212589296
 20
-106.3987604967122
 10
144.9151770365355
 20
-106.4029719232839
 10
144.818356178507
 20
-106.4240276299906
  0
ARC
  5
67
330
2
100
AcDbEntity
  8
HIDDEN
  6
Continuous
100
AcDbCircle
 10
144.1839122625617
 20
-106.3063557413632
 30
0.0
 40
0.0358931761693191
100
AcDbArc
 50
0.0
 51
90.00000000000813
  0
ARC
  5
68
330
2
100
AcDbEntity
  8
HIDDEN
  6
Continuous
100
AcDbCircle
 10
144.1839122625617
 20
-106.3063557413632
 30
0.0
 40
0.0258931761693191
100
AcDbArc
 50
0.0
 51
90.00000000000813
  0
LINE
  5
69
330
2
100
AcDbEntity
  8
0
  6
Continuous
100
AcDbLine
 10
143.8089122625616
 20
-109.1813557413633
 30
0.0
 11
143.8089122625616
 21
-106.1813557413633
 31
0.0
  0
LINE
  5
6A
330
2
100
AcDbEntity
  8
0
  6
Continuous
100
AcDbLine
 10
143.8989122625617
 20
-106.1813557413631
 30
0.0
 11
143.8989122625616
 21
-109.1813557413632
 31
0.0
  0
LINE
  5
6B
330
2
100
AcDbEntity
  8
HIDDEN
  6
HIDDEN
100
AcDbLine
 10
144.1839122625616
 20
-109.1813557413632
 30
0.0
 11
144.1839122625616
 21
-106.1813557413633
 31
0.0
  0
LINE
  5
6C
330
2
100
AcDbEntity
  8
0
  6
Continuous
100
AcDbLine
 10
144.0589122625616
 20
-109.1813557413632
 30
0.0
 11
144.0589122625616
 21
-106.1813557413633
 31
0.0
  0
ARC
  5
6D
330
2
100
AcDbEntity
  8
HIDDEN
  6
Continuous
100
AcDbCircle
 10
143.3486646981441
 20
-105.9603848722425
 30
0.0
 40
0.0258931761693191
100
AcDbArc
 50
44.99999999999184
 51
135.0
  0
ARC
  5
6E
330
2
100
AcDbEntity
  8
HIDDEN
  6
Continuous
100
AcDbCircle
 10
143.3486646981441
 20
-105.9603848722425
 30
0.0
 40
0.0358931761693191
100
AcDbArc
 50
44.99999999999184
 51
135.0
  0
ARC
  5
6F
330
2
100
AcDbEntity
  8
HIDDEN
  6
Continuous
100
AcDbCircle
 10
143.3486646981441
 20
-105.9603848722425
 30
0.0
 40
0.0458931761693191
100
AcDbArc
 50
44.99999999999184
 51
135.0
  0
ARC
  5
70
330
2
100
AcDbEntity
  8
HIDDEN
  6
Continuous
100
AcDbCircle
 10
143.3486646981441
 20
-105.9603848722425
 30
0.0
 40
0.0558931761693191
100
AcDbArc
 50
44.99999999999184
 51
135.0
  0
ARC
  5
71
330
2
100
AcDbEntity
  8
HIDDEN
  6
Continuous
100
AcDbCircle
 10
143.3486646981441
 20
-105.9603848722425
 30
0.0
 40
0.0658931761693191
100
AcDbArc
 50
44.99999999999184
 51
135.0
  0
ARC
  5
72
330
2
100
AcDbEntity
  8
HIDDEN
  6
Continuous
100
AcDbCircle
 10
143.3486646981441
 20
-105.9603848722425
 30
0.0
 40
0.0758931761693191
100
AcDbArc
 50
44.99999999999184
 51
135.0
  0
ARC
  5
73
330
2
100
AcDbEntity
  8
HIDDEN
  6
Continuous
100
AcDbCircle
 10
142.1112278310677
 20
-104.7229480051661
 30
0.0
 40
0.0758931761693191
100
AcDbArc
 50
315.0
 51
45.00000000000816
  0
ARC
  5
74
330
2
100
AcDbEntity
  8
HIDDEN
  6
Continuous
100
AcDbCircle
 10
142.1112278310677
 20
-104.7229480051661
 30
0.0
 40
0.0658931761693191
100
AcDbArc
 50
315.0
 51
45.00000000000816
  0
ARC
  5
75
330
2
100
AcDbEntity
  8
HIDDEN
  6
Continuous
100
AcDbCircle
 10
142.1112278310677
 20
-104.7229480051661
 30
0.0
 40
0.0558931761693191
100
AcDbArc
 50
315.0
 51
45.00000000000816
  0
ARC
  5
76
330
2
100
AcDbEntity
  8
HIDDEN
  6
Continuous
100
AcDbCircle
 10
142.1112278310677
 20
-104.7229480051661
 30
0.0
 40
0.0458931761693191
100
AcDbArc
 50
315.0
 51
45.00000000000816
  0
ARC
  5
77
330
2
100
AcDbEntity
  8
HIDDEN
  6
Continuous
100
AcDbCircle
 10
142.1112278310677
 20
-104.7229480051661
 30
0.0
 40
0.0358931761693191
100
AcDbArc
 50
315.0
 51
45.00000000000816
  0
ARC
  5
78
330
2
100
AcDbEntity
  8
HIDDEN
  6
Continuous
100
AcDbCircle
 10
142.1112278310677
 20
-104.7229480051661
 30
0.0
 40
0.0258931761693191
100
AcDbArc
 50
315.0
 51
45.00000000000816
  0
ARC
  5
79
330
2
100
AcDbEntity
  8
0
100
AcDbCircle
 10
143.2905240925574
 20
-105.0872748286006
 30
0.0
 40
0.094791666666622
100
AcDbArc
 50
355.417438205667
 51
94.58256179431398
  0
LINE
  5
7A
330
2
100
AcDbEntity
  8
0
100
AcDbLine
 10
143.0513657050096
 20
-104.7140607804528
 30
0.0
 11
143.3575519228575
 21
-105.0202469983007
 31
0.0
  0
ARC
  5
7B
330
2
100
AcDbEntity
  8
0
100
AcDbCircle
 10
142.9843378747094
 20
-104.7810886107529
 30
0.0
 40
0.0947916666667418
100
AcDbArc
 50
355.4174382057525
 51
94.58256179422845
  0
ARC
  5
7C
330
2
100
AcDbEntity
  8
0
100
AcDbCircle
 10
142.9717028317928
 20
-105.0999098715173
 30
0.0
 40
0.3291666666666718
100
AcDbArc
 50
18.9921761143465
 51
71.00782388562112
  0
LINE
  5
7D
330
2
100
AcDbEntity
  8
0
100
AcDbLine
 10
143.2345907918423
 20
-105.2452702019318
 30
0.0
 11
143.3850127331258
 21
-105.0948482606483
 31
0.0
  0
LINE
  5
7E
330
2
100
AcDbEntity
  8
0
100
AcDbLine
 10
143.1325287192263
 20
-105.1432081293159
 30
0.0
 11
143.2829506605098
 21
-104.9927861880323
 31
0.0
  0
LINE
  5
7F
330
2
100
AcDbEntity
  8
0
100
AcDbLine
 10
142.8263425013785
 20
-104.837021911468
 30
0.0
 11
142.976764442662
 21
-104.6865999701845
 31
0.0
  0
LINE
  5
80
330
2
100
AcDbEntity
  8
0
100
AcDbLine
 10
142.9284045739944
 20
-104.939083984084
 30
0.0
 11
143.0788265152779
 21
-104.7886620428004
 31
0.0
  0
LINE
  5
81
330
2
100
AcDbEntity
  8
0
100
AcDbLine
 10
142.7546950019475
 20
-104.836085090156
 30
0.0
 11
143.2355276131543
 21
-105.3169177013627
 31
0.0
  0
LINE
  5
82
330
2
100
AcDbEntity
  8
0
100
AcDbLine
 10
143.2708829522136
 20
-105.2815623623033
 30
0.0
 11
143.2355276131543
 21
-105.3169177013627
 31
0.0
  0
LINE
  5
83
330
2
100
AcDbEntity
  8
0
100
AcDbLine
 10
142.7900503410069
 20
-104.8007297510966
 30
0.0
 11
142.7546950019475
 21
-104.836085090156
 31
0.0
  0
LINE
  5
84
330
2
100
AcDbEntity
  8
0
100
AcDbLine
 10
142.7900503410069
 20
-104.8007297510966
 30
0.0
 11
143.2708829522136
 21
-105.2815623623033
 31
0.0
  0
LINE
  5
85
330
2
100
AcDbEntity
  8
HIDDEN
  6
DASHED2
370
    25
100
AcDbLine
 10
141.9960215729741
 20
-105.9017607132944
 30
0.0
 11
142.1698519900159
 21
-106.0755911303362
 31
0.0
  0
LINE
  5
86
330
2
100
AcDbEntity
  8
HIDDEN
  6
DASHED2
370
    25
100
AcDbLine
 10
142.0117350570005
 20
-105.838906777189
 30
0.0
 11
141.9960215729741
 21
-105.9017607132944
 31
0.0
  0
LINE
  5
87
330
2
100
AcDbEntity
  8
HIDDEN
  6
DASHED2
370
    25
100
AcDbLine
 10
142.0117350570005
 20
-105.838906777189
 30
0.0
 11
142.2327059261213
 21
-106.0598776463098
 31
0.0
  0
LINE
  5
88
330
2
100
AcDbEntity
  8
HIDDEN
  6
DASHED2
370
    25
100
AcDbLine
 10
142.1698519900159
 20
-106.0755911303362
 30
0.0
 11
142.2327059261213
 21
-106.0598776463098
 31
0.0
  0
LINE
  5
89
330
2
100
AcDbEntity
  8
HIDDEN
  6
DASHED2
370
    25
100
AcDbLine
 10
142.8846258729905
 20
-104.966015961199
 30
0.0
 11
142.0117350570005
 21
-105.838906777189
 31
0.0
  0
LINE
  5
8A
330
2
100
AcDbEntity
  8
HIDDEN
  6
DASHED2
370
    25
100
AcDbLine
 10
141.9960215729741
 20
-105.9017607132944
 30
0.0
 11
142.90819609903
 21
-104.9895861872385
 31
0.0
  0
LINE
  5
8B
330
2
100
AcDbEntity
  8
HIDDEN
  6
DASHED2
370
    25
100
AcDbLine
 10
143.0820265160718
 20
-105.1634166042802
 30
0.0
 11
142.1698519900159
 21
-106.0755911303363
 31
0.0
  0
LINE
  5
8C
330
2
100
AcDbEntity
  8
HIDDEN
  6
HIDDEN
100
AcDbLine
 10
142.1112278310677
 20
-104.7229480051662
 30
0.0
 11
143.3486646981442
 21
-105.9603848722425
 31
0.0
  0
LINE
  5
8D
330
2
100
AcDbEntity
  8
HIDDEN
  6
HIDDEN
100
AcDbLine
 10
141.9344511357711
 20
-104.8997247004628
 30
0.0
 11
143.1718880028475
 21
-106.1371615675392
 31
0.0
  0
LINE
  5
8E
330
2
100
AcDbEntity
  8
HIDDEN
  6
DASHED2
370
    25
100
AcDbLine
 10
142.2327059261213
 20
-106.0598776463098
 30
0.0
 11
143.1055967421113
 21
-105.1869868303197
 31
0.0
  0
LINE
  5
8F
330
2
100
AcDbEntity
  8
0
  6
Continuous
100
AcDbLine
 10
140.6095266437821
 20
-107.2871108097031
 30
0.0
 11
140.4327499484855
 21
-107.4638875049997
 31
0.0
  0
LINE
  5
90
330
2
100
AcDbEntity
  8
0
  6
Continuous
100
AcDbLine
 10
140.9612785889038
 20
-107.2853093642315
 30
0.0
 11
140.7845018936072
 21
-107.4620860595282
 31
0.0
  0
LINE
  5
91
330
2
100
AcDbEntity
  8
0
  6
Continuous
100
AcDbLine
 10
140.4327499484855
 20
-107.4638875049997
 30
0.0
 11
140.9612785889038
 21
-107.2853093642315
 31
0.0
  0
LINE
  5
92
330
2
100
AcDbEntity
  8
0
  6
Continuous
100
AcDbLine
 10
140.7845018936072
 20
-107.4620860595282
 30
0.0
 11
141.7576744404745
 21
-108.4352586063954
 31
0.0
  0
LINE
  5
93
330
2
100
AcDbEntity
  8
0
  6
Continuous
100
AcDbLine
 10
141.5808977451779
 20
-108.2584819110988
 30
0.0
 11
143.7022180887374
 21
-106.1371615675392
 31
0.0
  0
LINE
  5
94
330
2
100
AcDbEntity
  8
0
  6
Continuous
100
AcDbLine
 10
143.6385784784307
 20
-106.0735219572323
 30
0.0
 11
141.5172581348711
 21
-108.1948423007921
 31
0.0
  0
LINE
  5
95
330
2
100
AcDbEntity
  8
2
  6
Continuous
100
AcDbLine
 10
142.8183346122542
 20
-105.2532780910561
 30
0.0
 11
140.6970142686946
 21
-107.3745984346156
 31
0.0
  0
LINE
  5
96
330
2
100
AcDbEntity
  8
0
  6
Continuous
100
AcDbLine
 10
141.4041210498812
 20
-108.0817052158022
 30
0.0
 11
143.5254413934408
 21
-105.9603848722426
 31
0.0
  0
LINE
  5
97
330
2
100
AcDbEntity
  8
HIDDEN
  6
HIDDEN
100
AcDbLine
 10
141.3157327022329
 20
-107.9933168681538
 30
0.0
 11
143.4370530457924
 21
-105.8719965245943
 31
0.0
  0
ARC
  5
98
330
2
100
AcDbEntity
  8
HIDDEN
  6
Continuous
100
AcDbCircle
 10
148.0065966940554
 20
-104.7229480051659
 30
0.0
 40
0.0258931761693191
100
AcDbArc
 50
134.9999999999919
 51
225.0
  0
ARC
  5
99
330
2
100
AcDbEntity
  8
HIDDEN
  6
Continuous
100
AcDbCircle
 10
148.0065966940554
 20
-104.7229480051659
 30
0.0
 40
0.0358931761693191
100
AcDbArc
 50
134.9999999999919
 51
225.0
  0
ARC
  5
9A
330
2
100
AcDbEntity
  8
HIDDEN
  6
Continuous
100
AcDbCircle
 10
148.0065966940554
 20
-104.7229480051659
 30
0.0
 40
0.0458931761693191
100
AcDbArc
 50
134.9999999999919
 51
225.0
  0
ARC
  5
9B
330
2
100
AcDbEntity
  8
HIDDEN
  6
Continuous
100
AcDbCircle
 10
148.0065966940554
 20
-104.7229480051659
 30
0.0
 40
0.0558931761693191
100
AcDbArc
 50
134.9999999999919
 51
225.0
  0
ARC
  5
9C
330
2
100
AcDbEntity
  8
HIDDEN
  6
Continuous
100
AcDbCircle
 10
148.0065966940554
 20
-104.7229480051659
 30
0.0
 40
0.0658931761693191
100
AcDbArc
 50
134.9999999999919
 51
225.0
  0
ARC
  5
9D
330
2
100
AcDbEntity
  8
HIDDEN
  6
Continuous
100
AcDbCircle
 10
148.0065966940554
 20
-104.7229480051659
 30
0.0
 40
0.0758931761693191
100
AcDbArc
 50
134.9999999999919
 51
225.0
  0
ARC
  5
9E
330
2
100
AcDbEntity
  8
HIDDEN
  6
Continuous
100
AcDbCircle
 10
146.769159826979
 20
-105.9603848722423
 30
0.0
 40
0.0758931761693191
100
AcDbArc
 50
44.99999999999992
 51
135.0000000000081
  0
ARC
  5
9F
330
2
100
AcDbEntity
  8
HIDDEN
  6
Continuous
100
AcDbCircle
 10
146.769159826979
 20
-105.9603848722423
 30
0.0
 40
0.0658931761693191
100
AcDbArc
 50
44.99999999999992
 51
135.0000000000081
  0
ARC
  5
A0
330
2
100
AcDbEntity
  8
HIDDEN
  6
Continuous
100
AcDbCircle
 10
146.769159826979
 20
-105.9603848722423
 30
0.0
 40
0.0558931761693191
100
AcDbArc
 50
44.99999999999992
 51
135.0000000000081
  0
ARC
  5
A1
330
2
100
AcDbEntity
  8
HIDDEN
  6
Continuous
100
AcDbCircle
 10
146.769159826979
 20
-105.9603848722423
 30
0.0
 40
0.0458931761693191
100
AcDbArc
 50
44.99999999999992
 51
135.0000000000081
  0
ARC
  5
A2
330
2
100
AcDbEntity
  8
HIDDEN
  6
Continuous
100
AcDbCircle
 10
146.769159826979
 20
-105.9603848722423
 30
0.0
 40
0.0358931761693191
100
AcDbArc
 50
44.99999999999992
 51
135.0000000000081
  0
ARC
  5
A3
330
2
100
AcDbEntity
  8
HIDDEN
  6
Continuous
100
AcDbCircle
 10
146.769159826979
 20
-105.9603848722423
 30
0.0
 40
0.0258931761693191
100
AcDbArc
 50
44.99999999999992
 51
135.0000000000081
  0
ARC
  5
A4
330
2
100
AcDbEntity
  8
0
100
AcDbCircle
 10
147.1334866504135
 20
-104.7810886107526
 30
0.0
 40
0.094791666666622
100
AcDbArc
 50
85.41743820566706
 51
184.5825617943139
  0
LINE
  5
A5
330
2
100
AcDbEntity
  8
0
100
AcDbLine
 10
146.7602726022657
 20
-105.0202469983005
 30
0.0
 11
147.0664588201137
 21
-104.7140607804526
 31
0.0
  0
ARC
  5
A6
330
2
100
AcDbEntity
  8
0
100
AcDbCircle
 10
146.8273004325659
 20
-105.0872748286006
 30
0.0
 40
0.0947916666667418
100
AcDbArc
 50
85.41743820575252
 51
184.5825617942285
  0
ARC
  5
A7
330
2
100
AcDbEntity
  8
0
100
AcDbCircle
 10
147.1461216933303
 20
-105.0999098715173
 30
0.0
 40
0.3291666666666718
100
AcDbArc
 50
108.9921761143464
 51
161.0078238856211
  0
LINE
  5
A8
330
2
100
AcDbEntity
  8
0
100
AcDbLine
 10
147.2914820237448
 20
-104.8370219114678
 30
0.0
 11
147.1410600824612
 21
-104.6865999701843
 31
0.0
  0
LINE
  5
A9
330
2
100
AcDbEntity
  8
0
100
AcDbLine
 10
147.1894199511288
 20
-104.9390839840838
 30
0.0
 11
147.0389980098453
 21
-104.7886620428002
 31
0.0
  0
LINE
  5
AA
330
2
100
AcDbEntity
  8
0
100
AcDbLine
 10
146.883233733281
 20
-105.2452702019316
 30
0.0
 11
146.7328117919974
 21
-105.0948482606481
 31
0.0
  0
LINE
  5
AB
330
2
100
AcDbEntity
  8
0
100
AcDbLine
 10
146.9852958058969
 20
-105.1432081293157
 30
0.0
 11
146.8348738646134
 21
-104.9927861880321
 31
0.0
  0
LINE
  5
AC
330
2
100
AcDbEntity
  8
0
100
AcDbLine
 10
146.8822969119689
 20
-105.3169177013625
 30
0.0
 11
147.3631295231756
 21
-104.8360850901558
 31
0.0
  0
LINE
  5
AD
330
2
100
AcDbEntity
  8
0
100
AcDbLine
 10
147.3277741841163
 20
-104.8007297510964
 30
0.0
 11
147.3631295231756
 21
-104.8360850901558
 31
0.0
  0
LINE
  5
AE
330
2
100
AcDbEntity
  8
0
100
AcDbLine
 10
146.8469415729095
 20
-105.2815623623031
 30
0.0
 11
146.8822969119689
 21
-105.3169177013625
 31
0.0
  0
LINE
  5
AF
330
2
100
AcDbEntity
  8
0
100
AcDbLine
 10
146.8469415729095
 20
-105.2815623623031
 30
0.0
 11
147.3277741841163
 21
-104.8007297510964
 31
0.0
  0
LINE
  5
B0
330
2
100
AcDbEntity
  8
HIDDEN
  6
DASHED2
370
    25
100
AcDbLine
 10
147.9479725351074
 20
-106.075591130336
 30
0.0
 11
148.1218029521491
 21
-105.9017607132942
 31
0.0
  0
LINE
  5
B1
330
2
100
AcDbEntity
  8
HIDDEN
  6
DASHED2
370
    25
100
AcDbLine
 10
147.8851185990019
 20
-106.0598776463096
 30
0.0
 11
147.9479725351074
 21
-106.075591130336
 31
0.0
  0
LINE
  5
B2
330
2
100
AcDbEntity
  8
HIDDEN
  6
DASHED2
370
    25
100
AcDbLine
 10
147.8851185990019
 20
-106.0598776463096
 30
0.0
 11
148.1060894681228
 21
-105.8389067771888
 31
0.0
  0
LINE
  5
B3
330
2
100
AcDbEntity
  8
HIDDEN
  6
DASHED2
370
    25
100
AcDbLine
 10
148.1218029521491
 20
-105.9017607132942
 30
0.0
 11
148.1060894681228
 21
-105.8389067771888
 31
0.0
  0
LINE
  5
B4
330
2
100
AcDbEntity
  8
HIDDEN
  6
DASHED2
370
    25
100
AcDbLine
 10
147.0122277830119
 20
-105.1869868303195
 30
0.0
 11
147.8851185990019
 21
-106.0598776463096
 31
0.0
  0
LINE
  5
B5
330
2
100
AcDbEntity
  8
HIDDEN
  6
DASHED2
370
    25
100
AcDbLine
 10
147.9479725351074
 20
-106.0755911303359
 30
0.0
 11
147.0357980090514
 21
-105.16341660428
 31
0.0
  0
LINE
  5
B6
330
2
100
AcDbEntity
  8
HIDDEN
  6
DASHED2
370
    25
100
AcDbLine
 10
147.2096284260931
 20
-104.9895861872383
 30
0.0
 11
148.1218029521492
 21
-105.9017607132942
 31
0.0
  0
LINE
  5
B7
330
2
100
AcDbEntity
  8
HIDDEN
  6
HIDDEN
100
AcDbLine
 10
146.7691598269791
 20
-105.9603848722424
 30
0.0
 11
148.0065966940555
 21
-104.7229480051659
 31
0.0
  0
LINE
  5
B8
330
2
100
AcDbEntity
  8
HIDDEN
  6
HIDDEN
100
AcDbLine
 10
146.9459365222757
 20
-106.137161567539
 30
0.0
 11
148.1833733893521
 21
-104.8997247004626
 31
0.0
  0
LINE
  5
B9
330
2
100
AcDbEntity
  8
HIDDEN
  6
DASHED2
370
    25
100
AcDbLine
 10
148.1060894681228
 20
-105.8389067771888
 30
0.0
 11
147.2331986521326
 21
-104.9660159611988
 31
0.0
  0
ARC
  5
BA
330
2
100
AcDbEntity
  8
HIDDEN
  6
Continuous
100
AcDbCircle
 10
145.9339122625616
 20
-106.3063557413633
 30
0.0
 40
0.0258931761693191
100
AcDbArc
 50
89.99999999999184
 51
180.0
  0
ARC
  5
BB
330
2
100
AcDbEntity
  8
HIDDEN
  6
Continuous
100
AcDbCircle
 10
145.9339122625616
 20
-106.3063557413633
 30
0.0
 40
0.0358931761693191
100
AcDbArc
 50
89.99999999999184
 51
180.0
  0
ARC
  5
BC
330
2
100
AcDbEntity
  8
HIDDEN
  6
Continuous
100
AcDbCircle
 10
145.9339122625616
 20
-106.3063557413633
 30
0.0
 40
0.0458931761693191
100
AcDbArc
 50
89.99999999999184
 51
180.0
  0
ARC
  5
BD
330
2
100
AcDbEntity
  8
HIDDEN
  6
Continuous
100
AcDbCircle
 10
145.9339122625616
 20
-106.3063557413633
 30
0.0
 40
0.0558931761693191
100
AcDbArc
 50
89.99999999999184
 51
180.0
  0
ARC
  5
BE
330
2
100
AcDbEntity
  8
HIDDEN
  6
Continuous
100
AcDbCircle
 10
145.9339122625616
 20
-106.3063557413633
 30
0.0
 40
0.0658931761693191
100
AcDbArc
 50
89.99999999999184
 51
180.0
  0
ARC
  5
BF
330
2
100
AcDbEntity
  8
HIDDEN
  6
Continuous
100
AcDbCircle
 10
145.9339122625616
 20
-106.3063557413633
 30
0.0
 40
0.0758931761693191
100
AcDbArc
 50
89.99999999999184
 51
180.0
  0
ARC
  5
C0
330
2
100
AcDbEntity
  8
0
100
AcDbCircle
 10
145.2754186135077
 20
-105.7300853252546
 30
0.0
 40
0.094791666666622
100
AcDbArc
 50
40.41743820566707
 51
139.5825617943139
  0
LINE
  5
C1
330
2
100
AcDbEntity
  8
0
100
AcDbLine
 10
144.8424059116155
 20
-105.635293658588
 30
0.0
 11
145.2754186135078
 21
-105.635293658588
 31
0.0
  0
ARC
  5
C2
330
2
100
AcDbEntity
  8
0
100
AcDbCircle
 10
144.8424059116155
 20
-105.7300853252549
 30
0.0
 40
0.0947916666667418
100
AcDbArc
 50
40.41743820575251
 51
139.5825617942284
  0
ARC
  5
C3
330
2
100
AcDbEntity
  8
0
100
AcDbCircle
 10
145.0589122625615
 20
-105.9644603252548
 30
0.0
 40
0.3291666666666718
100
AcDbArc
 50
63.9921761143465
 51
116.0078238856211
  0
LINE
  5
C4
330
2
100
AcDbEntity
  8
0
100
AcDbLine
 10
145.3475873971564
 20
-105.8813557413631
 30
0.0
 11
145.3475873971564
 21
-105.6686269919214
 31
0.0
  0
LINE
  5
C5
330
2
100
AcDbEntity
  8
0
100
AcDbLine
 10
145.203249829859
 20
-105.8813557413631
 30
0.0
 11
145.203249829859
 21
-105.6686269919214
 31
0.0
  0
LINE
  5
C6
330
2
100
AcDbEntity
  8
0
100
AcDbLine
 10
144.7702371279669
 20
-105.8813557413631
 30
0.0
 11
144.7702371279669
 21
-105.6686269919214
 31
0.0
  0
LINE
  5
C7
330
2
100
AcDbEntity
  8
0
100
AcDbLine
 10
144.9145746952642
 20
-105.8813557413631
 30
0.0
 11
144.9145746952642
 21
-105.6686269919214
 31
0.0
  0
LINE
  5
C8
330
2
100
AcDbEntity
  8
0
100
AcDbLine
 10
144.7189122625617
 20
-105.9313557413632
 30
0.0
 11
145.3989122625615
 21
-105.9313557413632
 31
0.0
  0
LINE
  5
C9
330
2
100
AcDbEntity
  8
0
100
AcDbLine
 10
145.3989122625615
 20
-105.8813557413631
 30
0.0
 11
145.3989122625615
 21
-105.9313557413632
 31
0.0
  0
LINE
  5
CA
330
2
100
AcDbEntity
  8
0
100
AcDbLine
 10
144.7189122625617
 20
-105.8813557413631
 30
0.0
 11
144.7189122625617
 21
-105.9313557413632
 31
0.0
  0
LINE
  5
CB
330
2
100
AcDbEntity
  8
0
100
AcDbLine
 10
144.7189122625617
 20
-105.8813557413631
 30
0.0
 11
145.3989122625615
 21
-105.8813557413631
 31
0.0
  0
LINE
  5
CC
330
2
100
AcDbEntity
  8
HIDDEN
  6
DASHED2
370
    25
100
AcDbLine
 10
144.9359955958949
 20
-107.2213653273628
 30
0.0
 11
145.1818289292283
 21
-107.2213653273628
 31
0.0
  0
LINE
  5
CD
330
2
100
AcDbEntity
  8
HIDDEN
  6
DASHED2
370
    25
100
AcDbLine
 10
144.9026622625616
 20
-107.1658097718072
 30
0.0
 11
144.9359955958949
 21
-107.2213653273628
 31
0.0
  0
LINE
  5
CE
330
2
100
AcDbEntity
  8
HIDDEN
  6
DASHED2
370
    25
100
AcDbLine
 10
144.9026622625616
 20
-107.1658097718072
 30
0.0
 11
145.2151622625616
 21
-107.1658097718072
 31
0.0
  0
LINE
  5
CF
330
2
100
AcDbEntity
  8
HIDDEN
  6
DASHED2
370
    25
100
AcDbLine
 10
145.1818289292283
 20
-107.2213653273628
 30
0.0
 11
145.2151622625616
 21
-107.1658097718072
 31
0.0
  0
LINE
  5
D0
330
2
100
AcDbEntity
  8
HIDDEN
  6
DASHED2
370
    25
100
AcDbLine
 10
144.9026622625617
 20
-105.9313557413632
 30
0.0
 11
144.9026622625617
 21
-107.1658097718072
 31
0.0
  0
LINE
  5
D1
330
2
100
AcDbEntity
  8
HIDDEN
  6
DASHED2
370
    25
100
AcDbLine
 10
144.9359955958949
 20
-107.2213653273627
 30
0.0
 11
144.9359955958949
 21
-105.9313557413632
 31
0.0
  0
LINE
  5
D2
330
2
100
AcDbEntity
  8
HIDDEN
  6
DASHED2
370
    25
100
AcDbLine
 10
145.1818289292283
 20
-105.9313557413632
 30
0.0
 11
145.1818289292284
 21
-107.2213653273628
 31
0.0
  0
LINE
  5
D3
330
2
100
AcDbEntity
  8
HIDDEN
  6
DASHED2
370
    25
100
AcDbLine
 10
145.2151622625617
 20
-107.1658097718072
 30
0.0
 11
145.2151622625616
 21
-105.9313557413632
 31
0.0
  0
LINE
  5
D4
330
2
100
AcDbEntity
  8
0
  6
Continuous
100
AcDbLine
 10
144.9351860768705
 20
-109.1813557413632
 30
0.0
 11
144.9351860768705
 21
-109.4313557413632
 31
0.0
  0
LINE
  5
D5
330
2
100
AcDbEntity
  8
0
  6
Continuous
100
AcDbLine
 10
145.1826384482527
 20
-108.9313557413632
 30
0.0
 11
145.1826384482527
 21
-109.1813557413632
 31
0.0
  0
LINE
  5
D6
330
2
100
AcDbEntity
  8
0
  6
Continuous
100
AcDbLine
 10
144.9351860768705
 20
-109.4313557413632
 30
0.0
 11
145.1826384482527
 21
-108.9313557413632
 31
0.0
  0
LINE
  5
D7
330
2
100
AcDbEntity
  8
0
  6
Continuous
100
AcDbLine
 10
145.1826384482527
 20
-109.1813557413632
 30
0.0
 11
146.5589122625616
 21
-109.1813557413631
 31
0.0
  0
LINE
  5
D8
330
2
100
AcDbEntity
  8
0
  6
Continuous
100
AcDbLine
 10
146.3089122625616
 20
-109.1813557413631
 30
0.0
 11
146.3089122625616
 21
-106.1813557413633
 31
0.0
  0
LINE
  5
D9
330
2
100
AcDbEntity
  8
0
  6
Continuous
100
AcDbLine
 10
146.2189122625616
 20
-106.1813557413631
 30
0.0
 11
146.2189122625617
 21
-109.1813557413632
 31
0.0
  0
LINE
  5
DA
330
2
100
AcDbEntity
  8
2
  6
Continuous
100
AcDbLine
 10
145.0589122625616
 20
-106.1813557413633
 30
0.0
 11
145.0589122625616
 21
-109.1813557413632
 31
0.0
  0
LINE
  5
DB
330
2
100
AcDbEntity
  8
0
  6
Continuous
100
AcDbLine
 10
146.0589122625616
 20
-109.1813557413632
 30
0.0
 11
146.0589122625616
 21
-106.1813557413633
 31
0.0
  0
LINE
  5
DC
330
2
100
AcDbEntity
  8
HIDDEN
  6
HIDDEN
100
AcDbLine
 10
145.9339122625616
 20
-109.1813557413632
 30
0.0
 11
145.9339122625616
 21
-106.1813557413633
 31
0.0
  0
LINE
  5
DD
330
2
100
AcDbEntity
  8
0
  6
Continuous
100
AcDbLine
 10
149.333322631516
 20
-107.4620860595279
 30
0.0
 11
149.5100993268126
 21
-107.6388627548246
 31
0.0
  0
LINE
  5
DE
330
2
100
AcDbEntity
  8
0
  6
Continuous
100
AcDbLine
 10
149.3315211860445
 20
-107.1103341144062
 30
0.0
 11
149.5082978813411
 21
-107.2871108097029
 31
0.0
  0
LINE
  5
DF
330
2
100
AcDbEntity
  8
0
  6
Continuous
100
AcDbLine
 10
149.5100993268126
 20
-107.6388627548246
 30
0.0
 11
149.3315211860445
 21
-107.1103341144062
 31
0.0
  0
LINE
  5
E0
330
2
100
AcDbEntity
  8
0
  6
Continuous
100
AcDbLine
 10
149.5082978813411
 20
-107.2871108097029
 30
0.0
 11
150.4814704282083
 21
-106.3139382628355
 31
0.0
  0
LINE
  5
E1
330
2
100
AcDbEntity
  8
0
  6
Continuous
100
AcDbLine
 10
148.3601500846488
 20
-108.4352586063953
 30
0.0
 11
149.333322631516
 21
-107.462086059528
 31
0.0
  0
LINE
  5
E2
330
2
100
AcDbEntity
  8
0
  6
Continuous
100
AcDbLine
 10
162.1033505497265
 20
-106.8362353194952
 30
0.0
 11
167.9406611509558
 21
-106.8362353194952
 31
0.0
  0
LINE
  5
E3
330
2
100
AcDbEntity
  8
0
  6
Continuous
100
AcDbLine
 10
161.8533505497265
 20
-107.0862353194952
 30
0.0
 11
168.1906611509558
 21
-107.0862353194952
 31
0.0
  0
LEADER
  5
E4
330
2
100
AcDbEntity
  8
0
  6
Continuous
100
AcDbLeader
  3
STANDARD
 73
     0
 40
0.1940228512960437
 41
1.940100613915415
 76
     2
 10
161.2733104247902
 20
-104.9682935908545
 30
0.0
 10
157.5415497965765
 20
-104.9682935908545
 30
0.0
340
52
213
0.0
223
-0.09375
233
0.0
1001
ACAD
1000
DSTYLE
1002
{
1070
   147
1040
0.09
1070
    77
1070
     0
1002
}
  0
LINE
  5
E5
330
2
100
AcDbEntity
  8
0
  6
Continuous
100
AcDbLine
 10
158.8533505497265
 20
-107.8364443077029
 30
0.0
 11
161.8533505497265
 21
-107.0862353194952
 31
0.0
  0
LINE
  5
E6
330
2
100
AcDbEntity
  8
0
  6
Continuous
100
AcDbLine
 10
158.8533505497264
 20
-107.4498968185848
 30
0.0
 11
161.8533505497265
 21
-106.6996878303771
 31
0.0
  0
LINE
  5
E7
330
2
100
AcDbEntity
  8
0
  6
Continuous
100
AcDbLine
 10
158.8533505497265
 20
-104.9156547849565
 30
0.0
 11
158.8533505497265
 21
-108.0864443077029
 31
0.0
  0
LINE
  5
E8
330
2
100
AcDbEntity
  8
0
  6
Continuous
100
AcDbLine
 10
158.8533505497265
 20
-104.5801503279628
 30
0.0
 11
158.6033505497265
 21
-104.5801503279628
 31
0.0
  0
LINE
  5
E9
330
2
100
AcDbEntity
  8
0
  6
Continuous
100
AcDbLine
 10
159.1033505497265
 20
-104.9156547849565
 30
0.0
 11
158.8533505497265
 21
-104.9156547849565
 31
0.0
  0
LINE
  5
EA
330
2
100
AcDbEntity
  8
0
  6
Continuous
100
AcDbLine
 10
158.6033505497265
 20
-104.5801503279628
 30
0.0
 11
159.1033505497265
 21
-104.9156547849565
 31
0.0
  0
LINE
  5
EB
330
2
100
AcDbEntity
  8
HIDDEN
  6
DASHED2
370
    25
100
AcDbLine
 10
161.0798363428523
 20
-106.4413673893069
 30
0.0
 11
162.1033505497265
 21
-106.4413673893069
 31
0.0
  0
LINE
  5
EC
330
2
100
AcDbEntity
  8
HIDDEN
  6
DASHED2
370
    25
100
AcDbLine
 10
162.1033505497265
 20
-106.4080340559736
 30
0.0
 11
161.0242807872968
 21
-106.4080340559736
 31
0.0
  0
LINE
  5
ED
330
2
100
AcDbEntity
  8
HIDDEN
  6
DASHED2
370
    25
100
AcDbLine
 10
162.1033505497265
 20
-106.1288673893069
 30
0.0
 11
161.0798363428524
 21
-106.1288673893069
 31
0.0
  0
LINE
  5
EE
330
2
100
AcDbEntity
  8
HIDDEN
  6
DASHED2
370
    25
100
AcDbLine
 10
162.1033505497265
 20
-106.1622007226401
 30
0.0
 11
161.0242807872968
 21
-106.1622007226402
 31
0.0
  0
LINE
  5
EF
330
2
100
AcDbEntity
  8
0
  6
Continuous
100
AcDbLine
 10
162.1033505497265
 20
-105.9451173893069
 30
0.0
 11
162.1033505497265
 21
-106.6251173893068
 31
0.0
  0
LINE
  5
F0
330
2
100
AcDbEntity
  8
0
  6
Continuous
100
AcDbLine
 10
162.1533505497265
 20
-106.6251173893068
 30
0.0
 11
162.1033505497265
 21
-106.6251173893068
 31
0.0
  0
LINE
  5
F1
330
2
100
AcDbEntity
  8
0
  6
Continuous
100
AcDbLine
 10
162.1533505497265
 20
-105.9451173893069
 30
0.0
 11
162.1033505497265
 21
-105.9451173893069
 31
0.0
  0
LINE
  5
F2
330
2
100
AcDbEntity
  8
0
  6
Continuous
100
AcDbLine
 10
162.1533505497266
 20
-106.5737925239016
 30
0.0
 11
162.3660792991683
 21
-106.5737925239016
 31
0.0
  0
LINE
  5
F3
330
2
100
AcDbEntity
  8
0
  6
Continuous
100
AcDbLine
 10
162.1533505497266
 20
-106.4294549566042
 30
0.0
 11
162.3660792991683
 21
-106.4294549566042
 31
0.0
  0
LINE
  5
F4
330
2
100
AcDbEntity
  8
0
  6
Continuous
100
AcDbLine
 10
162.1533505497266
 20
-105.9964422547121
 30
0.0
 11
162.3660792991683
 21
-105.9964422547121
 31
0.0
  0
LINE
  5
F5
330
2
100
AcDbEntity
  8
0
  6
Continuous
100
AcDbLine
 10
162.1533505497266
 20
-106.1407798220095
 30
0.0
 11
162.3660792991683
 21
-106.1407798220095
 31
0.0
  0
ARC
  5
F6
330
2
100
AcDbEntity
  8
0
  6
Continuous
100
AcDbCircle
 10
162.3046209658351
 20
-106.5016237402529
 30
0.0
 40
0.094791666666622
100
AcDbArc
 50
310.4174382056671
 51
49.58256179431511
  0
LINE
  5
F7
330
2
100
AcDbEntity
  8
0
  6
Continuous
100
AcDbLine
 10
162.3994126325017
 20
-106.0686110383607
 30
0.0
 11
162.3994126325017
 21
-106.501623740253
 31
0.0
  0
ARC
  5
F8
330
2
100
AcDbEntity
  8
0
  6
Continuous
100
AcDbCircle
 10
162.3046209658349
 20
-106.0686110383607
 30
0.0
 40
0.0947916666667418
100
AcDbArc
 50
310.4174382057531
 51
49.58256179422962
  0
ARC
  5
F9
330
2
100
AcDbEntity
  8
0
  6
Continuous
100
AcDbCircle
 10
162.070245965835
 20
-106.2851173893067
 30
0.0
 40
0.3291666666666718
100
AcDbArc
 50
333.9921761143461
 51
26.00782388562111
  0
LINE
  5
FA
330
2
100
AcDbEntity
  8
0
  6
Continuous
100
AcDbLine
 10
162.1533505497265
 20
-106.6251173893068
 30
0.0
 11
162.1533505497265
 21
-105.9451173893069
 31
0.0
  0
LINE
  5
FB
330
2
100
AcDbEntity
  8
0
  6
Continuous
100
AcDbLine
 10
162.1533505497266
 20
-105.9964422547121
 30
0.0
 11
162.1533505497266
 21
-106.5737925239016
 31
0.0
  0
LINE
  5
FC
330
2
100
AcDbEntity
  8
0
  6
Continuous
100
AcDbLine
 10
162.1533505497266
 20
-105.9964422547121
 30
0.0
 11
162.1533505497266
 21
-106.5737925239016
 31
0.0
  0
LINE
  5
FD
330
2
100
AcDbEntity
  8
0
  6
Continuous
100
AcDbLine
 10
162.1533505497266
 20
-106.6251173893068
 30
0.0
 11
162.1533505497266
 21
-105.9451173893069
 31
0.0
  0
LINE
  5
FE
330
2
100
AcDbEntity
  8
HIDDEN
  6
DASHED2
370
    25
100
AcDbLine
 10
161.0798363428524
 20
-106.1288673893069
 30
0.0
 11
161.0242807872968
 21
-106.1622007226402
 31
0.0
  0
LINE
  5
FF
330
2
100
AcDbEntity
  8
HIDDEN
  6
DASHED2
370
    25
100
AcDbLine
 10
161.0242807872968
 20
-106.1622007226402
 30
0.0
 11
161.0242807872968
 21
-106.4080340559736
 31
0.0
  0
LINE
  5
100
330
2
100
AcDbEntity
  8
HIDDEN
  6
DASHED2
370
    25
100
AcDbLine
 10
161.0242807872968
 20
-106.4080340559736
 30
0.0
 11
161.0798363428524
 21
-106.4413673893069
 31
0.0
  0
LINE
  5
101
330
2
100
AcDbEntity
  8
HIDDEN
  6
DASHED2
370
    25
100
AcDbLine
 10
161.0798363428524
 20
-106.1288673893069
 30
0.0
 11
161.0798363428524
 21
-106.4413673893069
 31
0.0
  0
LINE
  5
102
330
2
100
AcDbEntity
  8
HIDDEN
  6
DASHED2
370
    25
100
AcDbLine
 10
161.0798363428523
 20
-105.0982384133192
 30
0.0
 11
162.1033505497265
 21
-105.0982384133192
 31
0.0
  0
LINE
  5
103
330
2
100
AcDbEntity
  8
HIDDEN
  6
DASHED2
370
    25
100
AcDbLine
 10
162.1033505497265
 20
-104.7857384133192
 30
0.0
 11
161.0798363428524
 21
-104.7857384133192
 31
0.0
  0
LINE
  5
104
330
2
100
AcDbEntity
  8
HIDDEN
  6
DASHED2
370
    25
100
AcDbLine
 10
162.1033505497265
 20
-105.0649050799859
 30
0.0
 11
161.0242807872968
 21
-105.0649050799859
 31
0.0
  0
LINE
  5
105
330
2
100
AcDbEntity
  8
HIDDEN
  6
DASHED2
370
    25
100
AcDbLine
 10
162.1033505497265
 20
-104.8190717466525
 30
0.0
 11
161.0242807872968
 21
-104.8190717466525
 31
0.0
  0
LINE
  5
106
330
2
100
AcDbEntity
  8
0
  6
Continuous
100
AcDbLine
 10
162.1533505497265
 20
-104.6019884133193
 30
0.0
 11
162.1033505497265
 21
-104.6019884133193
 31
0.0
  0
LINE
  5
107
330
2
100
AcDbEntity
  8
0
  6
Continuous
100
AcDbLine
 10
162.1533505497265
 20
-105.2819884133191
 30
0.0
 11
162.1033505497265
 21
-105.2819884133191
 31
0.0
  0
LINE
  5
108
330
2
100
AcDbEntity
  8
0
  6
Continuous
100
AcDbLine
 10
162.1033505497265
 20
-104.6019884133193
 30
0.0
 11
162.1033505497265
 21
-105.2819884133191
 31
0.0
  0
LINE
  5
109
330
2
100
AcDbEntity
  8
HIDDEN
  6
DASHED2
370
    25
100
AcDbLine
 10
161.0798363428524
 20
-104.7857384133192
 30
0.0
 11
161.0798363428524
 21
-105.0982384133192
 31
0.0
  0
LINE
  5
10A
330
2
100
AcDbEntity
  8
HIDDEN
  6
DASHED2
370
    25
100
AcDbLine
 10
161.0242807872968
 20
-105.0649050799859
 30
0.0
 11
161.0798363428524
 21
-105.0982384133192
 31
0.0
  0
LINE
  5
10B
330
2
100
AcDbEntity
  8
HIDDEN
  6
DASHED2
370
    25
100
AcDbLine
 10
161.0242807872968
 20
-104.8190717466525
 30
0.0
 11
161.0242807872968
 21
-105.0649050799859
 31
0.0
  0
LINE
  5
10C
330
2
100
AcDbEntity
  8
HIDDEN
  6
DASHED2
370
    25
100
AcDbLine
 10
161.0798363428524
 20
-104.7857384133192
 30
0.0
 11
161.0242807872968
 21
-104.8190717466525
 31
0.0
  0
LINE
  5
10D
330
2
100
AcDbEntity
  8
0
  6
Continuous
100
AcDbLine
 10
162.1533505497266
 20
-105.2819884133191
 30
0.0
 11
162.1533505497266
 21
-104.6019884133193
 31
0.0
  0
LINE
  5
10E
330
2
100
AcDbEntity
  8
0
  6
Continuous
100
AcDbLine
 10
162.1533505497266
 20
-104.6533132787244
 30
0.0
 11
162.1533505497266
 21
-105.230663547914
 31
0.0
  0
LINE
  5
10F
330
2
100
AcDbEntity
  8
0
  6
Continuous
100
AcDbLine
 10
162.1533505497266
 20
-104.6533132787244
 30
0.0
 11
162.1533505497266
 21
-105.230663547914
 31
0.0
  0
LINE
  5
110
330
2
100
AcDbEntity
  8
0
  6
Continuous
100
AcDbLine
 10
162.1533505497265
 20
-105.2819884133191
 30
0.0
 11
162.1533505497265
 21
-104.6019884133193
 31
0.0
  0
ARC
  5
111
330
2
100
AcDbEntity
  8
0
  6
Continuous
100
AcDbCircle
 10
162.070245965835
 20
-104.9419884133191
 30
0.0
 40
0.3291666666666718
100
AcDbArc
 50
333.9921761143461
 51
26.00782388562111
  0
ARC
  5
112
330
2
100
AcDbEntity
  8
0
  6
Continuous
100
AcDbCircle
 10
162.3046209658349
 20
-104.7254820623731
 30
0.0
 40
0.0947916666667418
100
AcDbArc
 50
310.4174382057531
 51
49.58256179422962
  0
LINE
  5
113
330
2
100
AcDbEntity
  8
0
  6
Continuous
100
AcDbLine
 10
162.3994126325017
 20
-104.7254820623731
 30
0.0
 11
162.3994126325017
 21
-105.1584947642653
 31
0.0
  0
ARC
  5
114
330
2
100
AcDbEntity
  8
0
  6
Continuous
100
AcDbCircle
 10
162.3046209658351
 20
-105.1584947642652
 30
0.0
 40
0.094791666666622
100
AcDbArc
 50
310.4174382056671
 51
49.58256179431511
  0
LINE
  5
115
330
2
100
AcDbEntity
  8
0
  6
Continuous
100
AcDbLine
 10
162.1533505497266
 20
-104.7976508460218
 30
0.0
 11
162.3660792991683
 21
-104.7976508460218
 31
0.0
  0
LINE
  5
116
330
2
100
AcDbEntity
  8
0
  6
Continuous
100
AcDbLine
 10
162.1533505497266
 20
-104.6533132787244
 30
0.0
 11
162.3660792991683
 21
-104.6533132787244
 31
0.0
  0
LINE
  5
117
330
2
100
AcDbEntity
  8
0
  6
Continuous
100
AcDbLine
 10
162.1533505497266
 20
-105.0863259806166
 30
0.0
 11
162.3660792991683
 21
-105.0863259806166
 31
0.0
  0
LINE
  5
118
330
2
100
AcDbEntity
  8
0
  6
Continuous
100
AcDbLine
 10
162.1533505497266
 20
-105.230663547914
 30
0.0
 11
162.3660792991683
 21
-105.230663547914
 31
0.0
  0
ELLIPSE
  5
119
330
2
100
AcDbEntity
  8
0
  6
Continuous
100
AcDbEllipse
 10
162.7814282000338
 20
-106.2844976195155
 30
0.0
 11
0.0
 21
0.15625
 31
0.0
210
0.0
220
0.0
230
1.0
 40
0.7071067811864851
 41
0.0
 42
6.283185307179586
  0
ELLIPSE
  5
11A
330
2
100
AcDbEntity
  8
0
  6
Continuous
100
AcDbEllipse
 10
162.7814282000338
 20
-104.9419884133192
 30
0.0
 11
0.0
 21
0.15625
 31
0.0
210
0.0
220
0.0
230
1.0
 40
0.7071067811864851
 41
0.0
 42
6.283185307179586
  0
LINE
  5
11B
330
2
100
AcDbEntity
  8
HIDDEN
  6
DASHED2
370
    25
100
AcDbLine
 10
167.9406611509558
 20
-104.8190717466525
 30
0.0
 11
169.0197309133855
 21
-104.8190717466525
 31
0.0
  0
LINE
  5
11C
330
2
100
AcDbEntity
  8
HIDDEN
  6
DASHED2
370
    25
100
AcDbLine
 10
167.9406611509558
 20
-105.0649050799859
 30
0.0
 11
169.0197309133855
 21
-105.0649050799859
 31
0.0
  0
LINE
  5
11D
330
2
100
AcDbEntity
  8
HIDDEN
  6
DASHED2
370
    25
100
AcDbLine
 10
167.9406611509558
 20
-104.7857384133192
 30
0.0
 11
168.9641753578299
 21
-104.7857384133192
 31
0.0
  0
LINE
  5
11E
330
2
100
AcDbEntity
  8
HIDDEN
  6
DASHED2
370
    25
100
AcDbLine
 10
168.96417535783
 20
-105.0982384133192
 30
0.0
 11
167.9406611509558
 21
-105.0982384133192
 31
0.0
  0
LINE
  5
11F
330
2
100
AcDbEntity
  8
HIDDEN
  6
DASHED2
370
    25
100
AcDbLine
 10
167.9406611509558
 20
-106.1622007226401
 30
0.0
 11
169.0197309133855
 21
-106.1622007226402
 31
0.0
  0
LINE
  5
120
330
2
100
AcDbEntity
  8
HIDDEN
  6
DASHED2
370
    25
100
AcDbLine
 10
167.9406611509558
 20
-106.1288673893069
 30
0.0
 11
168.9641753578299
 21
-106.1288673893069
 31
0.0
  0
LINE
  5
121
330
2
100
AcDbEntity
  8
HIDDEN
  6
DASHED2
370
    25
100
AcDbLine
 10
167.9406611509558
 20
-106.4080340559736
 30
0.0
 11
169.0197309133855
 21
-106.4080340559736
 31
0.0
  0
LINE
  5
122
330
2
100
AcDbEntity
  8
HIDDEN
  6
DASHED2
370
    25
100
AcDbLine
 10
168.96417535783
 20
-106.4413673893069
 30
0.0
 11
167.9406611509558
 21
-106.4413673893069
 31
0.0
  0
LINE
  5
123
330
2
100
AcDbEntity
  8
0
  6
Continuous
100
AcDbLine
 10
167.8906611509556
 20
-105.230663547914
 30
0.0
 11
167.677932401514
 21
-105.230663547914
 31
0.0
  0
LINE
  5
124
330
2
100
AcDbEntity
  8
0
  6
Continuous
100
AcDbLine
 10
167.8906611509556
 20
-105.0863259806166
 30
0.0
 11
167.677932401514
 21
-105.0863259806166
 31
0.0
  0
LINE
  5
125
330
2
100
AcDbEntity
  8
0
  6
Continuous
100
AcDbLine
 10
167.8906611509556
 20
-104.6533132787244
 30
0.0
 11
167.677932401514
 21
-104.6533132787244
 31
0.0
  0
LINE
  5
126
330
2
100
AcDbEntity
  8
0
  6
Continuous
100
AcDbLine
 10
167.8906611509556
 20
-104.7976508460218
 30
0.0
 11
167.677932401514
 21
-104.7976508460218
 31
0.0
  0
ARC
  5
127
330
2
100
AcDbEntity
  8
0
  6
Continuous
100
AcDbCircle
 10
167.7393907348472
 20
-105.1584947642652
 30
0.0
 40
0.094791666666622
100
AcDbArc
 50
130.4174382056848
 51
229.582561794333
  0
LINE
  5
128
330
2
100
AcDbEntity
  8
0
  6
Continuous
100
AcDbLine
 10
167.6445990681805
 20
-104.7254820623731
 30
0.0
 11
167.6445990681805
 21
-105.1584947642653
 31
0.0
  0
ARC
  5
129
330
2
100
AcDbEntity
  8
0
  6
Continuous
100
AcDbCircle
 10
167.7393907348474
 20
-104.7254820623731
 30
0.0
 40
0.0947916666667418
100
AcDbArc
 50
130.4174382057704
 51
229.5825617942469
  0
ARC
  5
12A
330
2
100
AcDbEntity
  8
0
  6
Continuous
100
AcDbCircle
 10
167.9737657348473
 20
-104.9419884133191
 30
0.0
 40
0.3291666666666718
100
AcDbArc
 50
153.9921761143788
 51
206.0078238856539
  0
LINE
  5
12B
330
2
100
AcDbEntity
  8
0
  6
Continuous
100
AcDbLine
 10
167.8906611509557
 20
-105.2819884133191
 30
0.0
 11
167.8906611509557
 21
-104.6019884133193
 31
0.0
  0
LINE
  5
12C
330
2
100
AcDbEntity
  8
0
  6
Continuous
100
AcDbLine
 10
167.8906611509556
 20
-104.6533132787244
 30
0.0
 11
167.8906611509556
 21
-105.230663547914
 31
0.0
  0
LINE
  5
12D
330
2
100
AcDbEntity
  8
0
  6
Continuous
100
AcDbLine
 10
167.8906611509556
 20
-104.6533132787244
 30
0.0
 11
167.8906611509556
 21
-105.230663547914
 31
0.0
  0
LINE
  5
12E
330
2
100
AcDbEntity
  8
0
  6
Continuous
100
AcDbLine
 10
167.8906611509556
 20
-105.2819884133191
 30
0.0
 11
167.8906611509556
 21
-104.6019884133193
 31
0.0
  0
LINE
  5
12F
330
2
100
AcDbEntity
  8
0
  6
Continuous
100
AcDbLine
 10
167.9406611509558
 20
-104.6019884133193
 30
0.0
 11
167.9406611509558
 21
-105.2819884133191
 31
0.0
  0
LINE
  5
130
330
2
100
AcDbEntity
  8
0
  6
Continuous
100
AcDbLine
 10
167.8906611509557
 20
-105.2819884133191
 30
0.0
 11
167.9406611509558
 21
-105.2819884133191
 31
0.0
  0
LINE
  5
131
330
2
100
AcDbEntity
  8
0
  6
Continuous
100
AcDbLine
 10
167.8906611509557
 20
-104.6019884133193
 30
0.0
 11
167.9406611509558
 21
-104.6019884133193
 31
0.0
  0
LINE
  5
132
330
2
100
AcDbEntity
  8
0
  6
Continuous
100
AcDbLine
 10
167.8906611509556
 20
-106.6251173893068
 30
0.0
 11
167.8906611509556
 21
-105.9451173893069
 31
0.0
  0
LINE
  5
133
330
2
100
AcDbEntity
  8
0
  6
Continuous
100
AcDbLine
 10
167.8906611509556
 20
-105.9964422547121
 30
0.0
 11
167.8906611509556
 21
-106.5737925239016
 31
0.0
  0
LINE
  5
134
330
2
100
AcDbEntity
  8
0
  6
Continuous
100
AcDbLine
 10
167.8906611509556
 20
-105.9964422547121
 30
0.0
 11
167.8906611509556
 21
-106.5737925239016
 31
0.0
  0
LINE
  5
135
330
2
100
AcDbEntity
  8
0
  6
Continuous
100
AcDbLine
 10
167.8906611509557
 20
-106.6251173893068
 30
0.0
 11
167.8906611509557
 21
-105.9451173893069
 31
0.0
  0
ARC
  5
136
330
2
100
AcDbEntity
  8
0
  6
Continuous
100
AcDbCircle
 10
167.9737657348473
 20
-106.2851173893067
 30
0.0
 40
0.3291666666666718
100
AcDbArc
 50
153.9921761143788
 51
206.0078238856539
  0
ARC
  5
137
330
2
100
AcDbEntity
  8
0
  6
Continuous
100
AcDbCircle
 10
167.7393907348474
 20
-106.0686110383607
 30
0.0
 40
0.0947916666667418
100
AcDbArc
 50
130.4174382057704
 51
229.5825617942469
  0
LINE
  5
138
330
2
100
AcDbEntity
  8
0
  6
Continuous
100
AcDbLine
 10
167.6445990681805
 20
-106.0686110383607
 30
0.0
 11
167.6445990681805
 21
-106.501623740253
 31
0.0
  0
ARC
  5
139
330
2
100
AcDbEntity
  8
0
  6
Continuous
100
AcDbCircle
 10
167.7393907348472
 20
-106.5016237402529
 30
0.0
 40
0.094791666666622
100
AcDbArc
 50
130.4174382056848
 51
229.582561794333
  0
LINE
  5
13A
330
2
100
AcDbEntity
  8
0
  6
Continuous
100
AcDbLine
 10
167.8906611509556
 20
-106.1407798220095
 30
0.0
 11
167.677932401514
 21
-106.1407798220095
 31
0.0
  0
LINE
  5
13B
330
2
100
AcDbEntity
  8
0
  6
Continuous
100
AcDbLine
 10
167.8906611509556
 20
-105.9964422547121
 30
0.0
 11
167.677932401514
 21
-105.9964422547121
 31
0.0
  0
LINE
  5
13C
330
2
100
AcDbEntity
  8
0
  6
Continuous
100
AcDbLine
 10
167.8906611509556
 20
-106.4294549566042
 30
0.0
 11
167.677932401514
 21
-106.4294549566042
 31
0.0
  0
LINE
  5
13D
330
2
100
AcDbEntity
  8
0
  6
Continuous
100
AcDbLine
 10
167.8906611509556
 20
-106.5737925239016
 30
0.0
 11
167.677932401514
 21
-106.5737925239016
 31
0.0
  0
LINE
  5
13E
330
2
100
AcDbEntity
  8
0
  6
Continuous
100
AcDbLine
 10
167.8906611509557
 20
-105.9451173893069
 30
0.0
 11
167.9406611509558
 21
-105.9451173893069
 31
0.0
  0
LINE
  5
13F
330
2
100
AcDbEntity
  8
0
  6
Continuous
100
AcDbLine
 10
167.8906611509557
 20
-106.6251173893068
 30
0.0
 11
167.9406611509558
 21
-106.6251173893068
 31
0.0
  0
LINE
  5
140
330
2
100
AcDbEntity
  8
0
  6
Continuous
100
AcDbLine
 10
167.9406611509558
 20
-105.9451173893069
 30
0.0
 11
167.9406611509558
 21
-106.6251173893068
 31
0.0
  0
ELLIPSE
  5
141
330
2
100
AcDbEntity
  8
0
  6
Continuous
100
AcDbEllipse
 10
167.2625835006485
 20
-104.9419884133192
 30
0.0
 11
0.0
 21
0.15625
 31
0.0
210
0.0
220
0.0
230
-1.0
 40
0.7071067811864851
 41
0.0
 42
6.283185307179586
  0
ELLIPSE
  5
142
330
2
100
AcDbEntity
  8
0
  6
Continuous
100
AcDbEllipse
 10
167.2625835006485
 20
-106.2844976195155
 30
0.0
 11
0.0
 21
0.15625
 31
0.0
210
0.0
220
0.0
230
-1.0
 40
0.7071067811864851
 41
0.0
 42
6.283185307179586
  0
CIRCLE
  5
143
330
2
100
AcDbEntity
  8
0
  6
Continuous
100
AcDbCircle
 10
165.0220058503411
 20
-106.2844976195155
 30
0.0
 40
0.15625
  0
CIRCLE
  5
144
330
2
100
AcDbEntity
  8
0
  6
Continuous
100
AcDbCircle
 10
165.0220058503411
 20
-104.9419884133192
 30
0.0
 40
0.15625
  0
LINE
  5
145
330
2
100
AcDbEntity
  8
HIDDEN
  6
DASHED2
370
    25
100
AcDbLine
 10
168.9641753578299
 20
-104.7857384133192
 30
0.0
 11
169.0197309133854
 21
-104.8190717466525
 31
0.0
  0
LINE
  5
146
330
2
100
AcDbEntity
  8
HIDDEN
  6
DASHED2
370
    25
100
AcDbLine
 10
169.0197309133854
 20
-104.8190717466525
 30
0.0
 11
169.0197309133854
 21
-105.0649050799859
 31
0.0
  0
LINE
  5
147
330
2
100
AcDbEntity
  8
HIDDEN
  6
DASHED2
370
    25
100
AcDbLine
 10
169.0197309133854
 20
-105.0649050799859
 30
0.0
 11
168.9641753578299
 21
-105.0982384133192
 31
0.0
  0
LINE
  5
148
330
2
100
AcDbEntity
  8
HIDDEN
  6
DASHED2
370
    25
100
AcDbLine
 10
168.9641753578299
 20
-104.7857384133192
 30
0.0
 11
168.9641753578299
 21
-105.0982384133192
 31
0.0
  0
LINE
  5
149
330
2
100
AcDbEntity
  8
HIDDEN
  6
DASHED2
370
    25
100
AcDbLine
 10
168.9641753578299
 20
-106.1288673893069
 30
0.0
 11
168.9641753578299
 21
-106.4413673893069
 31
0.0
  0
LINE
  5
14A
330
2
100
AcDbEntity
  8
HIDDEN
  6
DASHED2
370
    25
100
AcDbLine
 10
169.0197309133854
 20
-106.4080340559736
 30
0.0
 11
168.9641753578299
 21
-106.4413673893069
 31
0.0
  0
LINE
  5
14B
330
2
100
AcDbEntity
  8
HIDDEN
  6
DASHED2
370
    25
100
AcDbLine
 10
169.0197309133854
 20
-106.1622007226402
 30
0.0
 11
169.0197309133854
 21
-106.4080340559736
 31
0.0
  0
LINE
  5
14C
330
2
100
AcDbEntity
  8
HIDDEN
  6
DASHED2
370
    25
100
AcDbLine
 10
168.9641753578299
 20
-106.1288673893069
 30
0.0
 11
169.0197309133854
 21
-106.1622007226402
 31
0.0
  0
LINE
  5
14D
330
2
100
AcDbEntity
  8
0
  6
Continuous
100
AcDbLine
 10
171.4406611509558
 20
-104.5801503279628
 30
0.0
 11
170.9406611509558
 21
-104.9156547849565
 31
0.0
  0
LINE
  5
14E
330
2
100
AcDbEntity
  8
0
  6
Continuous
100
AcDbLine
 10
170.9406611509558
 20
-104.9156547849565
 30
0.0
 11
171.1906611509558
 21
-104.9156547849565
 31
0.0
  0
LINE
  5
14F
330
2
100
AcDbEntity
  8
0
  6
Continuous
100
AcDbLine
 10
171.1906611509558
 20
-104.5801503279628
 30
0.0
 11
171.4406611509558
 21
-104.5801503279628
 31
0.0
  0
LINE
  5
150
330
2
100
AcDbEntity
  8
0
  6
Continuous
100
AcDbLine
 10
171.1906611509558
 20
-104.9156547849565
 30
0.0
 11
171.1906611509558
 21
-108.0864443077029
 31
0.0
  0
LINE
  5
151
330
2
100
AcDbEntity
  8
0
  6
Continuous
100
AcDbLine
 10
171.1906611509558
 20
-107.8364443077029
 30
0.0
 11
168.1906611509558
 21
-107.0862353194952
 31
0.0
  0
LINE
  5
152
330
2
100
AcDbEntity
  8
0
  6
Continuous
100
AcDbLine
 10
171.1906611509559
 20
-107.4498968185848
 30
0.0
 11
168.1906611509558
 21
-106.6996878303771
 31
0.0
  0
LINE
  5
153
330
2
100
AcDbEntity
  8
0
  6
Continuous
100
AcDbLine
 10
140.6095266437819
 20
-98.73829007179429
 30
0.0
 11
139.6363540969146
 21
-99.71146261866159
 31
0.0
  0
LINE
  5
154
330
2
100
AcDbEntity
  8
0
  6
Continuous
100
AcDbLine
 10
139.8131307922113
 20
-99.53468592336498
 30
0.0
 11
141.9344511357708
 21
-101.6560062669245
 31
0.0
  0
LINE
  5
155
330
2
100
AcDbEntity
  8
0
  6
Continuous
100
AcDbLine
 10
141.9980907460778
 20
-101.5923666566178
 30
0.0
 11
139.876770402518
 21
-99.47104631305821
 31
0.0
  0
LINE
  5
156
330
2
100
AcDbEntity
  8
0
  6
Continuous
100
AcDbLine
 10
139.9899074875079
 20
-99.35790922806832
 30
0.0
 11
142.1112278310675
 21
-101.4792295716278
 31
0.0
  0
LINE
  5
157
330
2
100
AcDbEntity
  8
HIDDEN
  6
HIDDEN
100
AcDbLine
 10
140.0782958351562
 20
-99.26952088042
 30
0.0
 11
142.1996161787158
 21
-101.3908412239795
 31
0.0
  0
HATCH
  5
158
330
2
100
AcDbEntity
  8
HIDDEN
  6
Continuous
100
AcDbHatch
 10
0.0
 20
0.0
 30
0.0
210
0.0
220
0.0
230
1.0
  2
ANSI31
 70
     0
 71
     0
 91
        8
 92
        7
 72
     0
 73
     1
 93
        4
 10
143.5254413934405
 20
-100.0650160092548
 10
141.404121049881
 20
-97.94369566569519
 10
141.3157327022326
 20
-98.0320840133435
 10
143.4370530457923
 20
-100.1534043569031
 97
        0
 92
        7
 72
     0
 73
     1
 93
        4
 10
142.1996161787158
 20
-101.3908412239796
 10
140.0782958351562
 20
-99.26952088042002
 10
139.9899074875079
 20
-99.35790922806837
 10
142.1112278310676
 20
-101.479229571628
 97
        0
 92
        7
 72
     0
 73
     1
 93
        4
 10
142.6194608300453
 20
-100.7942198773534
 10
142.4426841347487
 20
-100.6174431820568
 10
141.9344511357709
 20
-101.1256761810346
 10
142.1112278310675
 20
-101.3024528763313
 97
        0
 92
        7
 72
     0
 73
     1
 93
        4
 10
142.6430310560848
 20
-100.7706496513139
 10
142.4662543607882
 20
-100.5938729560172
 10
142.4426841347487
 20
-100.6174431820568
 10
142.6194608300453
 20
-100.7942198773534
 97
        0
 92
        7
 72
     0
 73
     1
 93
        4
 10
142.7299462646057
 20
-100.683734442793
 10
142.5531695693091
 20
-100.5069577474964
 10
142.4662543607882
 20
-100.5938729560173
 10
142.6430310560848
 20
-100.7706496513139
 97
        0
 92
        7
 72
     0
 73
     1
 93
        4
 10
142.8168614731266
 20
-100.5968192342721
 10
142.64008477783
 20
-100.4200425389755
 10
142.5531695693091
 20
-100.5069577474964
 10
142.7299462646057
 20
-100.683734442793
 97
        0
 92
        7
 72
     0
 73
     1
 93
        4
 10
142.8404316991661
 20
-100.5732490082326
 10
142.6636550038695
 20
-100.396472312936
 10
142.64008477783
 20
-100.4200425389755
 10
142.8168614731266
 20
-100.5968192342721
 97
        0
 92
        7
 72
     0
 73
     1
 93
        4
 10
143.3486646981439
 20
-100.0650160092547
 10
143.1718880028473
 20
-99.88823931395813
 10
142.6636550038694
 20
-100.396472312936
 10
142.8404316991661
 20
-100.5732490082327
 97
        0
 75
     0
 76
     1
 52
-45.00000000000006
 41
1.0
 77
     0
 78
     1
 53
360.0
 43
104.9103605095673
 44
86.31265357098554
 45
0.0000000000000002
 46
0.125
 79
     0
 47
0.0103572092086768
 98
        8
 10
142.113782201953
 20
-98.73468223734334
 10
141.3729331189264
 20
-100.7025997977142
 10
142.3227291457645
 20
-100.9960039536621
 10
142.6025403057404
 20
-100.7519259162509
 10
142.623372137704
 20
-100.7072720025775
 10
142.7215926806554
 20
-100.5614079685011
 10
142.7632644602157
 20
-100.5137803323661
 10
142.816838512493
 20
-100.4304290140989
  0
HATCH
  5
159
330
2
100
AcDbEntity
  8
HIDDEN
  6
Continuous
100
AcDbHatch
 10
0.0
 20
0.0
 30
0.0
210
0.0
220
0.0
230
1.0
  2
ANSI31
 70
     0
 71
     0
 91
        8
 92
        7
 72
     0
 73
     1
 93
        4
 10
141.8902569619467
 20
-102.0127004407487
 10
138.8902569619468
 20
-102.0127004407487
 10
138.8902569619468
 20
-102.1377004407487
 10
141.8902569619468
 20
-102.1377004407487
 97
        0
 92
        7
 72
     0
 73
     1
 93
        4
 10
141.8902569619469
 20
-103.8877004407487
 10
138.8902569619469
 20
-103.8877004407487
 10
138.8902569619469
 20
-104.0127004407487
 10
141.8902569619469
 20
-104.0127004407487
 97
        0
 92
        7
 72
     0
 73
     1
 93
        4
 10
141.7652569619468
 20
-103.1689504407487
 10
141.5152569619468
 20
-103.1689504407488
 10
141.5152569619468
 20
-103.8877004407487
 10
141.7652569619468
 20
-103.8877004407487
 97
        0
 92
        7
 72
     0
 73
     1
 93
        4
 10
141.7652569619468
 20
-103.1356171074154
 10
141.5152569619468
 20
-103.1356171074154
 10
141.5152569619468
 20
-103.1689504407487
 10
141.7652569619468
 20
-103.1689504407487
 97
        0
 92
        7
 72
     0
 73
     1
 93
        4
 10
141.7652569619468
 20
-103.0127004407487
 10
141.5152569619468
 20
-103.0127004407487
 10
141.5152569619468
 20
-103.1356171074155
 10
141.7652569619468
 20
-103.1356171074155
 97
        0
 92
        7
 72
     0
 73
     1
 93
        4
 10
141.7652569619468
 20
-102.889783774082
 10
141.5152569619468
 20
-102.889783774082
 10
141.5152569619468
 20
-103.0127004407487
 10
141.7652569619468
 20
-103.0127004407487
 97
        0
 92
        7
 72
     0
 73
     1
 93
        4
 10
141.7652569619468
 20
-102.8564504407488
 10
141.5152569619468
 20
-102.8564504407488
 10
141.5152569619468
 20
-102.889783774082
 10
141.7652569619468
 20
-102.889783774082
 97
        0
 92
        7
 72
     0
 73
     1
 93
        4
 10
141.7652569619467
 20
-102.1377004407487
 10
141.5152569619467
 20
-102.1377004407487
 10
141.5152569619468
 20
-102.8564504407488
 10
141.7652569619468
 20
-102.8564504407488
 97
        0
 75
     0
 76
     1
 52
0.0
 41
1.0
 77
     0
 78
     1
 53
45.0
 43
-17.2036426090408
 44
2.471228032130909
 45
-0.0883883476483184
 46
0.0883883476483185
 79
     0
 47
0.0103572092086768
 98
        8
 10
139.9513751435615
 20
-102.0702061964138
 10
140.8190435848719
 20
-103.9855934586121
 10
141.6981188644922
 20
-103.5214543155899
 10
141.7233859977707
 20
-103.1510087115271
 10
141.7065412422517
 20
-103.1047032967161
 10
141.6728522065979
 20
-102.9321094371167
 10
141.6686407800262
 20
-102.8689652147226
 10
141.6475850733194
 20
-102.7721443566941
  0
LEADER
  5
15B
330
2
100
AcDbEntity
  8
0
  6
Continuous
100
AcDbLeader
  3
STANDARD
 73
     0
 40
0.1906974761255116
 41
2.431488744884038
 76
     2
 10
141.6228245073863
 20
-102.2813902022647
 30
0.0
 10
137.5784562087969
 20
-102.2813902022647
 30
0.0
340
15C
213
0.0
223
-0.09375
233
0.0
1001
ACAD
1000
DSTYLE
1002
{
1070
   147
1040
0.09
1070
    77
1070
     0
1002
}
  0
MTEXT
  5
15C
102
{ACAD_REACTORS
330
15B
102
}
330
2
100
AcDbEntity
  8
0
  6
Continuous
100
AcDbMText
 10
137.4884562087969
 20
-102.1876402022647
 30
0.0
 40
0.1875
 41
4.4125
 71
     3
 72
     1
  1
 ALUMINUM PLATE
 73
     1
 44
1.0
1001
ACAD
1000
MTEXTBEGIN
1070
    73
1070
     1
1070
    44
1040
1.0
1070
    74
1070
     0
1000
MTEXTEND
  0
LEADER
  5
15D
330
2
100
AcDbEntity
  8
0
  6
Continuous
100
AcDbLeader
  3
STANDARD
 73
     0
 40
0.1940228512960437
 41
1.940100613915415
 76
     2
 10
141.3245433161752
 20
-102.9197187357802
 30
0.0
 10
137.5784562087969
 20
-102.9197187357802
 30
0.0
340
15E
213
0.0
223
-0.09375
233
0.0
1001
ACAD
1000
DSTYLE
1002
{
1070
   147
1040
0.09
1070
    77
1070
     0
1002
}
  0
MTEXT
  5
15E
102
{ACAD_REACTORS
330
15D
102
}
330
2
100
AcDbEntity
  8
0
  6
Continuous
100
AcDbMText
 10
137.4884562087969
 20
-102.8259687357802
 30
0.0
 40
0.1875
 41
4.4125
 71
     3
 72
     1
  1
MACHINE BOLT
 73
     1
 44
1.0
1001
ACAD
1000
MTEXTBEGIN
1070
    73
1070
     1
1070
    44
1040
1.0
1070
    74
1070
     0
1000
MTEXTEND
  0
LINE
  5
15F
330
2
100
AcDbEntity
  8
0
  6
Continuous
100
AcDbLine
 10
141.8902569619469
 20
-101.8527004407488
 30
0.0
 11
138.8902569619469
 21
-101.8527004407487
 31
0.0
  0
LINE
  5
160
330
2
100
AcDbEntity
  8
HIDDEN
  6
HIDDEN
100
AcDbLine
 10
138.8902569619468
 20
-102.1377004407487
 30
0.0
 11
141.8902569619467
 21
-102.1377004407487
 31
0.0
  0
LINE
  5
161
330
2
100
AcDbEntity
  8
HIDDEN
  6
HIDDEN
100
AcDbLine
 10
138.8902569619469
 20
-103.8877004407487
 30
0.0
 11
141.8902569619467
 21
-103.8877004407487
 31
0.0
  0
LINE
  5
162
330
2
100
AcDbEntity
  8
0
  6
Continuous
100
AcDbLine
 10
141.8902569619469
 20
-104.1727004407486
 30
0.0
 11
138.8902569619469
 21
-104.1727004407488
 31
0.0
  0
LINE
  5
163
330
2
100
AcDbEntity
  8
2
  6
Continuous
100
AcDbLine
 10
141.8902569619467
 20
-103.0127004407487
 30
0.0
 11
138.8902569619468
 21
-103.0127004407487
 31
0.0
  0
LINE
  5
164
330
2
100
AcDbEntity
  8
0
  6
Continuous
100
AcDbLine
 10
138.8902569619469
 20
-104.0127004407487
 30
0.0
 11
141.8902569619467
 21
-104.0127004407487
 31
0.0
  0
LINE
  5
165
330
2
100
AcDbEntity
  8
0
  6
Continuous
100
AcDbLine
 10
138.8902569619468
 20
-102.0127004407487
 30
0.0
 11
141.8902569619467
 21
-102.0127004407487
 31
0.0
  0
LINE
  5
166
330
2
100
AcDbEntity
  8
0
  6
Continuous
100
AcDbLine
 10
138.8902569619468
 20
-101.7627004407487
 30
0.0
 11
141.8902569619467
 21
-101.7627004407487
 31
0.0
  0
LINE
  5
167
330
2
100
AcDbEntity
  8
0
  6
Continuous
100
AcDbLine
 10
138.8902569619469
 20
-104.2627004407487
 30
0.0
 11
141.8902569619467
 21
-104.2627004407487
 31
0.0
  0
MTEXT
  5
16A
102
{ACAD_REACTORS
330
16E
102
}
330
2
100
AcDbEntity
  8
0
  6
Continuous
100
AcDbMText
 10
137.4884562087969
 20
-104.0070991929415
 30
0.0
 40
0.1875
 41
4.4125
 71
     3
 72
     1
  1
CONDENSATION GUTTER
 73
     1
 44
1.0
1001
ACAD
1000
MTEXTBEGIN
1070
    73
1070
     1
1070
    44
1040
1.0
1070
    74
1070
     0
1000
MTEXTEND
  0
LEADER
  5
16E
330
2
100
AcDbEntity
  8
0
  6
Continuous
100
AcDbLeader
  3
STANDARD
 73
     0
 40
0.1940228512960437
 41
3.243391882673943
 76
     2
 10
139.4952407997656
 20
-104.1008491929415
 30
0.0
 10
137.5784562087969
 20
-104.1008491929415
 30
0.0
340
16A
213
0.0
223
-0.09375
233
0.0
1001
ACAD
1000
DSTYLE
1002
{
1070
   147
1040
0.09
1070
    77
1070
     0
1002
}
  0
LINE
  5
16F
330
2
100
AcDbEntity
  8
0
  6
Continuous
100
AcDbLine
 10
138.6402569619469
 20
-102.8889742550576
 30
0.0
 11
139.1402569619468
 21
-103.1364266264398
 31
0.0
  0
LINE
  5
170
330
2
100
AcDbEntity
  8
0
  6
Continuous
100
AcDbLine
 10
139.1402569619468
 20
-103.1364266264398
 30
0.0
 11
138.8902569619468
 21
-103.1364266264398
 31
0.0
  0
LINE
  5
171
330
2
100
AcDbEntity
  8
0
  6
Continuous
100
AcDbLine
 10
138.8902569619468
 20
-102.8889742550576
 30
0.0
 11
138.6402569619469
 21
-102.8889742550576
 31
0.0
  0
LINE
  5
172
330
2
100
AcDbEntity
  8
0
  6
Continuous
100
AcDbLine
 10
138.8902569619468
 20
-101.5127004407487
 30
0.0
 11
138.8902569619468
 21
-102.8889742550576
 31
0.0
  0
MTEXT
  5
173
102
{ACAD_REACTORS
330
25B
102
}
330
2
100
AcDbEntity
  8
0
  6
Continuous
100
AcDbMText
 10
157.4515497965765
 20
-103.9165689526772
 30
0.0
 40
0.1875
 41
4.4125
 71
     3
 72
     1
  1
 WELDED ALUMINUM PLATE
 73
     1
 44
1.0
1001
ACAD
1000
MTEXTBEGIN
1070
    73
1070
     1
1070
    44
1040
1.0
1070
    74
1070
     0
1000
MTEXTEND
  0
MTEXT
  5
174
102
{ACAD_REACTORS
330
25C
102
}
330
2
100
AcDbEntity
  8
0
  6
Continuous
100
AcDbMText
 10
157.4515497965765
 20
-103.4405156708417
 30
0.0
 40
0.1875
 41
4.4125
 71
     3
 72
     1
  1
 WELDED COMPRESSION RING
 73
     1
 44
1.0
1001
ACAD
1000
MTEXTBEGIN
1070
    73
1070
     1
1070
    44
1040
1.0
1070
    74
1070
     0
1000
MTEXTEND
  0
MTEXT
  5
175
102
{ACAD_REACTORS
330
271
102
}
330
2
100
AcDbEntity
  8
0
  6
Continuous
100
AcDbMText
 10
157.4515497965765
 20
-101.856864606199
 30
0.0
 40
0.1875
 41
4.4125
 71
     3
 72
     1
  1
EPDM GLAZING GASKET
 73
     1
 44
1.0
1001
ACAD
1000
MTEXTBEGIN
1070
    73
1070
     1
1070
    44
1040
1.0
1070
    74
1070
     0
1000
MTEXTEND
  0
MTEXT
  5
176
102
{ACAD_REACTORS
330
25F
102
}
330
2
100
AcDbEntity
  8
0
  6
Continuous
100
AcDbMText
 10
157.4515497965765
 20
-101.4635431447839
 30
0.0
 40
0.1875
 41
4.4125
 71
     3
 72
     1
  1
ALUMINUM SANP CAP BEYOND
 73
     1
 44
1.0
1001
ACAD
1000
MTEXTBEGIN
1070
    73
1070
     1
1070
    44
1040
1.0
1070
    74
1070
     0
1000
MTEXTEND
  0
MTEXT
  5
177
102
{ACAD_REACTORS
330
260
102
}
330
2
100
AcDbEntity
  8
0
  6
Continuous
100
AcDbMText
 10
157.4515497965765
 20
-100.3297538845609
 30
0.0
 40
0.1875
 41
4.4125
 71
     3
 72
     1
  1
 APEX FLASHING
 73
     1
 44
1.0
1001
ACAD
1000
MTEXTBEGIN
1070
    73
1070
     1
1070
    44
1040
1.0
1070
    74
1070
     0
1000
MTEXTEND
  0
LINE
  5
178
330
2
100
AcDbEntity
  8
0
  6
Continuous
100
AcDbLine
 10
148.5369267799451
 20
-97.76691897039839
 30
0.0
 11
146.4156064363856
 21
-99.8882393139579
 31
0.0
  0
LINE
  5
179
330
2
100
AcDbEntity
  8
0
  6
Continuous
100
AcDbLine
 10
150.3046937329115
 20
-99.53468592336466
 30
0.0
 11
148.1833733893519
 21
-101.6560062669243
 31
0.0
  0
LINE
  5
17A
330
2
100
AcDbEntity
  8
0
  6
Continuous
100
AcDbLine
 10
146.4792460466923
 20
-99.95187892426486
 30
0.0
 11
148.6005663902519
 21
-97.83055858070511
 31
0.0
  0
LINE
  5
17B
330
2
100
AcDbEntity
  8
0
  6
Continuous
100
AcDbLine
 10
148.119733779045
 20
-101.5923666566175
 30
0.0
 11
150.2410541226048
 21
-99.47104631305798
 31
0.0
  0
LINE
  5
17C
330
2
100
AcDbEntity
  8
2
  6
Continuous
100
AcDbLine
 10
147.2994899128688
 20
-100.7721227904411
 30
0.0
 11
149.4208102564283
 21
-98.65080244688151
 31
0.0
  0
LINE
  5
17D
330
2
100
AcDbEntity
  8
0
  6
Continuous
100
AcDbLine
 10
148.7137034752417
 20
-97.943695665695
 30
0.0
 11
146.5923831316822
 21
-100.0650160092545
 31
0.0
  0
LINE
  5
17E
330
2
100
AcDbEntity
  8
HIDDEN
  6
HIDDEN
100
AcDbLine
 10
148.8020918228901
 20
-98.0320840133433
 30
0.0
 11
146.6807714793305
 21
-100.1534043569028
 31
0.0
  0
LINE
  5
17F
330
2
100
AcDbEntity
  8
HIDDEN
  6
HIDDEN
100
AcDbLine
 10
150.0395286899666
 20
-99.26952088041971
 30
0.0
 11
147.918208346407
 21
-101.3908412239793
 31
0.0
  0
LINE
  5
180
330
2
100
AcDbEntity
  8
0
  6
Continuous
100
AcDbLine
 10
150.1279170376149
 20
-99.35790922806804
 30
0.0
 11
148.0065966940553
 21
-101.4792295716276
 31
0.0
  0
HATCH
  5
181
330
2
100
AcDbEntity
  8
HIDDEN
  6
Continuous
100
AcDbHatch
 10
0.0
 20
0.0
 30
0.0
210
0.0
220
0.0
230
1.0
  2
ANSI31
 70
     0
 71
     0
 91
        8
 92
        7
 72
     0
 73
     1
 93
        4
 10
148.0065966940553
 20
-101.4792295716276
 10
150.1279170376149
 20
-99.35790922806805
 10
150.0395286899666
 20
-99.26952088041973
 10
147.918208346407
 20
-101.3908412239793
 97
        0
 92
        7
 72
     0
 73
     1
 93
        4
 10
146.6807714793304
 20
-100.1534043569029
 10
148.8020918228901
 20
-98.03208401334334
 10
148.7137034752417
 20
-97.94369566569503
 10
146.5923831316821
 20
-100.0650160092546
 97
        0
 92
        7
 72
     0
 73
     1
 93
        4
 10
147.2773928259566
 20
-100.5732490082324
 10
147.4541695212533
 20
-100.3964723129358
 10
146.9459365222754
 20
-99.88823931395797
 10
146.7691598269788
 20
-100.0650160092546
 97
        0
 92
        7
 72
     0
 73
     1
 93
        4
 10
147.3009630519962
 20
-100.5968192342719
 10
147.4777397472928
 20
-100.4200425389753
 10
147.4541695212533
 20
-100.3964723129357
 10
147.2773928259566
 20
-100.5732490082324
 97
        0
 92
        7
 72
     0
 73
     1
 93
        4
 10
147.387878260517
 20
-100.6837344427928
 10
147.5646549558137
 20
-100.5069577474961
 10
147.4777397472928
 20
-100.4200425389752
 10
147.3009630519961
 20
-100.5968192342719
 97
        0
 92
        7
 72
     0
 73
     1
 93
        4
 10
147.4747934690379
 20
-100.7706496513136
 10
147.6515701643345
 20
-100.593872956017
 10
147.5646549558137
 20
-100.5069577474962
 10
147.3878782605171
 20
-100.6837344427928
 97
        0
 92
        7
 72
     0
 73
     1
 93
        4
 10
147.4983636950774
 20
-100.7942198773531
 10
147.675140390374
 20
-100.6174431820565
 10
147.6515701643345
 20
-100.593872956017
 10
147.4747934690379
 20
-100.7706496513137
 97
        0
 92
        7
 72
     0
 73
     1
 93
        4
 10
148.0065966940553
 20
-101.302452876331
 10
148.1833733893519
 20
-101.1256761810343
 10
147.6751403903741
 20
-100.6174431820565
 10
147.4983636950774
 20
-100.7942198773531
 97
        0
 75
     0
 76
     1
 52
-135.0
 41
1.0
 77
     0
 78
     1
 53
270.0
 43
334.3842662742956
 44
-62.86414868775427
 45
0.125
 46
-0.0000000000000001
 79
     0
 47
0.0103572092086768
 98
        8
 10
149.3369304659667
 20
-100.0675703801401
 10
147.3690129055959
 20
-99.32672129711347
 10
147.075608749648
 20
-100.2765173239515
 10
147.3196867870592
 20
-100.5563284839275
 10
147.3643407007326
 20
-100.5771603158911
 10
147.5102047348089
 20
-100.6753808588425
 10
147.557832370944
 20
-100.7170526384028
 10
147.6411836892112
 20
-100.77062669068
  0
LINE
  5
182
330
2
100
AcDbEntity
  8
HIDDEN
  6
DASHED2
370
    25
100
AcDbLine
 10
147.9775675631761
 20
-103.1689504407484
 30
0.0
 11
149.2120215936201
 21
-103.1689504407484
 31
0.0
  0
LINE
  5
183
330
2
100
AcDbEntity
  8
HIDDEN
  6
DASHED2
370
    25
100
AcDbLine
 10
149.2675771491757
 20
-103.1356171074151
 30
0.0
 11
147.9775675631761
 21
-103.1356171074151
 31
0.0
  0
LINE
  5
184
330
2
100
AcDbEntity
  8
HIDDEN
  6
DASHED2
370
    25
100
AcDbLine
 10
147.9775675631761
 20
-102.8897837740817
 30
0.0
 11
149.2675771491757
 21
-102.8897837740816
 31
0.0
  0
LINE
  5
185
330
2
100
AcDbEntity
  8
HIDDEN
  6
DASHED2
370
    25
100
AcDbLine
 10
149.2120215936202
 20
-102.8564504407484
 30
0.0
 11
147.9775675631761
 21
-102.8564504407484
 31
0.0
  0
ARC
  5
186
330
2
100
AcDbEntity
  8
HIDDEN
  6
Continuous
100
AcDbCircle
 10
144.1839122625614
 20
-99.71904514013388
 30
0.0
 40
0.0458931761693191
100
AcDbArc
 50
269.9999999999918
 51
359.9999999999999
  0
ARC
  5
187
330
2
100
AcDbEntity
  8
HIDDEN
  6
Continuous
100
AcDbCircle
 10
144.1839122625614
 20
-99.71904514013388
 30
0.0
 40
0.0558931761693191
100
AcDbArc
 50
269.9999999999918
 51
359.9999999999999
  0
ARC
  5
188
330
2
100
AcDbEntity
  8
HIDDEN
  6
Continuous
100
AcDbCircle
 10
144.1839122625614
 20
-99.71904514013388
 30
0.0
 40
0.0658931761693191
100
AcDbArc
 50
269.9999999999918
 51
359.9999999999999
  0
ARC
  5
189
330
2
100
AcDbEntity
  8
HIDDEN
  6
Continuous
100
AcDbCircle
 10
144.1839122625614
 20
-99.71904514013388
 30
0.0
 40
0.0758931761693191
100
AcDbArc
 50
269.9999999999918
 51
359.9999999999999
  0
LINE
  5
18A
330
2
100
AcDbEntity
  8
HIDDEN
  6
HIDDEN
100
AcDbLine
 10
145.9339122625613
 20
-99.71904514013385
 30
0.0
 11
144.1839122625613
 21
-99.71904514013393
 31
0.0
  0
LINE
  5
18B
330
2
100
AcDbEntity
  8
HIDDEN
  6
HIDDEN
100
AcDbLine
 10
145.9339122625613
 20
-99.46904514013388
 30
0.0
 11
144.1839122625613
 21
-99.46904514013393
 31
0.0
  0
LINE
  5
18C
330
2
100
AcDbEntity
  8
0
  6
Continuous
100
AcDbLine
 10
144.9351860768702
 20
-96.84404514013396
 30
0.0
 11
143.5589122625613
 21
-96.84404514013401
 31
0.0
  0
HATCH
  5
18D
330
2
100
AcDbEntity
  8
HIDDEN
  6
Continuous
100
AcDbHatch
 10
0.0
 20
0.0
 30
0.0
210
0.0
220
0.0
230
1.0
  2
ANSI31
 70
     0
 71
     0
 91
        8
 92
        7
 72
     0
 73
     1
 93
        4
 10
146.0589122625613
 20
-99.84404514013384
 10
146.0589122625613
 20
-96.84404514013394
 10
145.9339122625613
 20
-96.84404514013394
 10
145.9339122625613
 20
-99.84404514013387
 97
        0
 92
        7
 72
     0
 73
     1
 93
        4
 10
144.1839122625613
 20
-99.84404514013396
 10
144.1839122625613
 20
-96.84404514013401
 10
144.0589122625613
 20
-96.84404514013404
 10
144.0589122625613
 20
-99.84404514013402
 97
        0
 92
        7
 72
     0
 73
     1
 93
        4
 10
144.9026622625613
 20
-99.71904514013393
 10
144.9026622625613
 20
-99.46904514013393
 10
144.1839122625613
 20
-99.46904514013393
 10
144.1839122625613
 20
-99.71904514013393
 97
        0
 92
        7
 72
     0
 73
     1
 93
        4
 10
144.9359955958946
 20
-99.7190451401339
 10
144.9359955958946
 20
-99.4690451401339
 10
144.9026622625613
 20
-99.46904514013388
 10
144.9026622625613
 20
-99.71904514013393
 97
        0
 92
        7
 72
     0
 73
     1
 93
        4
 10
145.0589122625613
 20
-99.7190451401339
 10
145.0589122625613
 20
-99.4690451401339
 10
144.9359955958946
 20
-99.46904514013393
 10
144.9359955958946
 20
-99.7190451401339
 97
        0
 92
        7
 72
     0
 73
     1
 93
        4
 10
145.181828929228
 20
-99.71904514013388
 10
145.1818289292281
 20
-99.4690451401339
 10
145.0589122625613
 20
-99.46904514013393
 10
145.0589122625613
 20
-99.7190451401339
 97
        0
 92
        7
 72
     0
 73
     1
 93
        4
 10
145.2151622625613
 20
-99.71904514013388
 10
145.2151622625613
 20
-99.4690451401339
 10
145.181828929228
 20
-99.46904514013393
 10
145.181828929228
 20
-99.7190451401339
 97
        0
 92
        7
 72
     0
 73
     1
 93
        4
 10
145.9339122625613
 20
-99.71904514013385
 10
145.9339122625613
 20
-99.46904514013384
 10
145.2151622625613
 20
-99.46904514013388
 10
145.2151622625613
 20
-99.71904514013388
 97
        0
 75
     0
 76
     1
 52
-90.00000000000005
 41
1.0
 77
     0
 78
     1
 53
314.9999999999999
 43
250.5428407354412
 44
59.2498544308536
 45
0.0883883476483186
 46
0.0883883476483184
 79
     0
 47
0.0103572092086768
 98
        8
 10
146.0014065068962
 20
-97.90516332174865
 10
144.0860192446979
 20
-98.77283176305899
 10
144.5501583877201
 20
-99.65190704267932
 10
144.9206039917829
 20
-99.6771741759578
 10
144.966909406594
 20
-99.66032942043886
 10
145.1395032661933
 20
-99.62664038478498
 10
145.2026474885875
 20
-99.62242895821326
 10
145.299468346616
 20
-99.6013732515065
  0
ARC
  5
18E
330
2
100
AcDbEntity
  8
HIDDEN
  6
Continuous
100
AcDbCircle
 10
142.1112278310675
 20
-101.3024528763312
 30
0.0
 40
0.0258931761693191
100
AcDbArc
 50
314.9999999999918
 51
44.99999999999992
  0
ARC
  5
18F
330
2
100
AcDbEntity
  8
HIDDEN
  6
Continuous
100
AcDbCircle
 10
142.1112278310675
 20
-101.3024528763312
 30
0.0
 40
0.0358931761693191
100
AcDbArc
 50
314.9999999999918
 51
44.99999999999992
  0
ARC
  5
190
330
2
100
AcDbEntity
  8
HIDDEN
  6
Continuous
100
AcDbCircle
 10
142.1112278310675
 20
-101.3024528763312
 30
0.0
 40
0.0458931761693191
100
AcDbArc
 50
314.9999999999918
 51
44.99999999999992
  0
ARC
  5
191
330
2
100
AcDbEntity
  8
HIDDEN
  6
Continuous
100
AcDbCircle
 10
142.1112278310675
 20
-101.3024528763312
 30
0.0
 40
0.0558931761693191
100
AcDbArc
 50
314.9999999999918
 51
44.99999999999992
  0
ARC
  5
192
330
2
100
AcDbEntity
  8
HIDDEN
  6
Continuous
100
AcDbCircle
 10
142.1112278310675
 20
-101.3024528763312
 30
0.0
 40
0.0658931761693191
100
AcDbArc
 50
314.9999999999918
 51
44.99999999999992
  0
ARC
  5
193
330
2
100
AcDbEntity
  8
HIDDEN
  6
Continuous
100
AcDbCircle
 10
142.1112278310675
 20
-101.3024528763312
 30
0.0
 40
0.0758931761693191
100
AcDbArc
 50
314.9999999999918
 51
44.99999999999992
  0
ARC
  5
194
330
2
100
AcDbEntity
  8
HIDDEN
  6
Continuous
100
AcDbCircle
 10
143.348664698144
 20
-100.0650160092548
 30
0.0
 40
0.0758931761693191
100
AcDbArc
 50
225.0
 51
315.0000000000081
  0
ARC
  5
195
330
2
100
AcDbEntity
  8
HIDDEN
  6
Continuous
100
AcDbCircle
 10
143.348664698144
 20
-100.0650160092548
 30
0.0
 40
0.0658931761693191
100
AcDbArc
 50
225.0
 51
315.0000000000081
  0
ARC
  5
196
330
2
100
AcDbEntity
  8
HIDDEN
  6
Continuous
100
AcDbCircle
 10
143.348664698144
 20
-100.0650160092548
 30
0.0
 40
0.0558931761693191
100
AcDbArc
 50
225.0
 51
315.0000000000081
  0
ARC
  5
197
330
2
100
AcDbEntity
  8
HIDDEN
  6
Continuous
100
AcDbCircle
 10
143.348664698144
 20
-100.0650160092548
 30
0.0
 40
0.0458931761693191
100
AcDbArc
 50
225.0
 51
315.0000000000081
  0
ARC
  5
198
330
2
100
AcDbEntity
  8
HIDDEN
  6
Continuous
100
AcDbCircle
 10
143.348664698144
 20
-100.0650160092548
 30
0.0
 40
0.0358931761693191
100
AcDbArc
 50
225.0
 51
315.0000000000081
  0
ARC
  5
199
330
2
100
AcDbEntity
  8
HIDDEN
  6
Continuous
100
AcDbCircle
 10
143.348664698144
 20
-100.0650160092548
 30
0.0
 40
0.0258931761693191
100
AcDbArc
 50
225.0
 51
315.0000000000081
  0
ARC
  5
19A
330
2
100
AcDbEntity
  8
0
100
AcDbCircle
 10
142.9843378747094
 20
-101.2443122707445
 30
0.0
 40
0.094791666666622
100
AcDbArc
 50
265.417438205667
 51
4.582561794313908
  0
LINE
  5
19B
330
2
100
AcDbEntity
  8
0
100
AcDbLine
 10
143.3575519228573
 20
-101.0051538831966
 30
0.0
 11
143.0513657050093
 21
-101.3113401010445
 31
0.0
  0
ARC
  5
19C
330
2
100
AcDbEntity
  8
0
100
AcDbCircle
 10
143.2905240925571
 20
-100.9381260528965
 30
0.0
 40
0.0947916666667418
100
AcDbArc
 50
265.4174382057525
 51
4.582561794228402
  0
ARC
  5
19D
330
2
100
AcDbEntity
  8
0
100
AcDbCircle
 10
142.9717028317927
 20
-100.9254910099798
 30
0.0
 40
0.3291666666666718
100
AcDbArc
 50
288.9921761143464
 51
341.0078238856211
  0
LINE
  5
19E
330
2
100
AcDbEntity
  8
0
100
AcDbLine
 10
142.8263425013782
 20
-101.1883789700293
 30
0.0
 11
142.9767644426618
 21
-101.3388009113129
 31
0.0
  0
LINE
  5
19F
330
2
100
AcDbEntity
  8
0
100
AcDbLine
 10
142.9284045739942
 20
-101.0863168974134
 30
0.0
 11
143.0788265152777
 21
-101.2367388386969
 31
0.0
  0
LINE
  5
1A0
330
2
100
AcDbEntity
  8
0
100
AcDbLine
 10
143.234590791842
 20
-100.7801306795655
 30
0.0
 11
143.3850127331256
 21
-100.9305526208491
 31
0.0
  0
LINE
  5
1A1
330
2
100
AcDbEntity
  8
0
100
AcDbLine
 10
143.1325287192261
 20
-100.8821927521815
 30
0.0
 11
143.2829506605096
 21
-101.032614693465
 31
0.0
  0
LINE
  5
1A2
330
2
100
AcDbEntity
  8
0
100
AcDbLine
 10
143.2355276131541
 20
-100.7084831801346
 30
0.0
 11
142.7546950019474
 21
-101.1893157913414
 31
0.0
  0
LINE
  5
1A3
330
2
100
AcDbEntity
  8
0
100
AcDbLine
 10
142.7900503410067
 20
-101.2246711304007
 30
0.0
 11
142.7546950019474
 21
-101.1893157913414
 31
0.0
  0
LINE
  5
1A4
330
2
100
AcDbEntity
  8
0
100
AcDbLine
 10
143.2708829522134
 20
-100.743838519194
 30
0.0
 11
143.2355276131541
 21
-100.7084831801346
 31
0.0
  0
LINE
  5
1A5
330
2
100
AcDbEntity
  8
0
100
AcDbLine
 10
143.2708829522134
 20
-100.743838519194
 30
0.0
 11
142.7900503410067
 21
-101.2246711304007
 31
0.0
  0
LINE
  5
1A6
330
2
100
AcDbEntity
  8
HIDDEN
  6
DASHED2
370
    25
100
AcDbLine
 10
142.1698519900156
 20
-99.94980975116121
 30
0.0
 11
141.9960215729739
 21
-100.1236401682029
 31
0.0
  0
LINE
  5
1A7
330
2
100
AcDbEntity
  8
HIDDEN
  6
DASHED2
370
    25
100
AcDbLine
 10
142.232705926121
 20
-99.96552323518757
 30
0.0
 11
142.1698519900156
 21
-99.94980975116121
 31
0.0
  0
LINE
  5
1A8
330
2
100
AcDbEntity
  8
HIDDEN
  6
DASHED2
370
    25
100
AcDbLine
 10
142.232705926121
 20
-99.96552323518757
 30
0.0
 11
142.0117350570003
 21
-100.1864941043083
 31
0.0
  0
LINE
  5
1A9
330
2
100
AcDbEntity
  8
HIDDEN
  6
DASHED2
370
    25
100
AcDbLine
 10
141.9960215729739
 20
-100.1236401682029
 30
0.0
 11
142.0117350570003
 21
-100.1864941043083
 31
0.0
  0
LINE
  5
1AA
330
2
100
AcDbEntity
  8
HIDDEN
  6
DASHED2
370
    25
100
AcDbLine
 10
143.1055967421111
 20
-100.8384140511776
 30
0.0
 11
142.232705926121
 21
-99.96552323518763
 31
0.0
  0
LINE
  5
1AB
330
2
100
AcDbEntity
  8
HIDDEN
  6
DASHED2
370
    25
100
AcDbLine
 10
142.1698519900157
 20
-99.94980975116121
 30
0.0
 11
143.0820265160716
 21
-100.8619842772171
 31
0.0
  0
LINE
  5
1AC
330
2
100
AcDbEntity
  8
HIDDEN
  6
DASHED2
370
    25
100
AcDbLine
 10
142.9081960990298
 20
-101.0358146942589
 30
0.0
 11
141.9960215729738
 21
-100.123640168203
 31
0.0
  0
LINE
  5
1AD
330
2
100
AcDbEntity
  8
HIDDEN
  6
HIDDEN
100
AcDbLine
 10
143.3486646981439
 20
-100.0650160092548
 30
0.0
 11
142.1112278310675
 21
-101.3024528763313
 31
0.0
  0
LINE
  5
1AE
330
2
100
AcDbEntity
  8
HIDDEN
  6
HIDDEN
100
AcDbLine
 10
143.1718880028473
 20
-99.88823931395815
 30
0.0
 11
141.9344511357709
 21
-101.1256761810346
 31
0.0
  0
LINE
  5
1AF
330
2
100
AcDbEntity
  8
HIDDEN
  6
DASHED2
370
    25
100
AcDbLine
 10
142.0117350570002
 20
-100.1864941043084
 30
0.0
 11
142.8846258729903
 21
-101.0593849202984
 31
0.0
  0
LINE
  5
1B0
330
2
100
AcDbEntity
  8
0
  6
Continuous
100
AcDbLine
 10
140.784501893607
 20
-98.56331482196921
 30
0.0
 11
140.6077251983103
 21
-98.3865381266726
 31
0.0
  0
LINE
  5
1B1
330
2
100
AcDbEntity
  8
0
  6
Continuous
100
AcDbLine
 10
140.7863033390785
 20
-98.91506676709092
 30
0.0
 11
140.6095266437819
 21
-98.73829007179429
 31
0.0
  0
LINE
  5
1B2
330
2
100
AcDbEntity
  8
0
  6
Continuous
100
AcDbLine
 10
140.6077251983103
 20
-98.3865381266726
 30
0.0
 11
140.7863033390785
 21
-98.91506676709092
 31
0.0
  0
LINE
  5
1B3
330
2
100
AcDbEntity
  8
0
  6
Continuous
100
AcDbLine
 10
141.7576744404742
 20
-97.59014227510188
 30
0.0
 11
140.784501893607
 21
-98.56331482196921
 31
0.0
  0
LINE
  5
1B4
330
2
100
AcDbEntity
  8
0
  6
Continuous
100
AcDbLine
 10
141.5808977451776
 20
-97.76691897039849
 30
0.0
 11
143.7022180887372
 21
-99.88823931395815
 31
0.0
  0
LINE
  5
1B5
330
2
100
AcDbEntity
  8
0
  6
Continuous
100
AcDbLine
 10
143.6385784784304
 20
-99.9518789242651
 30
0.0
 11
141.5172581348709
 21
-97.83055858070532
 31
0.0
  0
LINE
  5
1B6
330
2
100
AcDbEntity
  8
2
  6
Continuous
100
AcDbLine
 10
142.818334612254
 20
-100.7721227904413
 30
0.0
 11
140.6970142686944
 21
-98.65080244688174
 31
0.0
  0
LINE
  5
1B7
330
2
100
AcDbEntity
  8
HIDDEN
  6
HIDDEN
100
AcDbLine
 10
141.3157327022326
 20
-98.0320840133435
 30
0.0
 11
143.4370530457922
 21
-100.1534043569031
 31
0.0
  0
LINE
  5
1B8
330
2
100
AcDbEntity
  8
0
  6
Continuous
100
AcDbLine
 10
141.4041210498809
 20
-97.94369566569516
 30
0.0
 11
143.5254413934405
 21
-100.0650160092547
 31
0.0
  0
ARC
  5
1B9
330
2
100
AcDbEntity
  8
HIDDEN
  6
Continuous
100
AcDbCircle
 10
144.1839122625614
 20
-99.71904514013388
 30
0.0
 40
0.0258931761693191
100
AcDbArc
 50
269.9999999999918
 51
359.9999999999999
  0
ARC
  5
1BA
330
2
100
AcDbEntity
  8
HIDDEN
  6
Continuous
100
AcDbCircle
 10
144.1839122625614
 20
-99.71904514013388
 30
0.0
 40
0.0358931761693191
100
AcDbArc
 50
269.9999999999918
 51
359.9999999999999
  0
LINE
  5
1BB
330
2
100
AcDbEntity
  8
0
  6
Continuous
100
AcDbLine
 10
143.8089122625613
 20
-96.84404514013401
 30
0.0
 11
143.8089122625613
 21
-99.84404514013384
 31
0.0
  0
LINE
  5
1BC
330
2
100
AcDbEntity
  8
0
  6
Continuous
100
AcDbLine
 10
143.8989122625614
 20
-99.84404514013402
 30
0.0
 11
143.8989122625613
 21
-96.84404514013399
 31
0.0
  0
LINE
  5
1BD
330
2
100
AcDbEntity
  8
0
  6
Continuous
100
AcDbLine
 10
144.0589122625613
 20
-96.84404514013399
 30
0.0
 11
144.0589122625613
 21
-99.84404514013384
 31
0.0
  0
LINE
  5
1BE
330
2
100
AcDbEntity
  8
HIDDEN
  6
HIDDEN
100
AcDbLine
 10
144.1839122625613
 20
-96.84404514013399
 30
0.0
 11
144.1839122625613
 21
-99.84404514013384
 31
0.0
  0
LINE
  5
1BF
330
2
100
AcDbEntity
  8
0
100
AcDbLine
 10
142.1902569619469
 20
-103.3527004407486
 30
0.0
 11
142.1402569619468
 21
-103.3527004407486
 31
0.0
  0
LINE
  5
1C0
330
2
100
AcDbEntity
  8
0
100
AcDbLine
 10
142.1902569619469
 20
-102.6727004407488
 30
0.0
 11
142.1402569619468
 21
-102.6727004407488
 31
0.0
  0
LINE
  5
1C1
330
2
100
AcDbEntity
  8
0
100
AcDbLine
 10
142.1402569619468
 20
-102.6727004407488
 30
0.0
 11
142.1402569619468
 21
-103.3527004407486
 31
0.0
  0
LINE
  5
1C2
330
2
100
AcDbEntity
  8
HIDDEN
  6
DASHED2
370
    25
100
AcDbLine
 10
140.9058029315028
 20
-103.1689504407488
 30
0.0
 11
142.1402569619468
 21
-103.1689504407487
 31
0.0
  0
LINE
  5
1C3
330
2
100
AcDbEntity
  8
HIDDEN
  6
DASHED2
370
    25
100
AcDbLine
 10
142.1402569619468
 20
-103.1356171074154
 30
0.0
 11
140.8502473759472
 21
-103.1356171074155
 31
0.0
  0
LINE
  5
1C4
330
2
100
AcDbEntity
  8
HIDDEN
  6
DASHED2
370
    25
100
AcDbLine
 10
140.8502473759473
 20
-102.889783774082
 30
0.0
 11
142.1402569619468
 21
-102.889783774082
 31
0.0
  0
LINE
  5
1C5
330
2
100
AcDbEntity
  8
HIDDEN
  6
DASHED2
370
    25
100
AcDbLine
 10
142.1402569619468
 20
-102.8564504407488
 30
0.0
 11
140.9058029315028
 21
-102.8564504407488
 31
0.0
  0
LINE
  5
1C6
330
2
100
AcDbEntity
  8
HIDDEN
  6
DASHED2
370
    25
100
AcDbLine
 10
140.8502473759472
 20
-103.1356171074154
 30
0.0
 11
140.9058029315028
 21
-103.1689504407487
 31
0.0
  0
LINE
  5
1C7
330
2
100
AcDbEntity
  8
HIDDEN
  6
DASHED2
370
    25
100
AcDbLine
 10
140.9058029315028
 20
-102.8564504407487
 30
0.0
 11
140.9058029315028
 21
-103.1689504407487
 31
0.0
  0
LINE
  5
1C8
330
2
100
AcDbEntity
  8
HIDDEN
  6
DASHED2
370
    25
100
AcDbLine
 10
140.9058029315028
 20
-102.8564504407487
 30
0.0
 11
140.8502473759472
 21
-102.889783774082
 31
0.0
  0
LINE
  5
1C9
330
2
100
AcDbEntity
  8
HIDDEN
  6
DASHED2
370
    25
100
AcDbLine
 10
140.8502473759472
 20
-102.889783774082
 30
0.0
 11
140.8502473759472
 21
-103.1356171074154
 31
0.0
  0
LINE
  5
1CA
330
2
100
AcDbEntity
  8
0
100
AcDbLine
 10
142.1902569619469
 20
-102.6727004407488
 30
0.0
 11
142.1902569619469
 21
-103.3527004407486
 31
0.0
  0
LINE
  5
1CB
330
2
100
AcDbEntity
  8
0
100
AcDbLine
 10
142.190256961947
 20
-102.8683628734513
 30
0.0
 11
142.4029857113886
 21
-102.8683628734513
 31
0.0
  0
LINE
  5
1CC
330
2
100
AcDbEntity
  8
0
100
AcDbLine
 10
142.190256961947
 20
-102.724025306154
 30
0.0
 11
142.4029857113886
 21
-102.724025306154
 31
0.0
  0
LINE
  5
1CD
330
2
100
AcDbEntity
  8
0
100
AcDbLine
 10
142.190256961947
 20
-103.1570380080461
 30
0.0
 11
142.4029857113886
 21
-103.1570380080461
 31
0.0
  0
LINE
  5
1CE
330
2
100
AcDbEntity
  8
0
100
AcDbLine
 10
142.190256961947
 20
-103.3013755753435
 30
0.0
 11
142.4029857113886
 21
-103.3013755753435
 31
0.0
  0
ARC
  5
1CF
330
2
100
AcDbEntity
  8
0
100
AcDbCircle
 10
142.1071523780553
 20
-103.0127004407486
 30
0.0
 40
0.3291666666666718
100
AcDbArc
 50
333.9921761143465
 51
26.00782388562111
  0
ARC
  5
1D0
330
2
100
AcDbEntity
  8
0
100
AcDbCircle
 10
142.3415273780552
 20
-102.7961940898026
 30
0.0
 40
0.0947916666667418
100
AcDbArc
 50
310.4174382057526
 51
49.58256179422846
  0
LINE
  5
1D1
330
2
100
AcDbEntity
  8
0
100
AcDbLine
 10
142.4363190447221
 20
-102.7961940898026
 30
0.0
 11
142.4363190447221
 21
-103.2292067916948
 31
0.0
  0
ARC
  5
1D2
330
2
100
AcDbEntity
  8
0
100
AcDbCircle
 10
142.3415273780554
 20
-103.2292067916948
 30
0.0
 40
0.094791666666622
100
AcDbArc
 50
310.4174382056671
 51
49.58256179431398
  0
ARC
  5
1D3
330
2
100
AcDbEntity
  8
HIDDEN
  6
Continuous
100
AcDbCircle
 10
141.7652569619468
 20
-102.1377004407487
 30
0.0
 40
0.0258931761693191
100
AcDbArc
 50
270.0
 51
0.0000000000081535
  0
ARC
  5
1D4
330
2
100
AcDbEntity
  8
HIDDEN
  6
Continuous
100
AcDbCircle
 10
141.7652569619468
 20
-102.1377004407487
 30
0.0
 40
0.0358931761693191
100
AcDbArc
 50
270.0
 51
0.0000000000081535
  0
ARC
  5
1D5
330
2
100
AcDbEntity
  8
HIDDEN
  6
Continuous
100
AcDbCircle
 10
141.7652569619468
 20
-102.1377004407487
 30
0.0
 40
0.0458931761693191
100
AcDbArc
 50
270.0
 51
0.0000000000081535
  0
ARC
  5
1D6
330
2
100
AcDbEntity
  8
HIDDEN
  6
Continuous
100
AcDbCircle
 10
141.7652569619468
 20
-102.1377004407487
 30
0.0
 40
0.0558931761693191
100
AcDbArc
 50
270.0
 51
0.0000000000081535
  0
ARC
  5
1D7
330
2
100
AcDbEntity
  8
HIDDEN
  6
Continuous
100
AcDbCircle
 10
141.7652569619468
 20
-102.1377004407487
 30
0.0
 40
0.0658931761693191
100
AcDbArc
 50
270.0
 51
0.0000000000081535
  0
ARC
  5
1D8
330
2
100
AcDbEntity
  8
HIDDEN
  6
Continuous
100
AcDbCircle
 10
141.7652569619468
 20
-102.1377004407487
 30
0.0
 40
0.0758931761693191
100
AcDbArc
 50
270.0
 51
0.0000000000081535
  0
ARC
  5
1D9
330
2
100
AcDbEntity
  8
HIDDEN
  6
Continuous
100
AcDbCircle
 10
141.7652569619468
 20
-103.8877004407487
 30
0.0
 40
0.0758931761693191
100
AcDbArc
 50
359.9999999999919
 51
89.99999999999998
  0
ARC
  5
1DA
330
2
100
AcDbEntity
  8
HIDDEN
  6
Continuous
100
AcDbCircle
 10
141.7652569619468
 20
-103.8877004407487
 30
0.0
 40
0.0658931761693191
100
AcDbArc
 50
359.9999999999919
 51
89.99999999999998
  0
ARC
  5
1DB
330
2
100
AcDbEntity
  8
HIDDEN
  6
Continuous
100
AcDbCircle
 10
141.7652569619468
 20
-103.8877004407487
 30
0.0
 40
0.0558931761693191
100
AcDbArc
 50
359.9999999999919
 51
89.99999999999998
  0
ARC
  5
1DC
330
2
100
AcDbEntity
  8
HIDDEN
  6
Continuous
100
AcDbCircle
 10
141.7652569619468
 20
-103.8877004407487
 30
0.0
 40
0.0458931761693191
100
AcDbArc
 50
359.9999999999919
 51
89.99999999999998
  0
ARC
  5
1DD
330
2
100
AcDbEntity
  8
HIDDEN
  6
Continuous
100
AcDbCircle
 10
141.7652569619468
 20
-103.8877004407487
 30
0.0
 40
0.0358931761693191
100
AcDbArc
 50
359.9999999999919
 51
89.99999999999998
  0
ARC
  5
1DE
330
2
100
AcDbEntity
  8
HIDDEN
  6
Continuous
100
AcDbCircle
 10
141.7652569619468
 20
-103.8877004407487
 30
0.0
 40
0.0258931761693191
100
AcDbArc
 50
359.9999999999919
 51
89.99999999999998
  0
LINE
  5
1DF
330
2
100
AcDbEntity
  8
HIDDEN
  6
HIDDEN
100
AcDbLine
 10
141.7652569619467
 20
-102.1377004407487
 30
0.0
 11
141.7652569619468
 21
-103.8877004407487
 31
0.0
  0
LINE
  5
1E0
330
2
100
AcDbEntity
  8
HIDDEN
  6
HIDDEN
100
AcDbLine
 10
141.5152569619468
 20
-102.1377004407487
 30
0.0
 11
141.5152569619468
 21
-103.8877004407487
 31
0.0
  0
ARC
  5
1E1
330
2
100
AcDbEntity
  8
HIDDEN
  6
Continuous
100
AcDbCircle
 10
145.9339122625613
 20
-99.7190451401339
 30
0.0
 40
0.0758931761693191
100
AcDbArc
 50
179.9999999999999
 51
270.0000000000081
  0
ARC
  5
1E2
330
2
100
AcDbEntity
  8
HIDDEN
  6
Continuous
100
AcDbCircle
 10
145.9339122625613
 20
-99.7190451401339
 30
0.0
 40
0.0658931761693191
100
AcDbArc
 50
179.9999999999999
 51
270.0000000000081
  0
ARC
  5
1E3
330
2
100
AcDbEntity
  8
HIDDEN
  6
Continuous
100
AcDbCircle
 10
145.9339122625613
 20
-99.7190451401339
 30
0.0
 40
0.0558931761693191
100
AcDbArc
 50
179.9999999999999
 51
270.0000000000081
  0
ARC
  5
1E4
330
2
100
AcDbEntity
  8
HIDDEN
  6
Continuous
100
AcDbCircle
 10
145.9339122625613
 20
-99.7190451401339
 30
0.0
 40
0.0458931761693191
100
AcDbArc
 50
179.9999999999999
 51
270.0000000000081
  0
ARC
  5
1E5
330
2
100
AcDbEntity
  8
HIDDEN
  6
Continuous
100
AcDbCircle
 10
145.9339122625613
 20
-99.7190451401339
 30
0.0
 40
0.0358931761693191
100
AcDbArc
 50
179.9999999999999
 51
270.0000000000081
  0
ARC
  5
1E6
330
2
100
AcDbEntity
  8
HIDDEN
  6
Continuous
100
AcDbCircle
 10
145.9339122625613
 20
-99.7190451401339
 30
0.0
 40
0.0258931761693191
100
AcDbArc
 50
179.9999999999999
 51
270.0000000000081
  0
ARC
  5
1E7
330
2
100
AcDbEntity
  8
0
100
AcDbCircle
 10
144.8424059116153
 20
-100.2953155562425
 30
0.0
 40
0.094791666666622
100
AcDbArc
 50
220.417438205667
 51
319.5825617943139
  0
LINE
  5
1E8
330
2
100
AcDbEntity
  8
0
100
AcDbLine
 10
145.2754186135075
 20
-100.3901072229091
 30
0.0
 11
144.8424059116152
 21
-100.3901072229091
 31
0.0
  0
ARC
  5
1E9
330
2
100
AcDbEntity
  8
0
100
AcDbCircle
 10
145.2754186135075
 20
-100.2953155562422
 30
0.0
 40
0.0947916666667418
100
AcDbArc
 50
220.4174382057525
 51
319.5825617942284
  0
ARC
  5
1EA
330
2
100
AcDbEntity
  8
0
100
AcDbCircle
 10
145.0589122625615
 20
-100.0609405562424
 30
0.0
 40
0.3291666666666718
100
AcDbArc
 50
243.9921761143464
 51
296.007823885621
  0
LINE
  5
1EB
330
2
100
AcDbEntity
  8
0
100
AcDbLine
 10
144.7702371279666
 20
-100.1440451401341
 30
0.0
 11
144.7702371279666
 21
-100.3567738895757
 31
0.0
  0
LINE
  5
1EC
330
2
100
AcDbEntity
  8
0
100
AcDbLine
 10
144.914574695264
 20
-100.1440451401341
 30
0.0
 11
144.914574695264
 21
-100.3567738895757
 31
0.0
  0
LINE
  5
1ED
330
2
100
AcDbEntity
  8
0
100
AcDbLine
 10
145.3475873971561
 20
-100.1440451401341
 30
0.0
 11
145.3475873971561
 21
-100.3567738895757
 31
0.0
  0
LINE
  5
1EE
330
2
100
AcDbEntity
  8
0
100
AcDbLine
 10
145.2032498298587
 20
-100.1440451401341
 30
0.0
 11
145.2032498298587
 21
-100.3567738895757
 31
0.0
  0
LINE
  5
1EF
330
2
100
AcDbEntity
  8
0
100
AcDbLine
 10
145.3989122625612
 20
-100.0940451401339
 30
0.0
 11
144.7189122625614
 21
-100.0940451401339
 31
0.0
  0
LINE
  5
1F0
330
2
100
AcDbEntity
  8
0
100
AcDbLine
 10
144.7189122625614
 20
-100.144045140134
 30
0.0
 11
144.7189122625614
 21
-100.0940451401339
 31
0.0
  0
LINE
  5
1F1
330
2
100
AcDbEntity
  8
0
100
AcDbLine
 10
145.3989122625612
 20
-100.144045140134
 30
0.0
 11
145.3989122625612
 21
-100.0940451401339
 31
0.0
  0
LINE
  5
1F2
330
2
100
AcDbEntity
  8
0
100
AcDbLine
 10
145.3989122625612
 20
-100.144045140134
 30
0.0
 11
144.7189122625614
 21
-100.144045140134
 31
0.0
  0
LINE
  5
1F3
330
2
100
AcDbEntity
  8
HIDDEN
  6
DASHED2
370
    25
100
AcDbLine
 10
145.181828929228
 20
-98.80403555413437
 30
0.0
 11
144.9359955958946
 21
-98.80403555413437
 31
0.0
  0
LINE
  5
1F4
330
2
100
AcDbEntity
  8
HIDDEN
  6
DASHED2
370
    25
100
AcDbLine
 10
145.2151622625613
 20
-98.8595911096899
 30
0.0
 11
145.181828929228
 21
-98.80403555413437
 31
0.0
  0
LINE
  5
1F5
330
2
100
AcDbEntity
  8
HIDDEN
  6
DASHED2
370
    25
100
AcDbLine
 10
145.2151622625613
 20
-98.8595911096899
 30
0.0
 11
144.9026622625613
 21
-98.8595911096899
 31
0.0
  0
LINE
  5
1F6
330
2
100
AcDbEntity
  8
HIDDEN
  6
DASHED2
370
    25
100
AcDbLine
 10
144.9359955958946
 20
-98.80403555413437
 30
0.0
 11
144.9026622625613
 21
-98.8595911096899
 31
0.0
  0
LINE
  5
1F7
330
2
100
AcDbEntity
  8
HIDDEN
  6
DASHED2
370
    25
100
AcDbLine
 10
145.2151622625613
 20
-100.0940451401339
 30
0.0
 11
145.2151622625613
 21
-98.85959110968993
 31
0.0
  0
LINE
  5
1F8
330
2
100
AcDbEntity
  8
HIDDEN
  6
DASHED2
370
    25
100
AcDbLine
 10
145.181828929228
 20
-98.80403555413439
 30
0.0
 11
145.181828929228
 21
-100.0940451401339
 31
0.0
  0
LINE
  5
1F9
330
2
100
AcDbEntity
  8
HIDDEN
  6
DASHED2
370
    25
100
AcDbLine
 10
144.9359955958946
 20
-100.0940451401339
 30
0.0
 11
144.9359955958945
 21
-98.80403555413437
 31
0.0
  0
LINE
  5
1FA
330
2
100
AcDbEntity
  8
HIDDEN
  6
DASHED2
370
    25
100
AcDbLine
 10
144.9026622625613
 20
-98.8595911096899
 30
0.0
 11
144.9026622625614
 21
-100.0940451401339
 31
0.0
  0
LINE
  5
1FB
330
2
100
AcDbEntity
  8
0
  6
Continuous
100
AcDbLine
 10
145.1826384482524
 20
-96.84404514013396
 30
0.0
 11
145.1826384482524
 21
-96.59404514013395
 31
0.0
  0
LINE
  5
1FC
330
2
100
AcDbEntity
  8
0
  6
Continuous
100
AcDbLine
 10
144.9351860768702
 20
-97.09404514013396
 30
0.0
 11
144.9351860768702
 21
-96.84404514013396
 31
0.0
  0
LINE
  5
1FD
330
2
100
AcDbEntity
  8
0
  6
Continuous
100
AcDbLine
 10
145.1826384482524
 20
-96.59404514013395
 30
0.0
 11
144.9351860768702
 21
-97.09404514013396
 31
0.0
  0
LINE
  5
1FE
330
2
100
AcDbEntity
  8
0
  6
Continuous
100
AcDbLine
 10
146.5589122625613
 20
-96.84404514013387
 30
0.0
 11
145.1826384482524
 21
-96.84404514013394
 31
0.0
  0
LINE
  5
1FF
330
2
100
AcDbEntity
  8
0
  6
Continuous
100
AcDbLine
 10
146.3089122625613
 20
-96.84404514013387
 30
0.0
 11
146.3089122625613
 21
-99.84404514013384
 31
0.0
  0
LINE
  5
200
330
2
100
AcDbEntity
  8
0
  6
Continuous
100
AcDbLine
 10
146.2189122625613
 20
-99.84404514013402
 30
0.0
 11
146.2189122625614
 21
-96.84404514013399
 31
0.0
  0
LINE
  5
201
330
2
100
AcDbEntity
  8
2
  6
Continuous
100
AcDbLine
 10
145.0589122625613
 20
-99.84404514013384
 30
0.0
 11
145.0589122625613
 21
-96.84404514013394
 31
0.0
  0
LINE
  5
202
330
2
100
AcDbEntity
  8
HIDDEN
  6
HIDDEN
100
AcDbLine
 10
145.9339122625613
 20
-96.8440451401339
 30
0.0
 11
145.9339122625613
 21
-99.84404514013384
 31
0.0
  0
LINE
  5
203
330
2
100
AcDbEntity
  8
0
  6
Continuous
100
AcDbLine
 10
146.0589122625613
 20
-96.8440451401339
 30
0.0
 11
146.0589122625613
 21
-99.84404514013384
 31
0.0
  0
ARC
  5
204
330
2
100
AcDbEntity
  8
HIDDEN
  6
Continuous
100
AcDbCircle
 10
146.7691598269789
 20
-100.0650160092546
 30
0.0
 40
0.0258931761693191
100
AcDbArc
 50
224.9999999999918
 51
314.9999999999999
  0
ARC
  5
205
330
2
100
AcDbEntity
  8
HIDDEN
  6
Continuous
100
AcDbCircle
 10
146.7691598269789
 20
-100.0650160092546
 30
0.0
 40
0.0358931761693191
100
AcDbArc
 50
224.9999999999918
 51
314.9999999999999
  0
ARC
  5
206
330
2
100
AcDbEntity
  8
HIDDEN
  6
Continuous
100
AcDbCircle
 10
146.7691598269789
 20
-100.0650160092546
 30
0.0
 40
0.0458931761693191
100
AcDbArc
 50
224.9999999999918
 51
314.9999999999999
  0
ARC
  5
207
330
2
100
AcDbEntity
  8
HIDDEN
  6
Continuous
100
AcDbCircle
 10
146.7691598269789
 20
-100.0650160092546
 30
0.0
 40
0.0558931761693191
100
AcDbArc
 50
224.9999999999918
 51
314.9999999999999
  0
ARC
  5
208
330
2
100
AcDbEntity
  8
HIDDEN
  6
Continuous
100
AcDbCircle
 10
146.7691598269789
 20
-100.0650160092546
 30
0.0
 40
0.0658931761693191
100
AcDbArc
 50
224.9999999999918
 51
314.9999999999999
  0
ARC
  5
209
330
2
100
AcDbEntity
  8
HIDDEN
  6
Continuous
100
AcDbCircle
 10
146.7691598269789
 20
-100.0650160092546
 30
0.0
 40
0.0758931761693191
100
AcDbArc
 50
224.9999999999918
 51
314.9999999999999
  0
ARC
  5
20A
330
2
100
AcDbEntity
  8
HIDDEN
  6
Continuous
100
AcDbCircle
 10
148.0065966940552
 20
-101.302452876331
 30
0.0
 40
0.0758931761693191
100
AcDbArc
 50
134.9999999999999
 51
225.0000000000081
  0
ARC
  5
20B
330
2
100
AcDbEntity
  8
HIDDEN
  6
Continuous
100
AcDbCircle
 10
148.0065966940552
 20
-101.302452876331
 30
0.0
 40
0.0658931761693191
100
AcDbArc
 50
134.9999999999999
 51
225.0000000000081
  0
ARC
  5
20C
330
2
100
AcDbEntity
  8
HIDDEN
  6
Continuous
100
AcDbCircle
 10
148.0065966940552
 20
-101.302452876331
 30
0.0
 40
0.0558931761693191
100
AcDbArc
 50
134.9999999999999
 51
225.0000000000081
  0
ARC
  5
20D
330
2
100
AcDbEntity
  8
HIDDEN
  6
Continuous
100
AcDbCircle
 10
148.0065966940552
 20
-101.302452876331
 30
0.0
 40
0.0458931761693191
100
AcDbArc
 50
134.9999999999999
 51
225.0000000000081
  0
ARC
  5
20E
330
2
100
AcDbEntity
  8
HIDDEN
  6
Continuous
100
AcDbCircle
 10
148.0065966940552
 20
-101.302452876331
 30
0.0
 40
0.0358931761693191
100
AcDbArc
 50
134.9999999999999
 51
225.0000000000081
  0
ARC
  5
20F
330
2
100
AcDbEntity
  8
HIDDEN
  6
Continuous
100
AcDbCircle
 10
148.0065966940552
 20
-101.302452876331
 30
0.0
 40
0.0258931761693191
100
AcDbArc
 50
134.9999999999999
 51
225.0000000000081
  0
ARC
  5
210
330
2
100
AcDbEntity
  8
0
100
AcDbCircle
 10
146.8273004325656
 20
-100.9381260528965
 30
0.0
 40
0.094791666666622
100
AcDbArc
 50
175.417438205667
 51
274.582561794314
  0
LINE
  5
211
330
2
100
AcDbEntity
  8
0
100
AcDbLine
 10
147.0664588201134
 20
-101.3113401010443
 30
0.0
 11
146.7602726022655
 21
-101.0051538831964
 31
0.0
  0
ARC
  5
212
330
2
100
AcDbEntity
  8
0
100
AcDbCircle
 10
147.1334866504136
 20
-101.2443122707442
 30
0.0
 40
0.0947916666667418
100
AcDbArc
 50
175.4174382057525
 51
274.5825617942284
  0
ARC
  5
213
330
2
100
AcDbEntity
  8
0
100
AcDbCircle
 10
147.1461216933302
 20
-100.9254910099798
 30
0.0
 40
0.3291666666666718
100
AcDbArc
 50
198.9921761143464
 51
251.0078238856211
  0
LINE
  5
214
330
2
100
AcDbEntity
  8
0
100
AcDbLine
 10
146.8832337332807
 20
-100.7801306795653
 30
0.0
 11
146.7328117919972
 21
-100.9305526208488
 31
0.0
  0
LINE
  5
215
330
2
100
AcDbEntity
  8
0
100
AcDbLine
 10
146.9852958058967
 20
-100.8821927521812
 30
0.0
 11
146.8348738646131
 21
-101.0326146934648
 31
0.0
  0
LINE
  5
216
330
2
100
AcDbEntity
  8
0
100
AcDbLine
 10
147.2914820237445
 20
-101.1883789700291
 30
0.0
 11
147.141060082461
 21
-101.3388009113126
 31
0.0
  0
LINE
  5
217
330
2
100
AcDbEntity
  8
0
100
AcDbLine
 10
147.1894199511286
 20
-101.0863168974131
 30
0.0
 11
147.038998009845
 21
-101.2367388386967
 31
0.0
  0
LINE
  5
218
330
2
100
AcDbEntity
  8
0
100
AcDbLine
 10
147.3631295231754
 20
-101.1893157913412
 30
0.0
 11
146.8822969119687
 21
-100.7084831801344
 31
0.0
  0
LINE
  5
219
330
2
100
AcDbEntity
  8
0
100
AcDbLine
 10
146.8469415729093
 20
-100.7438385191938
 30
0.0
 11
146.8822969119687
 21
-100.7084831801344
 31
0.0
  0
LINE
  5
21A
330
2
100
AcDbEntity
  8
0
100
AcDbLine
 10
147.327774184116
 20
-101.2246711304005
 30
0.0
 11
147.3631295231754
 21
-101.1893157913412
 31
0.0
  0
LINE
  5
21B
330
2
100
AcDbEntity
  8
0
100
AcDbLine
 10
147.327774184116
 20
-101.2246711304005
 30
0.0
 11
146.8469415729093
 21
-100.7438385191938
 31
0.0
  0
LINE
  5
21C
330
2
100
AcDbEntity
  8
HIDDEN
  6
DASHED2
370
    25
100
AcDbLine
 10
148.1218029521489
 20
-100.1236401682027
 30
0.0
 11
147.9479725351071
 21
-99.94980975116098
 31
0.0
  0
LINE
  5
21D
330
2
100
AcDbEntity
  8
HIDDEN
  6
DASHED2
370
    25
100
AcDbLine
 10
148.1060894681225
 20
-100.1864941043081
 30
0.0
 11
148.1218029521489
 21
-100.1236401682027
 31
0.0
  0
LINE
  5
21E
330
2
100
AcDbEntity
  8
HIDDEN
  6
DASHED2
370
    25
100
AcDbLine
 10
148.1060894681225
 20
-100.1864941043081
 30
0.0
 11
147.8851185990017
 21
-99.96552323518734
 31
0.0
  0
LINE
  5
21F
330
2
100
AcDbEntity
  8
HIDDEN
  6
DASHED2
370
    25
100
AcDbLine
 10
147.9479725351071
 20
-99.94980975116098
 30
0.0
 11
147.8851185990017
 21
-99.96552323518734
 31
0.0
  0
LINE
  5
220
330
2
100
AcDbEntity
  8
HIDDEN
  6
DASHED2
370
    25
100
AcDbLine
 10
147.2331986521324
 20
-101.0593849202981
 30
0.0
 11
148.1060894681225
 21
-100.1864941043081
 31
0.0
  0
LINE
  5
221
330
2
100
AcDbEntity
  8
HIDDEN
  6
DASHED2
370
    25
100
AcDbLine
 10
148.1218029521488
 20
-100.1236401682027
 30
0.0
 11
147.2096284260929
 21
-101.0358146942586
 31
0.0
  0
LINE
  5
222
330
2
100
AcDbEntity
  8
HIDDEN
  6
DASHED2
370
    25
100
AcDbLine
 10
147.0357980090512
 20
-100.8619842772169
 30
0.0
 11
147.9479725351071
 21
-99.9498097511609
 31
0.0
  0
LINE
  5
223
330
2
100
AcDbEntity
  8
HIDDEN
  6
HIDDEN
100
AcDbLine
 10
148.0065966940553
 20
-101.302452876331
 30
0.0
 11
146.7691598269788
 21
-100.0650160092546
 31
0.0
  0
LINE
  5
224
330
2
100
AcDbEntity
  8
HIDDEN
  6
HIDDEN
100
AcDbLine
 10
148.1833733893519
 20
-101.1256761810343
 30
0.0
 11
146.9459365222754
 21
-99.88823931395797
 31
0.0
  0
LINE
  5
225
330
2
100
AcDbEntity
  8
HIDDEN
  6
DASHED2
370
    25
100
AcDbLine
 10
147.8851185990017
 20
-99.96552323518731
 30
0.0
 11
147.0122277830117
 21
-100.8384140511774
 31
0.0
  0
ARC
  5
226
330
2
100
AcDbEntity
  8
0
100
AcDbCircle
 10
147.7762971470676
 20
-102.7961940898024
 30
0.0
 40
0.094791666666622
100
AcDbArc
 50
130.417438205667
 51
229.5825617943139
  0
LINE
  5
227
330
2
100
AcDbEntity
  8
0
100
AcDbLine
 10
147.6815054804009
 20
-103.2292067916945
 30
0.0
 11
147.6815054804009
 21
-102.7961940898023
 31
0.0
  0
ARC
  5
228
330
2
100
AcDbEntity
  8
0
100
AcDbCircle
 10
147.7762971470678
 20
-103.2292067916945
 30
0.0
 40
0.0947916666667418
100
AcDbArc
 50
130.4174382057525
 51
229.5825617942285
  0
ARC
  5
229
330
2
100
AcDbEntity
  8
0
100
AcDbCircle
 10
148.0106721470677
 20
-103.0127004407485
 30
0.0
 40
0.3291666666666718
100
AcDbArc
 50
153.9921761143465
 51
206.0078238856211
  0
LINE
  5
22A
330
2
100
AcDbEntity
  8
0
100
AcDbLine
 10
147.927567563176
 20
-102.7240253061536
 30
0.0
 11
147.7148388137343
 21
-102.7240253061536
 31
0.0
  0
LINE
  5
22B
330
2
100
AcDbEntity
  8
0
100
AcDbLine
 10
147.927567563176
 20
-102.868362873451
 30
0.0
 11
147.7148388137343
 21
-102.868362873451
 31
0.0
  0
LINE
  5
22C
330
2
100
AcDbEntity
  8
0
100
AcDbLine
 10
147.927567563176
 20
-103.3013755753432
 30
0.0
 11
147.7148388137343
 21
-103.3013755753432
 31
0.0
  0
LINE
  5
22D
330
2
100
AcDbEntity
  8
0
100
AcDbLine
 10
147.927567563176
 20
-103.1570380080458
 30
0.0
 11
147.7148388137343
 21
-103.1570380080458
 31
0.0
  0
LINE
  5
22E
330
2
100
AcDbEntity
  8
0
100
AcDbLine
 10
147.9775675631761
 20
-103.3527004407483
 30
0.0
 11
147.9775675631761
 21
-102.6727004407485
 31
0.0
  0
LINE
  5
22F
330
2
100
AcDbEntity
  8
0
100
AcDbLine
 10
147.9275675631761
 20
-102.6727004407485
 30
0.0
 11
147.9775675631761
 21
-102.6727004407485
 31
0.0
  0
LINE
  5
230
330
2
100
AcDbEntity
  8
0
100
AcDbLine
 10
147.927567563176
 20
-103.3527004407483
 30
0.0
 11
147.9775675631761
 21
-103.3527004407483
 31
0.0
  0
LINE
  5
231
330
2
100
AcDbEntity
  8
0
100
AcDbLine
 10
147.927567563176
 20
-103.3527004407483
 30
0.0
 11
147.9275675631761
 21
-102.6727004407485
 31
0.0
  0
LINE
  5
232
330
2
100
AcDbEntity
  8
0
  6
Continuous
100
AcDbLine
 10
149.5082978813409
 20
-98.73829007179406
 30
0.0
 11
149.6850745766375
 21
-98.56151337649741
 31
0.0
  0
LINE
  5
233
330
2
100
AcDbEntity
  8
0
  6
Continuous
100
AcDbLine
 10
149.1565459362192
 20
-98.74009151726564
 30
0.0
 11
149.3333226315158
 21
-98.563314821969
 31
0.0
  0
LINE
  5
234
330
2
100
AcDbEntity
  8
0
  6
Continuous
100
AcDbLine
 10
149.6850745766375
 20
-98.56151337649741
 30
0.0
 11
149.1565459362192
 21
-98.74009151726564
 31
0.0
  0
LINE
  5
235
330
2
100
AcDbEntity
  8
0
  6
Continuous
100
AcDbLine
 10
149.3333226315158
 20
-98.563314821969
 30
0.0
 11
148.3601500846484
 21
-97.59014227510176
 31
0.0
  0
LINE
  5
236
330
2
100
AcDbEntity
  8
0
  6
Continuous
100
AcDbLine
 10
150.4814704282082
 20
-99.71146261866129
 30
0.0
 11
149.5082978813409
 21
-98.73829007179402
 31
0.0
  0
ARC
  5
237
330
2
100
AcDbEntity
  8
HIDDEN
  6
Continuous
100
AcDbCircle
 10
148.3525675631762
 20
-102.1377004407485
 30
0.0
 40
0.0258931761693191
100
AcDbArc
 50
179.9999999999918
 51
269.9999999999999
  0
ARC
  5
238
330
2
100
AcDbEntity
  8
HIDDEN
  6
Continuous
100
AcDbCircle
 10
148.3525675631762
 20
-102.1377004407485
 30
0.0
 40
0.0358931761693191
100
AcDbArc
 50
179.9999999999918
 51
269.9999999999999
  0
ARC
  5
239
330
2
100
AcDbEntity
  8
HIDDEN
  6
Continuous
100
AcDbCircle
 10
148.3525675631762
 20
-102.1377004407485
 30
0.0
 40
0.0458931761693191
100
AcDbArc
 50
179.9999999999918
 51
269.9999999999999
  0
ARC
  5
23A
330
2
100
AcDbEntity
  8
HIDDEN
  6
Continuous
100
AcDbCircle
 10
148.3525675631762
 20
-102.1377004407485
 30
0.0
 40
0.0558931761693191
100
AcDbArc
 50
179.9999999999918
 51
269.9999999999999
  0
ARC
  5
23B
330
2
100
AcDbEntity
  8
HIDDEN
  6
Continuous
100
AcDbCircle
 10
148.3525675631762
 20
-102.1377004407485
 30
0.0
 40
0.0658931761693191
100
AcDbArc
 50
179.9999999999918
 51
269.9999999999999
  0
ARC
  5
23C
330
2
100
AcDbEntity
  8
HIDDEN
  6
Continuous
100
AcDbCircle
 10
148.3525675631762
 20
-102.1377004407485
 30
0.0
 40
0.0758931761693191
100
AcDbArc
 50
179.9999999999918
 51
269.9999999999999
  0
ARC
  5
23D
330
2
100
AcDbEntity
  8
HIDDEN
  6
Continuous
100
AcDbCircle
 10
148.3525675631762
 20
-103.8877004407484
 30
0.0
 40
0.0758931761693191
100
AcDbArc
 50
90.0
 51
180.0000000000081
  0
ARC
  5
23E
330
2
100
AcDbEntity
  8
HIDDEN
  6
Continuous
100
AcDbCircle
 10
148.3525675631762
 20
-103.8877004407484
 30
0.0
 40
0.0658931761693191
100
AcDbArc
 50
90.0
 51
180.0000000000081
  0
ARC
  5
23F
330
2
100
AcDbEntity
  8
HIDDEN
  6
Continuous
100
AcDbCircle
 10
148.3525675631762
 20
-103.8877004407484
 30
0.0
 40
0.0558931761693191
100
AcDbArc
 50
90.0
 51
180.0000000000081
  0
ARC
  5
240
330
2
100
AcDbEntity
  8
HIDDEN
  6
Continuous
100
AcDbCircle
 10
148.3525675631762
 20
-103.8877004407484
 30
0.0
 40
0.0458931761693191
100
AcDbArc
 50
90.0
 51
180.0000000000081
  0
ARC
  5
241
330
2
100
AcDbEntity
  8
HIDDEN
  6
Continuous
100
AcDbCircle
 10
148.3525675631762
 20
-103.8877004407484
 30
0.0
 40
0.0358931761693191
100
AcDbArc
 50
90.0
 51
180.0000000000081
  0
ARC
  5
242
330
2
100
AcDbEntity
  8
HIDDEN
  6
Continuous
100
AcDbCircle
 10
148.3525675631762
 20
-103.8877004407484
 30
0.0
 40
0.0258931761693191
100
AcDbArc
 50
90.0
 51
180.0000000000081
  0
LINE
  5
243
330
2
100
AcDbEntity
  8
HIDDEN
  6
DASHED2
370
    25
100
AcDbLine
 10
149.2675771491757
 20
-103.1356171074151
 30
0.0
 11
149.2675771491757
 21
-102.8897837740817
 31
0.0
  0
LINE
  5
244
330
2
100
AcDbEntity
  8
HIDDEN
  6
DASHED2
370
    25
100
AcDbLine
 10
149.2120215936202
 20
-103.1689504407484
 30
0.0
 11
149.2675771491757
 21
-103.1356171074151
 31
0.0
  0
LINE
  5
245
330
2
100
AcDbEntity
  8
HIDDEN
  6
DASHED2
370
    25
100
AcDbLine
 10
149.2120215936202
 20
-103.1689504407484
 30
0.0
 11
149.2120215936202
 21
-102.8564504407484
 31
0.0
  0
LINE
  5
246
330
2
100
AcDbEntity
  8
HIDDEN
  6
DASHED2
370
    25
100
AcDbLine
 10
149.2675771491757
 20
-102.8897837740817
 30
0.0
 11
149.2120215936202
 21
-102.8564504407484
 31
0.0
  0
LINE
  5
247
330
2
100
AcDbEntity
  8
HIDDEN
  6
HIDDEN
100
AcDbLine
 10
148.3525675631762
 20
-103.8877004407484
 30
0.0
 11
148.3525675631761
 21
-102.1377004407484
 31
0.0
  0
LINE
  5
248
330
2
100
AcDbEntity
  8
HIDDEN
  6
HIDDEN
100
AcDbLine
 10
148.6025675631762
 20
-103.8877004407484
 30
0.0
 11
148.6025675631761
 21
-102.1377004407484
 31
0.0
  0
LINE
  5
249
330
2
100
AcDbEntity
  8
0
  6
Continuous
100
AcDbLine
 10
151.2275675631761
 20
-103.1364266264395
 30
0.0
 11
151.4775675631761
 21
-103.1364266264395
 31
0.0
  0
LINE
  5
24A
330
2
100
AcDbEntity
  8
0
  6
Continuous
100
AcDbLine
 10
150.9775675631761
 20
-102.8889742550573
 30
0.0
 11
151.2275675631761
 21
-102.8889742550573
 31
0.0
  0
LINE
  5
24B
330
2
100
AcDbEntity
  8
0
  6
Continuous
100
AcDbLine
 10
151.4775675631761
 20
-103.1364266264395
 30
0.0
 11
150.9775675631761
 21
-102.8889742550573
 31
0.0
  0
LINE
  5
24C
330
2
100
AcDbEntity
  8
0
  6
Continuous
100
AcDbLine
 10
151.2275675631761
 20
-102.8889742550573
 30
0.0
 11
151.2275675631761
 21
-101.5127004407484
 31
0.0
  0
LINE
  5
24D
330
2
100
AcDbEntity
  8
0
  6
Continuous
100
AcDbLine
 10
151.2275675631761
 20
-101.7627004407484
 30
0.0
 11
148.2275675631762
 21
-101.7627004407484
 31
0.0
  0
LINE
  5
24E
330
2
100
AcDbEntity
  8
0
  6
Continuous
100
AcDbLine
 10
151.2275675631762
 20
-104.2627004407484
 30
0.0
 11
148.2275675631762
 21
-104.2627004407484
 31
0.0
  0
LINE
  5
24F
330
2
100
AcDbEntity
  8
0
  6
Continuous
100
AcDbLine
 10
148.227567563176
 20
-101.8527004407485
 30
0.0
 11
151.2275675631761
 21
-101.8527004407483
 31
0.0
  0
LINE
  5
250
330
2
100
AcDbEntity
  8
0
  6
Continuous
100
AcDbLine
 10
148.227567563176
 20
-104.1727004407483
 30
0.0
 11
151.2275675631761
 21
-104.1727004407485
 31
0.0
  0
LINE
  5
251
330
2
100
AcDbEntity
  8
2
  6
Continuous
100
AcDbLine
 10
148.2275675631762
 20
-103.0127004407484
 30
0.0
 11
151.2275675631761
 21
-103.0127004407484
 31
0.0
  0
LINE
  5
252
330
2
100
AcDbEntity
  8
0
  6
Continuous
100
AcDbLine
 10
151.2275675631761
 20
-102.0127004407484
 30
0.0
 11
148.2275675631762
 21
-102.0127004407484
 31
0.0
  0
LINE
  5
253
330
2
100
AcDbEntity
  8
HIDDEN
  6
HIDDEN
100
AcDbLine
 10
151.2275675631761
 20
-102.1377004407484
 30
0.0
 11
148.2275675631762
 21
-102.1377004407484
 31
0.0
  0
LINE
  5
254
330
2
100
AcDbEntity
  8
HIDDEN
  6
HIDDEN
100
AcDbLine
 10
151.2275675631762
 20
-103.8877004407484
 30
0.0
 11
148.2275675631762
 21
-103.8877004407484
 31
0.0
  0
LINE
  5
255
330
2
100
AcDbEntity
  8
0
  6
Continuous
100
AcDbLine
 10
151.2275675631762
 20
-104.0127004407484
 30
0.0
 11
148.2275675631762
 21
-104.0127004407484
 31
0.0
  0
HATCH
  5
256
330
2
100
AcDbEntity
  8
HIDDEN
  6
Continuous
100
AcDbHatch
 10
0.0
 20
0.0
 30
0.0
210
0.0
220
0.0
230
1.0
  2
ANSI31
 70
     0
 71
     0
 91
        8
 92
        7
 72
     0
 73
     1
 93
        4
 10
148.2275675631762
 20
-104.0127004407484
 10
151.2275675631761
 20
-104.0127004407484
 10
151.2275675631761
 20
-103.8877004407484
 10
148.2275675631762
 20
-103.8877004407484
 97
        0
 92
        7
 72
     0
 73
     1
 93
        4
 10
148.2275675631761
 20
-102.1377004407484
 10
151.2275675631761
 20
-102.1377004407484
 10
151.227567563176
 20
-102.0127004407484
 10
148.227567563176
 20
-102.0127004407484
 97
        0
 92
        7
 72
     0
 73
     1
 93
        4
 10
148.3525675631761
 20
-102.8564504407484
 10
148.6025675631761
 20
-102.8564504407484
 10
148.6025675631761
 20
-102.1377004407484
 10
148.3525675631761
 20
-102.1377004407484
 97
        0
 92
        7
 72
     0
 73
     1
 93
        4
 10
148.3525675631762
 20
-102.8897837740817
 10
148.6025675631762
 20
-102.8897837740817
 10
148.6025675631762
 20
-102.8564504407484
 10
148.3525675631761
 20
-102.8564504407484
 97
        0
 92
        7
 72
     0
 73
     1
 93
        4
 10
148.3525675631762
 20
-103.0127004407484
 10
148.6025675631762
 20
-103.0127004407484
 10
148.6025675631761
 20
-102.8897837740817
 10
148.3525675631762
 20
-102.8897837740817
 97
        0
 92
        7
 72
     0
 73
     1
 93
        4
 10
148.3525675631762
 20
-103.1356171074151
 10
148.6025675631762
 20
-103.1356171074151
 10
148.6025675631761
 20
-103.0127004407484
 10
148.3525675631762
 20
-103.0127004407484
 97
        0
 92
        7
 72
     0
 73
     1
 93
        4
 10
148.3525675631762
 20
-103.1689504407484
 10
148.6025675631762
 20
-103.1689504407484
 10
148.6025675631761
 20
-103.1356171074151
 10
148.3525675631762
 20
-103.1356171074151
 97
        0
 92
        7
 72
     0
 73
     1
 93
        4
 10
148.3525675631762
 20
-103.8877004407484
 10
148.6025675631762
 20
-103.8877004407484
 10
148.6025675631762
 20
-103.1689504407484
 10
148.3525675631762
 20
-103.1689504407484
 97
        0
 75
     0
 76
     1
 52
180.0
 41
1.0
 77
     0
 78
     1
 53
225.0
 43
307.3214671341637
 44
-208.4966289136282
 45
0.0883883476483184
 46
-0.0883883476483185
 79
     0
 47
0.0103572092086768
 98
        8
 10
150.1664493815614
 20
-103.9551946850833
 10
149.2987809402511
 20
-102.039807422885
 10
148.4197056606307
 20
-102.5039465659072
 10
148.3944385273523
 20
-102.87439216997
 10
148.4112832828712
 20
-102.920697584781
 10
148.4449723185251
 20
-103.0932914443804
 10
148.4491837450968
 20
-103.1564356667745
 10
148.4702394518036
 20
-103.253256524803
  0
LINE
  5
257
330
2
100
AcDbEntity
  8
.0625 Flashing
  6
Continuous
100
AcDbLine
 10
165.0220058503411
 20
-100.0340548191999
 30
0.0
 11
159.4102389986562
 21
-101.4373874631551
 31
0.0
  0
LINE
  5
259
330
2
100
AcDbEntity
  8
.0625 Flashing
  6
Continuous
100
AcDbLine
 10
165.0220058503411
 20
-100.0984794007196
 30
0.0
 11
159.4254014505809
 21
-101.4980203754357
 31
0.0
  0
LINE
  5
25A
330
2
100
AcDbEntity
  8
0
  6
Continuous
100
AcDbLine
 10
161.8533505497265
 20
-102.9630621022348
 30
0.0
 11
168.1906611509558
 21
-102.9630621022348
 31
0.0
  0
LEADER
  5
25B
330
2
100
AcDbEntity
  8
0
  6
Continuous
100
AcDbLeader
  3
STANDARD
 73
     0
 40
0.1906974761255116
 41
3.621333560709413
 76
     2
 10
161.6346890382733
 20
-104.0103189526772
 30
0.0
 10
157.5415497965765
 20
-104.0103189526772
 30
0.0
340
173
213
0.0
223
-0.09375
233
0.0
1001
ACAD
1000
DSTYLE
1002
{
1070
   147
1040
0.09
1070
    77
1070
     0
1002
}
  0
LEADER
  5
25C
330
2
100
AcDbEntity
  8
0
  6
Continuous
100
AcDbLeader
  3
STANDARD
 73
     0
 40
0.1940228512960437
 41
4.011809345156889
 76
     2
 10
162.6993234870533
 20
-103.5342656708417
 30
0.0
 10
157.5415497965765
 20
-103.5342656708417
 30
0.0
340
174
213
0.0
223
-0.09375
233
0.0
1001
ACAD
1000
DSTYLE
1002
{
1070
   147
1040
0.09
1070
    77
1070
     0
1002
}
  0
LEADER
  5
25D
330
2
100
AcDbEntity
  8
0
  6
Continuous
100
AcDbLeader
  3
STANDARD
 73
     0
 40
0.1938949522510232
 41
1.119500341064119
 76
     2
 10
160.2997934793799
 20
-102.3308719841461
 30
0.0
 10
157.5415497965765
 20
-102.3308719841461
 30
0.0
340
25E
213
0.0
223
-0.09375
233
0.0
1001
ACAD
1000
DSTYLE
1002
{
1070
   147
1040
0.09
1070
    77
1070
     0
1002
}
  0
MTEXT
  5
25E
102
{ACAD_REACTORS
330
25D
102
}
330
2
100
AcDbEntity
  8
0
  6
Continuous
100
AcDbMText
 10
157.4515497965765
 20
-102.2371219841461
 30
0.0
 40
0.1875
 41
4.4125
 71
     3
 72
     1
  1
GLAZING
 73
     1
 44
1.0
1001
ACAD
1000
MTEXTBEGIN
1070
    73
1070
     1
1070
    44
1040
1.0
1070
    74
1070
     0
1000
MTEXTEND
  0
LEADER
  5
25F
330
2
100
AcDbEntity
  8
0
  6
Continuous
100
AcDbLeader
  3
STANDARD
 73
     0
 40
0.1940228512960437
 41
3.960266030013642
 76
     2
 10
160.2997934793799
 20
-101.5572931447839
 30
0.0
 10
157.5415497965765
 20
-101.5572931447839
 30
0.0
340
176
213
0.0
223
-0.09375
233
0.0
1001
ACAD
1000
DSTYLE
1002
{
1070
   147
1040
0.09
1070
    77
1070
     0
1002
}
  0
LEADER
  5
260
330
2
100
AcDbEntity
  8
0
  6
Continuous
100
AcDbLeader
  3
STANDARD
 73
     0
 40
0.1938949522510232
 41
2.211118690313778
 76
     2
 10
163.5188066453712
 20
-100.4235038845609
 30
0.0
 10
157.5415497965765
 20
-100.4235038845609
 30
0.0
340
177
213
0.0
223
-0.09375
233
0.0
1001
ACAD
1000
DSTYLE
1002
{
1070
   147
1040
0.09
1070
    77
1070
     0
1002
}
  0
LINE
  5
261
330
2
100
AcDbEntity
  8
0
  6
Continuous
100
AcDbLine
 10
161.8460693586962
 20
-102.9339454514959
 30
0.0
 11
158.8533505497265
 21
-103.6823336347184
 31
0.0
  0
LINE
  5
262
330
2
100
AcDbEntity
  8
0
  6
Continuous
100
AcDbLine
 10
158.8533505497265
 20
-103.7132710904426
 30
0.0
 11
161.8533505497265
 21
-102.9630621022348
 31
0.0
  0
LINE
  5
263
330
2
100
AcDbEntity
  8
0
  6
Continuous
100
AcDbLine
 10
161.8387881676659
 20
-102.9048288007571
 30
0.0
 11
158.8533505497265
 21
-103.6513961789943
 31
0.0
  0
LINE
  5
264
330
2
100
AcDbEntity
  8
0
  6
Continuous
100
AcDbLine
 10
161.8315069766357
 20
-102.8757121500184
 30
0.0
 11
158.8533505497265
 21
-103.6204587232703
 31
0.0
  0
LINE
  5
265
330
2
100
AcDbEntity
  8
Glazing
  6
Continuous
100
AcDbLine
 10
161.8242257856053
 20
-102.8465954992789
 30
0.0
 11
158.8533505497265
 21
-103.5895212675465
 31
0.0
  0
LINE
  5
267
330
2
100
AcDbEntity
  8
Glazing
  6
Continuous
100
AcDbLine
 10
161.5064207932628
 20
-101.5757296578769
 30
0.0
 11
158.8533505497264
 21
-102.2391820388937
 31
0.0
  0
LINE
  5
268
330
2
100
AcDbEntity
  8
Glazing
  6
Continuous
100
AcDbLine
 10
161.5670706009618
 20
-101.8182613069995
 30
0.0
 11
158.8533505497264
 21
-102.4968803649724
 31
0.0
  0
LINE
  5
269
330
2
100
AcDbEntity
  8
Glazing
  6
Continuous
100
AcDbLine
 10
161.6883702163597
 20
-102.3033246052444
 30
0.0
 11
158.8533505497265
 21
-103.01227701713
 31
0.0
  0
LINE
  5
26A
330
2
100
AcDbEntity
  8
Glazing
  6
Continuous
100
AcDbLine
 10
161.7490200240586
 20
-102.5458562543669
 30
0.0
 11
158.8533505497265
 21
-103.2699753432088
 31
0.0
  0
LINE
  5
26B
330
2
100
AcDbEntity
  8
Glazing
  6
Continuous
100
AcDbLine
 10
161.7635759779063
 20
-102.6040638501563
 30
0.0
 11
158.8533505497265
 21
-103.3318229414678
 31
0.0
  0
LINE
  5
26C
330
2
100
AcDbEntity
  8
0
  6
Continuous
100
AcDbLine
 10
161.4760958894134
 20
-101.4544638333157
 30
0.0
 11
158.8533505497264
 21
-102.1103328758543
 31
0.0
  0
LINE
  5
26D
330
2
100
AcDbEntity
  8
0
  6
Continuous
100
AcDbLine
 10
161.4833770804439
 20
-101.4835804840555
 30
0.0
 11
158.8533505497264
 21
-102.1412703315784
 31
0.0
  0
LINE
  5
26E
330
2
100
AcDbEntity
  8
0
  6
Continuous
100
AcDbLine
 10
161.4906582714741
 20
-101.5126971347942
 30
0.0
 11
158.8533505497264
 21
-102.1722077873024
 31
0.0
  0
LINE
  5
26F
330
2
100
AcDbEntity
  8
0
  6
Continuous
100
AcDbLine
 10
161.4979394625044
 20
-101.541813785533
 30
0.0
 11
158.8533505497264
 21
-102.2031452430265
 31
0.0
  0
LINE
  5
270
330
2
100
AcDbEntity
  8
0
  6
Continuous
100
AcDbLine
 10
161.3699587259403
 20
-101.0300334473513
 30
0.0
 11
158.8533505497264
 21
-101.6593608052164
 31
0.0
  0
LEADER
  5
271
330
2
100
AcDbEntity
  8
0
  6
Continuous
100
AcDbLeader
  3
STANDARD
 73
     0
 40
0.1938949522510232
 41
3.088761937244202
 76
     2
 10
159.7562432928218
 20
-101.950614606199
 30
0.0
 10
157.5415497965765
 20
-101.950614606199
 30
0.0
340
175
213
0.0
223
-0.09375
233
0.0
1001
ACAD
1000
DSTYLE
1002
{
1070
   147
1040
0.09
1070
    77
1070
     0
1002
}
  0
LINE
  5
272
330
2
100
AcDbEntity
  8
.0625 Flashing
  6
Continuous
100
AcDbLine
 10
159.4254014505809
 20
-101.4980203754357
 30
0.0
 11
159.4102389986562
 21
-101.4373874631551
 31
0.0
  0
LINE
  5
273
330
2
100
AcDbEntity
  8
0
  6
Continuous
100
AcDbLine
 10
161.3699587259403
 20
-101.0300334473513
 30
0.0
 11
161.5064207932628
 21
-101.5757296578769
 31
0.0
  0
LINE
  5
274
330
2
100
AcDbEntity
  8
0
  6
Continuous
100
AcDbLine
 10
161.8533505497265
 20
-102.9630621022348
 30
0.0
 11
161.8242257856053
 21
-102.8465954992789
 31
0.0
  0
LINE
  5
275
330
2
100
AcDbEntity
  8
0
  6
Continuous
100
AcDbLine
 10
161.5670706009618
 20
-101.8182613069995
 30
0.0
 11
161.2033069181146
 21
-102.4246242206423
 31
0.0
  0
LINE
  5
276
330
2
100
AcDbEntity
  8
0
  6
Continuous
100
AcDbLine
 10
161.0820073027167
 20
-101.9395609223973
 30
0.0
 11
161.6883702163597
 21
-102.3033246052444
 31
0.0
  0
LINE
  5
277
330
2
100
AcDbEntity
  8
Glazing
  6
Continuous
100
AcDbLine
 10
161.2033069181146
 20
-102.4246242206423
 30
0.0
 11
161.0820073027167
 21
-101.9395609223973
 31
0.0
  0
LINE
  5
278
330
2
100
AcDbEntity
  8
Glazing
  6
Continuous
100
AcDbLine
 10
161.8242257856053
 20
-102.8465954992789
 30
0.0
 11
161.5064207932628
 21
-101.5757296578769
 31
0.0
  0
LINE
  5
279
330
2
100
AcDbEntity
  8
.0625 Flashing
  6
Continuous
100
AcDbLine
 10
165.0220058503411
 20
-100.0984794007196
 30
0.0
 11
170.6186102501014
 21
-101.4980203754357
 31
0.0
  0
LINE
  5
27A
330
2
100
AcDbEntity
  8
.0625 Flashing
  6
Continuous
100
AcDbLine
 10
165.0220058503411
 20
-100.0340548191999
 30
0.0
 11
170.6337727020261
 21
-101.4373874631551
 31
0.0
  0
LINE
  5
27B
330
2
100
AcDbEntity
  8
Glazing
  6
Continuous
100
AcDbLine
 10
168.219785915077
 20
-102.8465954992789
 30
0.0
 11
168.5375909074195
 21
-101.5757296578769
 31
0.0
  0
LINE
  5
27C
330
2
100
AcDbEntity
  8
0
  6
Continuous
100
AcDbLine
 10
168.4769410997205
 20
-101.8182613069995
 30
0.0
 11
168.8407047825677
 21
-102.4246242206423
 31
0.0
  0
LINE
  5
27D
330
2
100
AcDbEntity
  8
0
  6
Continuous
100
AcDbLine
 10
168.9620043979656
 20
-101.9395609223973
 30
0.0
 11
168.3556414843226
 21
-102.3033246052444
 31
0.0
  0
LINE
  5
27E
330
2
100
AcDbEntity
  8
Glazing
  6
Continuous
100
AcDbLine
 10
168.8407047825677
 20
-102.4246242206423
 30
0.0
 11
168.9620043979656
 21
-101.9395609223973
 31
0.0
  0
LINE
  5
27F
330
2
100
AcDbEntity
  8
0
  6
Continuous
100
AcDbLine
 10
168.1906611509558
 20
-102.9630621022348
 30
0.0
 11
168.219785915077
 21
-102.8465954992789
 31
0.0
  0
LINE
  5
280
330
2
100
AcDbEntity
  8
0
  6
Continuous
100
AcDbLine
 10
168.674052974742
 20
-101.0300334473513
 30
0.0
 11
168.5375909074195
 21
-101.5757296578769
 31
0.0
  0
LINE
  5
281
330
2
100
AcDbEntity
  8
.0625 Flashing
  6
Continuous
100
AcDbLine
 10
170.6186102501014
 20
-101.4980203754357
 30
0.0
 11
170.6337727020261
 21
-101.4373874631551
 31
0.0
  0
LINE
  5
282
330
2
100
AcDbEntity
  8
0
  6
Continuous
100
AcDbLine
 10
168.674052974742
 20
-101.0300334473513
 30
0.0
 11
171.1906611509559
 21
-101.6593608052164
 31
0.0
  0
LINE
  5
283
330
2
100
AcDbEntity
  8
0
  6
Continuous
100
AcDbLine
 10
168.1979423419861
 20
-102.9339454514959
 30
0.0
 11
171.1906611509558
 21
-103.6823336347184
 31
0.0
  0
LINE
  5
284
330
2
100
AcDbEntity
  8
0
  6
Continuous
100
AcDbLine
 10
168.2052235330164
 20
-102.9048288007571
 30
0.0
 11
171.1906611509558
 21
-103.6513961789943
 31
0.0
  0
LINE
  5
285
330
2
100
AcDbEntity
  8
0
  6
Continuous
100
AcDbLine
 10
168.2125047240466
 20
-102.8757121500184
 30
0.0
 11
171.1906611509558
 21
-103.6204587232703
 31
0.0
  0
LINE
  5
286
330
2
100
AcDbEntity
  8
Glazing
  6
Continuous
100
AcDbLine
 10
168.219785915077
 20
-102.8465954992789
 30
0.0
 11
171.1906611509558
 21
-103.5895212675465
 31
0.0
  0
LINE
  5
287
330
2
100
AcDbEntity
  8
Glazing
  6
Continuous
100
AcDbLine
 10
168.280435722776
 20
-102.6040638501563
 30
0.0
 11
171.1906611509558
 21
-103.3318229414678
 31
0.0
  0
LINE
  5
288
330
2
100
AcDbEntity
  8
Glazing
  6
Continuous
100
AcDbLine
 10
168.2949916766237
 20
-102.5458562543669
 30
0.0
 11
171.1906611509558
 21
-103.2699753432088
 31
0.0
  0
LINE
  5
289
330
2
100
AcDbEntity
  8
Glazing
  6
Continuous
100
AcDbLine
 10
168.3556414843226
 20
-102.3033246052444
 30
0.0
 11
171.1906611509558
 21
-103.01227701713
 31
0.0
  0
LINE
  5
28A
330
2
100
AcDbEntity
  8
Glazing
  6
Continuous
100
AcDbLine
 10
168.4769410997205
 20
-101.8182613069995
 30
0.0
 11
171.1906611509559
 21
-102.4968803649724
 31
0.0
  0
LINE
  5
28B
330
2
100
AcDbEntity
  8
Glazing
  6
Continuous
100
AcDbLine
 10
168.5375909074195
 20
-101.5757296578769
 30
0.0
 11
171.1906611509559
 21
-102.2391820388937
 31
0.0
  0
LINE
  5
28C
330
2
100
AcDbEntity
  8
0
  6
Continuous
100
AcDbLine
 10
168.5460722381779
 20
-101.541813785533
 30
0.0
 11
171.1906611509559
 21
-102.2031452430265
 31
0.0
  0
LINE
  5
28D
330
2
100
AcDbEntity
  8
0
  6
Continuous
100
AcDbLine
 10
168.5533534292082
 20
-101.5126971347942
 30
0.0
 11
171.1906611509559
 21
-102.1722077873024
 31
0.0
  0
LINE
  5
28E
330
2
100
AcDbEntity
  8
0
  6
Continuous
100
AcDbLine
 10
168.5606346202384
 20
-101.4835804840555
 30
0.0
 11
171.1906611509559
 21
-102.1412703315784
 31
0.0
  0
LINE
  5
28F
330
2
100
AcDbEntity
  8
0
  6
Continuous
100
AcDbLine
 10
168.5679158112689
 20
-101.4544638333157
 30
0.0
 11
171.1906611509559
 21
-102.1103328758543
 31
0.0
  0
LINE
  5
290
330
2
100
AcDbEntity
  8
0
  6
Continuous
100
AcDbLine
 10
171.1906611509558
 20
-103.7132710904426
 30
0.0
 11
168.1906611509558
 21
-102.9630621022348
 31
0.0
  0
ENDSEC
  0
SECTION
  2
OBJECTS
  0
DICTIONARY
  5
9
330
0
100
AcDbDictionary
281
     1
  3
ACAD_COLOR
350
30
  3
ACAD_GROUP
350
2C
  3
ACAD_LAYOUT
350
D
  3
ACAD_MATERIAL
350
2F
  3
ACAD_MLINESTYLE
350
2D
  3
ACAD_PLOTSETTINGS
350
2E
  3
ACAD_PLOTSTYLENAME
350
8
  3
ACDBHEADERROUNDTRIPXREC
350
2AD
  3
AcDbVariableDictionary
350
2A8
  0
DICTIONARY
  5
15
330
14
100
AcDbDictionary
280
     1
281
     1
  3
ACAD_LAYERFILTERS
360
16
  3
ACAD_LAYERSTATES
360
1A
  0
DICTIONARY
  5
3
330
2
100
AcDbDictionary
280
     1
281
     1
  3
ACAD_LAYOUTSELFREF
360
4
  0
DICTIONARY
  5
F
330
E
100
AcDbDictionary
280
     1
281
     1
  3
ACAD_LAYOUTSELFREF
360
10
  0
DICTIONARY
  5
30
102
{ACAD_REACTORS
330
9
102
}
330
9
100
AcDbDictionary
281
     1
  0
DICTIONARY
  5
2C
102
{ACAD_REACTORS
330
9
102
}
330
9
100
AcDbDictionary
281
     1
  0
DICTIONARY
  5
D
102
{ACAD_REACTORS
330
9
102
}
330
9
100
AcDbDictionary
281
     1
  3
Layout1
350
13
  3
Model
350
C
  0
DICTIONARY
  5
2F
102
{ACAD_REACTORS
330
9
102
}
330
9
100
AcDbDictionary
281
     1
  0
DICTIONARY
  5
2D
102
{ACAD_REACTORS
330
9
102
}
330
9
100
AcDbDictionary
281
     1
  3
STANDARD
350
31
  0
DICTIONARY
  5
2E
102
{ACAD_REACTORS
330
9
102
}
330
9
100
AcDbDictionary
281
     1
  0
ACDBDICTIONARYWDFLT
  5
8
102
{ACAD_REACTORS
330
9
102
}
330
9
100
AcDbDictionary
281
     1
  3
Normal
350
7
100
AcDbDictionaryWithDefault
340
7
  0
DICTIONARY
  5
2AD
102
{ACAD_REACTORS
330
9
102
}
330
9
100
AcDbDictionary
281
     1
  3
COLORDICT
350
2AF
  3
MATERIALDICT
350
2AE
  0
DICTIONARY
  5
2A8
102
{ACAD_REACTORS
330
9
102
}
330
9
100
AcDbDictionary
281
     1
  3
DIMASSOC
350
2AA
  3
HIDETEXT
350
2A9
  3
PROJECTNAME
350
2AB
  0
DICTIONARY
  5
16
102
{ACAD_REACTORS
330
15
102
}
330
15
100
AcDbDictionary
280
     1
281
     1
  3
clg
360
17
  3
Roof
360
18
  3
sk
360
19
  0
DICTIONARY
  5
1A
102
{ACAD_REACTORS
330
15
102
}
330
15
100
AcDbDictionary
281
     1
  0
XRECORD
  5
4
102
{ACAD_REACTORS
330
3
102
}
330
3
100
AcDbXrecord
280
     1
340
2
  0
XRECORD
  5
10
102
{ACAD_REACTORS
330
F
102
}
330
F
100
AcDbXrecord
280
     1
340
E
  0
LAYOUT
  5
13
102
{ACAD_XDICTIONARY
360
2B2
102
}
102
{ACAD_REACTORS
330
D
102
}
330
D
100
AcDbPlotSettings
  1

  2
HP DesignJet 430 Plotter
  4

  6

 40
0.0
 41
0.0
 42
0.0
 43
0.0
 44
0.0
 45
0.0
 46
0.0
 47
0.0
 48
0.0
 49
0.0
140
0.0
141
0.0
142
1.0
143
1.0
 70
   688
 72
     0
 73
     0
 74
     5
  7
acad.ctb
 75
    16
147
1.0
148
0.0
149
0.0
100
AcDbLayout
  1
Layout1
 70
     1
 71
     1
 10
0.0
 20
0.0
 11
11.0
 21
8.5
 12
0.0
 22
0.0
 32
0.0
 14
0.0
 24
0.0
 34
0.0
 15
11.0
 25
8.5
 35
0.0
146
0.0
 13
0.0
 23
0.0
 33
0.0
 16
1.0
 26
0.0
 36
0.0
 17
0.0
 27
1.0
 37
0.0
 76
     0
330
E
  0
LAYOUT
  5
C
102
{ACAD_XDICTIONARY
360
2B0
102
}
102
{ACAD_REACTORS
330
D
102
}
330
D
100
AcDbPlotSettings
  1

  2
Brother MFC9700
  4
Letter
  6

 40
7.143749713897705
 41
5.027085304260253
 42
7.14373779296875
 43
5.027069091796875
 44
215.8999938964844
 45
279.3999938964844
 46
17.272
 47
0.0
 48
0.0
 49
0.0
140
0.0
141
0.0
142
1.0
143
0.1454883688845959
 70
 11956
 72
     0
 73
     1
 74
     0
  7
acad.ctb
 75
     0
147
6.873401686104671
148
-475.9428163058331
149
1456.585280992969
100
AcDbLayout
  1
Model
 70
     1
 71
     0
 10
0.0
 20
0.0
 11
12.0
 21
9.0
 12
0.0
 22
0.0
 32
0.0
 14
0.0
 24
0.0
 34
0.0
 15
0.0
 25
0.0
 35
0.0
146
0.0
 13
0.0
 23
0.0
 33
0.0
 16
1.0
 26
0.0
 36
0.0
 17
0.0
 27
1.0
 37
0.0
 76
     0
330
2
  0
MLINESTYLE
  5
31
102
{ACAD_REACTORS
330
2D
102
}
330
2D
100
AcDbMlineStyle
  2
STANDARD
 70
     0
  3

 62
   256
 51
90.0
 52
90.0
 71
     2
 49
0.5
 62
   256
  6
BYLAYER
 49
-0.5
 62
   256
  6
BYLAYER
  0
ACDBPLACEHOLDER
  5
7
102
{ACAD_REACTORS
330
8
102
}
330
8
  0
XRECORD
  5
2AF
102
{ACAD_REACTORS
330
2AD
102
}
330
2AD
100
AcDbXrecord
280
     1
340
30
  0
XRECORD
  5
2AE
102
{ACAD_REACTORS
330
2AD
102
}
330
2AD
100
AcDbXrecord
280
     1
340
2F
  0
DICTIONARYVAR
  5
2AA
102
{ACAD_REACTORS
330
2A8
102
}
330
2A8
100
DictionaryVariables
280
     0
  1
1
  0
DICTIONARYVAR
  5
2A9
102
{ACAD_REACTORS
330
2A8
102
}
330
2A8
100
DictionaryVariables
280
     0
  1
1
  0
DICTIONARYVAR
  5
2AB
102
{ACAD_REACTORS
330
2A8
102
}
330
2A8
100
DictionaryVariables
280
     0
  1

  0
XRECORD
  5
17
102
{ACAD_REACTORS
330
16
102
}
330
16
100
AcDbXrecord
280
     1
  1
clg
  1
a-c*
  1
*
  1
*
 70
     0
  1
*
  1
*
  0
XRECORD
  5
18
102
{ACAD_REACTORS
330
16
102
}
330
16
100
AcDbXrecord
280
     1
  1
Roof
  1
a-roo*.*
  1
*
  1
*
 70
     0
  1
*
  1
*
  0
XRECORD
  5
19
102
{ACAD_REACTORS
330
16
102
}
330
16
100
AcDbXrecord
280
     1
  1
sk
  1
*sketch
  1
*
  1
*
 70
     0
  1
*
  1
*
  0
DICTIONARY
  5
2B2
330
13
100
AcDbDictionary
280
     1
281
     1
  3
ACAD_XREC_ROUNDTRIP
360
2B3
  0
DICTIONARY
  5
2B0
330
C
100
AcDbDictionary
280
     1
281
     1
  3
ACAD_XREC_ROUNDTRIP
360
2B1
  0
XRECORD
  5
2B3
102
{ACAD_REACTORS
330
2B2
102
}
330
2B2
100
AcDbXrecord
280
     1
102
SHADEPLOT
 70
     0
102
SHADEPLOTRESLEVEL
 70
     2
102
SHADEPLOTCUSTOMDPI
 70
   300
  0
XRECORD
  5
2B1
102
{ACAD_REACTORS
330
2B0
102
}
330
2B0
100
AcDbXrecord
280
     1
102
SHADEPLOT
 70
     0
102
SHADEPLOTRESLEVEL
 70
     2
102
SHADEPLOTCUSTOMDPI
 70
   300
  0
ENDSEC
  0
EOF
