  0
SECTION
  2
HEADER
  9
$ACADVER
  1
AC1015
  9
$ACADMAINTVER
 70
    20
  9
$DWGCODEPAGE
  3
ANSI_1252
  9
$INSBASE
 10
0.0
 20
0.0
 30
0.0
  9
$EXTMIN
 10
132.1256114553259
 20
-189.2593504797266
 30
-0.0015258207003583
  9
$EXTMAX
 10
149.9307867823294
 20
-181.4442961105077
 30
0.0000000349246037
  9
$LIMMIN
 10
0.0
 20
0.0
  9
$LIMMAX
 10
408.0
 20
264.0
  9
$ORTHOMODE
 70
     1
  9
$REGENMODE
 70
     1
  9
$FILLMODE
 70
     1
  9
$QTEXTMODE
 70
     0
  9
$MIRRTEXT
 70
     1
  9
$LTSCALE
 40
1.0
  9
$ATTMODE
 70
     1
  9
$TEXTSIZE
 40
0.1875
  9
$TRACEWID
 40
0.05
  9
$TEXTSTYLE
  7
STANDARD
  9
$CLAYER
  8
0
  9
$CELTYPE
  6
CONTINUOUS
  9
$CECOLOR
 62
   256
  9
$CELTSCALE
 40
1.0
  9
$DISPSILH
 70
     0
  9
$DIMSCALE
 40
1.0
  9
$DIMASZ
 40
0.125
  9
$DIMEXO
 40
0.0625
  9
$DIMDLI
 40
0.38
  9
$DIMRND
 40
0.0
  9
$DIMDLE
 40
0.0
  9
$DIMEXE
 40
0.09375
  9
$DIMTP
 40
0.0
  9
$DIMTM
 40
0.0
  9
$DIMTXT
 40
0.18
  9
$DIMCEN
 40
0.09
  9
$DIMTSZ
 40
0.0
  9
$DIMTOL
 70
     0
  9
$DIMLIM
 70
     0
  9
$DIMTIH
 70
     1
  9
$DIMTOH
 70
     1
  9
$DIMSE1
 70
     0
  9
$DIMSE2
 70
     0
  9
$DIMTAD
 70
     0
  9
$DIMZIN
 70
     0
  9
$DIMBLK
  1

  9
$DIMASO
 70
     1
  9
$DIMSHO
 70
     1
  9
$DIMPOST
  1

  9
$DIMAPOST
  1

  9
$DIMALT
 70
     1
  9
$DIMALTD
 70
     4
  9
$DIMALTF
 40
1.0
  9
$DIMLFAC
 40
1.0
  9
$DIMTOFL
 70
     0
  9
$DIMTVP
 40
0.0
  9
$DIMTIX
 70
     0
  9
$DIMSOXD
 70
     0
  9
$DIMSAH
 70
     0
  9
$DIMBLK1
  1

  9
$DIMBLK2
  1

  9
$DIMSTYLE
  2
STANDARD
  9
$DIMCLRD
 70
     0
  9
$DIMCLRE
 70
     0
  9
$DIMCLRT
 70
     0
  9
$DIMTFAC
 40
1.0
  9
$DIMGAP
 40
0.09
  9
$DIMJUST
 70
     0
  9
$DIMSD1
 70
     0
  9
$DIMSD2
 70
     0
  9
$DIMTOLJ
 70
     1
  9
$DIMTZIN
 70
     0
  9
$DIMALTZ
 70
     0
  9
$DIMALTTZ
 70
     0
  9
$DIMUPT
 70
     0
  9
$DIMDEC
 70
     4
  9
$DIMTDEC
 70
     4
  9
$DIMALTU
 70
     5
  9
$DIMALTTD
 70
     4
  9
$DIMTXSTY
  7
STANDARD
  9
$DIMAUNIT
 70
     0
  9
$DIMADEC
 70
     8
  9
$DIMALTRND
 40
0.0
  9
$DIMAZIN
 70
     0
  9
$DIMDSEP
 70
    46
  9
$DIMATFIT
 70
     3
  9
$DIMFRAC
 70
     0
  9
$DIMLDRBLK
  1

  9
$DIMLUNIT
 70
     2
  9
$DIMLWD
 70
    -2
  9
$DIMLWE
 70
    -2
  9
$DIMTMOVE
 70
     0
  9
$LUNITS
 70
     4
  9
$LUPREC
 70
     5
  9
$SKETCHINC
 40
0.1
  9
$FILLETRAD
 40
0.01
  9
$AUNITS
 70
     0
  9
$AUPREC
 70
     1
  9
$MENU
  1
acad
  9
$ELEVATION
 40
0.0
  9
$PELEVATION
 40
0.0
  9
$THICKNESS
 40
0.0
  9
$LIMCHECK
 70
     0
  9
$CHAMFERA
 40
0.0
  9
$CHAMFERB
 40
0.0
  9
$CHAMFERC
 40
1.0
  9
$CHAMFERD
 40
0.0
  9
$SKPOLY
 70
     0
  9
$TDCREATE
 40
2453453.437640602
  9
$TDUCREATE
 40
2453453.770973935
  9
$TDUPDATE
 40
2453808.494140984
  9
$TDUUPDATE
 40
2453808.827474317
  9
$TDINDWG
 40
4.9370603819
  9
$TDUSRTIMER
 40
4.9370603819
  9
$USRTIMER
 70
     1
  9
$ANGBASE
 50
0.0
  9
$ANGDIR
 70
     0
  9
$PDMODE
 70
     0
  9
$PDSIZE
 40
0.0
  9
$PLINEWID
 40
0.0
  9
$SPLFRAME
 70
     0
  9
$SPLINETYPE
 70
     6
  9
$SPLINESEGS
 70
     8
  9
$HANDSEED
  5
3CA
  9
$SURFTAB1
 70
     6
  9
$SURFTAB2
 70
     6
  9
$SURFTYPE
 70
     6
  9
$SURFU
 70
     6
  9
$SURFV
 70
     6
  9
$UCSBASE
  2

  9
$UCSNAME
  2

  9
$UCSORG
 10
0.0
 20
0.0
 30
0.0
  9
$UCSXDIR
 10
1.0
 20
0.0
 30
0.0
  9
$UCSYDIR
 10
0.0
 20
1.0
 30
0.0
  9
$UCSORTHOREF
  2

  9
$UCSORTHOVIEW
 70
     1
  9
$UCSORGTOP
 10
0.0
 20
0.0
 30
0.0
  9
$UCSORGBOTTOM
 10
0.0
 20
0.0
 30
0.0
  9
$UCSORGLEFT
 10
0.0
 20
0.0
 30
0.0
  9
$UCSORGRIGHT
 10
0.0
 20
0.0
 30
0.0
  9
$UCSORGFRONT
 10
0.0
 20
0.0
 30
0.0
  9
$UCSORGBACK
 10
0.0
 20
0.0
 30
0.0
  9
$PUCSBASE
  2

  9
$PUCSNAME
  2

  9
$PUCSORG
 10
0.0
 20
0.0
 30
0.0
  9
$PUCSXDIR
 10
1.0
 20
0.0
 30
0.0
  9
$PUCSYDIR
 10
0.0
 20
1.0
 30
0.0
  9
$PUCSORTHOREF
  2

  9
$PUCSORTHOVIEW
 70
     0
  9
$PUCSORGTOP
 10
0.0
 20
0.0
 30
0.0
  9
$PUCSORGBOTTOM
 10
0.0
 20
0.0
 30
0.0
  9
$PUCSORGLEFT
 10
0.0
 20
0.0
 30
0.0
  9
$PUCSORGRIGHT
 10
0.0
 20
0.0
 30
0.0
  9
$PUCSORGFRONT
 10
0.0
 20
0.0
 30
0.0
  9
$PUCSORGBACK
 10
0.0
 20
0.0
 30
0.0
  9
$USERI1
 70
     0
  9
$USERI2
 70
     0
  9
$USERI3
 70
     0
  9
$USERI4
 70
     0
  9
$USERI5
 70
     0
  9
$USERR1
 40
0.0
  9
$USERR2
 40
0.0
  9
$USERR3
 40
0.0
  9
$USERR4
 40
0.0
  9
$USERR5
 40
0.0
  9
$WORLDVIEW
 70
     1
  9
$SHADEDGE
 70
     3
  9
$SHADEDIF
 70
    70
  9
$TILEMODE
 70
     1
  9
$MAXACTVP
 70
    48
  9
$PINSBASE
 10
0.0
 20
0.0
 30
0.0
  9
$PLIMCHECK
 70
     0
  9
$PEXTMIN
 10
0.0
 20
0.0
 30
0.0
  9
$PEXTMAX
 10
11.0
 20
8.5
 30
0.0
  9
$PLIMMIN
 10
0.0
 20
0.0
  9
$PLIMMAX
 10
11.0
 20
8.5
  9
$UNITMODE
 70
     0
  9
$VISRETAIN
 70
     1
  9
$PLINEGEN
 70
     0
  9
$PSLTSCALE
 70
     1
  9
$TREEDEPTH
 70
  3020
  9
$CMLSTYLE
  2
STANDARD
  9
$CMLJUST
 70
     0
  9
$CMLSCALE
 40
1.0
  9
$PROXYGRAPHICS
 70
     1
  9
$MEASUREMENT
 70
     0
  9
$CELWEIGHT
370
    -1
  9
$ENDCAPS
280
     0
  9
$JOINSTYLE
280
     0
  9
$LWDISPLAY
290
     0
  9
$INSUNITS
 70
     0
  9
$HYPERLINKBASE
  1

  9
$STYLESHEET
  1

  9
$XEDIT
290
     1
  9
$CEPSNTYPE
380
     0
  9
$PSTYLEMODE
290
     1
  9
$FINGERPRINTGUID
  2
{429355A8-7BC6-4FCE-9B99-57A0ED0E2088}
  9
$VERSIONGUID
  2
{D40B089A-6685-4AD3-86BC-983C156AA37E}
  9
$EXTNAMES
290
     1
  9
$PSVPSCALE
 40
0.0
  9
$OLESTARTUP
290
     0
  0
ENDSEC
  0
SECTION
  2
CLASSES
  0
CLASS
  1
DICTIONARYVAR
  2
AcDbDictionaryVar
  3
ObjectDBX Classes
 90
        0
280
     0
281
     0
  0
CLASS
  1
ACDBDICTIONARYWDFLT
  2
AcDbDictionaryWithDefault
  3
ObjectDBX Classes
 90
        0
280
     0
281
     0
  0
CLASS
  1
ACDBPLACEHOLDER
  2
AcDbPlaceHolder
  3
ObjectDBX Classes
 90
        0
280
     0
281
     0
  0
CLASS
  1
LAYOUT
  2
AcDbLayout
  3
ObjectDBX Classes
 90
        0
280
     0
281
     0
  0
ENDSEC
  0
SECTION
  2
TABLES
  0
TABLE
  2
VPORT
  5
24
330
0
100
AcDbSymbolTable
 70
     2
  0
VPORT
  5
3C2
330
24
100
AcDbSymbolTableRecord
100
AcDbViewportTableRecord
  2
*Active
 70
     0
 10
0.0
 20
0.0
 11
1.0
 21
1.0
 12
141.0281991188276
 22
-185.3518232951172
 13
0.0
 23
0.0
 14
0.5
 24
0.5
 15
0.5
 25
0.5
 16
0.0
 26
0.0
 36
1.0
 17
0.0
 27
0.0
 37
0.0
 40
12.29350249291466
 41
1.455952380952381
 42
50.0
 43
0.0
 44
0.0
 50
0.0
 51
0.0
 71
     0
 72
   100
 73
     1
 74
     1
 75
     0
 76
     0
 77
     0
 78
     1
281
     0
 65
     1
110
0.0
120
0.0
130
0.0
111
1.0
121
0.0
131
0.0
112
0.0
122
1.0
132
0.0
 79
     0
146
0.0
  0
ENDTAB
  0
TABLE
  2
LTYPE
  5
1F
330
0
100
AcDbSymbolTable
 70
     5
  0
LTYPE
  5
20
330
1F
100
AcDbSymbolTableRecord
100
AcDbLinetypeTableRecord
  2
BYBLOCK
 70
     0
  3

 72
    65
 73
     0
 40
0.0
  0
LTYPE
  5
21
330
1F
100
AcDbSymbolTableRecord
100
AcDbLinetypeTableRecord
  2
BYLAYER
 70
     0
  3

 72
    65
 73
     0
 40
0.0
  0
LTYPE
  5
A
330
1F
100
AcDbSymbolTableRecord
100
AcDbLinetypeTableRecord
  2
CONTINUOUS
 70
     0
  3
Solid line
 72
    65
 73
     0
 40
0.0
  0
LTYPE
  5
44
330
1F
100
AcDbSymbolTableRecord
100
AcDbLinetypeTableRecord
  2
ACAD_ISO02W100
 70
     0
  3
ISO dash __ __ __ __ __ __ __ __ __ __ __ __ __
 72
    65
 73
     2
 40
15.0
 49
12.0
 74
     0
 49
-3.0
 74
     0
  0
LTYPE
  5
1AD
330
1F
100
AcDbSymbolTableRecord
100
AcDbLinetypeTableRecord
  2
CENTER
 70
     0
  3
Center ____ _ ____ _ ____ _ ____ _ ____ _ ____
 72
    65
 73
     4
 40
2.0
 49
1.25
 74
     0
 49
-0.25
 74
     0
 49
0.25
 74
     0
 49
-0.25
 74
     0
  0
LTYPE
  5
45
330
1F
100
AcDbSymbolTableRecord
100
AcDbLinetypeTableRecord
  2
DASHED2
 70
     0
  3
Dashed (.5x) _ _ _ _ _ _ _ _ _ _ _ _ _ _ _ _ _
 72
    65
 73
     2
 40
0.375
 49
0.25
 74
     0
 49
-0.125
 74
     0
  0
LTYPE
  5
51
330
1F
100
AcDbSymbolTableRecord
100
AcDbLinetypeTableRecord
  2
DASHEDX2
 70
     0
  3
Dashed (2x) ____  ____  ____  ____  ____  ___
 72
    65
 73
     2
 40
1.5
 49
1.0
 74
     0
 49
-0.5
 74
     0
  0
ENDTAB
  0
TABLE
  2
LAYER
  5
14
102
{ACAD_XDICTIONARY
360
15
102
}
330
0
100
AcDbSymbolTable
 70
     8
  0
LAYER
  5
6
330
14
100
AcDbSymbolTableRecord
100
AcDbLayerTableRecord
  2
0
 70
     0
 62
     7
  6
CONTINUOUS
370
    -3
390
7
  0
LAYER
  5
316
330
14
100
AcDbSymbolTableRecord
100
AcDbLayerTableRecord
  2
.0625 Flashing
 70
     0
 62
    80
  6
CONTINUOUS
370
     5
390
7
  0
LAYER
  5
4F
330
14
100
AcDbSymbolTableRecord
100
AcDbLayerTableRecord
  2
Text
 70
     0
 62
   140
  6
CONTINUOUS
370
    13
390
7
  0
LAYER
  5
324
330
14
100
AcDbSymbolTableRecord
100
AcDbLayerTableRecord
  2
5
 70
     0
 62
     5
  6
CONTINUOUS
370
    -3
390
7
  0
LAYER
  5
1AC
330
14
100
AcDbSymbolTableRecord
100
AcDbLayerTableRecord
  2
2
 70
     0
 62
     4
  6
CENTER
370
    -3
390
7
  0
LAYER
  5
43
330
14
100
AcDbSymbolTableRecord
100
AcDbLayerTableRecord
  2
HIDDEN
 70
     0
 62
     8
  6
ACAD_ISO02W100
370
    -3
390
7
  0
LAYER
  5
58
330
14
100
AcDbSymbolTableRecord
100
AcDbLayerTableRecord
  2
Glazing
 70
     0
 62
     5
  6
CONTINUOUS
370
    -3
390
7
  0
LAYER
  5
47
330
14
100
AcDbSymbolTableRecord
100
AcDbLayerTableRecord
  2
MAIN
 70
     0
 62
     1
  6
CONTINUOUS
370
    -3
390
7
  0
ENDTAB
  0
TABLE
  2
STYLE
  5
1B
330
0
100
AcDbSymbolTable
 70
     2
  0
STYLE
  5
1C
330
1B
100
AcDbSymbolTableRecord
100
AcDbTextStyleTableRecord
  2
STANDARD
 70
     0
 40
0.1875
 41
1.0
 50
0.0
 71
     0
 42
0.1875
  3
ARIAL.TTF
  4

1001
ACAD
1000
Arial
1071
       34
  0
STYLE
  5
2A
330
1B
100
AcDbSymbolTableRecord
100
AcDbTextStyleTableRecord
  2
ARCHITXT
 70
     0
 40
3.0
 41
1.0
 50
0.0
 71
     0
 42
3.0
  3
architxt.shx
  4

  0
ENDTAB
  0
TABLE
  2
VIEW
  5
22
330
0
100
AcDbSymbolTable
 70
     0
  0
ENDTAB
  0
TABLE
  2
UCS
  5
23
330
0
100
AcDbSymbolTable
 70
     0
  0
ENDTAB
  0
TABLE
  2
APPID
  5
26
330
0
100
AcDbSymbolTable
 70
     1
  0
APPID
  5
1D
330
26
100
AcDbSymbolTableRecord
100
AcDbRegAppTableRecord
  2
ACAD
 70
     0
  0
ENDTAB
  0
TABLE
  2
DIMSTYLE
  5
27
330
0
100
AcDbSymbolTable
 70
     2
100
AcDbDimStyleTable
 71
     2
340
28
340
29
  0
DIMSTYLE
105
28
330
27
100
AcDbSymbolTableRecord
100
AcDbDimStyleTableRecord
  2
STANDARD
 70
     0
 41
0.125
 44
0.09375
143
1.0
170
     1
171
     4
179
     8
273
     5
274
     4
340
1C
  0
DIMSTYLE
105
29
330
27
100
AcDbSymbolTableRecord
100
AcDbDimStyleTableRecord
  2
ARCHITXT_WS
 70
     0
 40
24.0
 41
0.1875
 43
0.375
 44
0.1875
140
0.125
141
0.0625
147
0.0625
174
     1
271
     5
272
     5
276
     2
277
     4
340
2A
  0
ENDTAB
  0
TABLE
  2
BLOCK_RECORD
  5
1
330
0
100
AcDbSymbolTable
 70
     4
  0
BLOCK_RECORD
  5
2
102
{ACAD_XDICTIONARY
360
3
102
}
330
1
100
AcDbSymbolTableRecord
100
AcDbBlockTableRecord
  2
*MODEL_SPACE
340
C
  0
BLOCK_RECORD
  5
E
102
{ACAD_XDICTIONARY
360
F
102
}
330
1
100
AcDbSymbolTableRecord
100
AcDbBlockTableRecord
  2
*PAPER_SPACE
340
13
  0
BLOCK_RECORD
  5
321
330
1
100
AcDbSymbolTableRecord
100
AcDbBlockTableRecord
  2
epdm
340
0
310
2800000020000000200000000100080000000000000400000000000000000000000000000000000000000000000080000080000000808000800000008000800080800000C0C0C000C0DCC000F0CAA6000020400000206000002080000020A0000020C0000020E00000400000004020000040400000406000004080000040A0
310
000040C0000040E00000600000006020000060400000606000006080000060A0000060C0000060E00000800000008020000080400000806000008080000080A0000080C0000080E00000A0000000A0200000A0400000A0600000A0800000A0A00000A0C00000A0E00000C0000000C0200000C0400000C0600000C0800000C0
310
A00000C0C00000C0E00000E0000000E0200000E0400000E0600000E0800000E0A00000E0C00000E0E00040000000400020004000400040006000400080004000A0004000C0004000E00040200000402020004020400040206000402080004020A0004020C0004020E000404000004040200040404000404060004040800040
310
40A0004040C0004040E00040600000406020004060400040606000406080004060A0004060C0004060E00040800000408020004080400040806000408080004080A0004080C0004080E00040A0000040A0200040A0400040A0600040A0800040A0A00040A0C00040A0E00040C0000040C0200040C0400040C0600040C08000
310
40C0A00040C0C00040C0E00040E0000040E0200040E0400040E0600040E0800040E0A00040E0C00040E0E00080000000800020008000400080006000800080008000A0008000C0008000E00080200000802020008020400080206000802080008020A0008020C0008020E00080400000804020008040400080406000804080
310
008040A0008040C0008040E00080600000806020008060400080606000806080008060A0008060C0008060E00080800000808020008080400080806000808080008080A0008080C0008080E00080A0000080A0200080A0400080A0600080A0800080A0A00080A0C00080A0E00080C0000080C0200080C0400080C0600080C0
310
800080C0A00080C0C00080C0E00080E0000080E0200080E0400080E0600080E0800080E0A00080E0C00080E0E000C0000000C0002000C0004000C0006000C0008000C000A000C000C000C000E000C0200000C0202000C0204000C0206000C0208000C020A000C020C000C020E000C0400000C0402000C0404000C0406000C0
310
408000C040A000C040C000C040E000C0600000C0602000C0604000C0606000C0608000C060A000C060C000C060E000C0800000C0802000C0804000C0806000C0808000C080A000C080C000C080E000C0A00000C0A02000C0A04000C0A06000C0A08000C0A0A000C0A0C000C0A0E000C0C00000C0C02000C0C04000C0C06000
310
C0C08000C0C0A000F0FBFF00A4A0A000808080000000FF0000FF000000FFFF00FF000000FF00FF00FFFF0000FFFFFF0000000000000000000000000000000000000000000000000000000000000000000000000000000000000000000000000000000000000000000000000000000000000000000000000000000000000000
310
00000000000000000000000000000000000000000000000000000000000000000000000000000000000000000000000000000000000000000000000000000000000000000000000000000000000000000000000000000000000000000000000000000000000000000000000000000000000000000000000000000000000000
310
00000000000000000000000000000000000000000000000000000000000000000000000000000000000000000000000000000000000000000000000000000000000000000000000000000000000000000000000000000000000000000000FFFCFCFCFCFCFFFF0000000000000000000000000000000000000000000000FFFF
310
FFFFFFFFFF00FFFF00000000000000000000000000000000000000000000FFFFFCFCFFFFFFFFFFFF00000000000000000000000000000000000000000000FCFC00FC00FFFF00FCFF000000000000000000000000000000000000000000000000FC00FFFF00FF00000000000000000000000000000000000000000000000000
310
00FCFFFF00FFFF00000000000000000000000000000000000000000000000000FCFFFF00FFFFFFFC00000000000000000000000000FFFFFFFFFFFFFFFCFCFCFCFCFF00FFFFFF00FCFCFCFCFCFCFCFCFCFCFCFC0000FFFFFFFFFFFFFFFFFFFFFFFF00FFFFFF00FFFFFFFFFFFFFFFFFFFFFFFFFF0000FFFFFFFFFFFFFFFFFFFF
310
FF00FFFFFF00FFFFFFFFFFFFFFFFFFFFFFFFFFFF0000FFFFFFFFFFFFFFFFFFFF00FFFFFFFFFFFFFFFFFFFFFFFFFFFFFFFFFFFFFF0000FFFF00FFFFFFFF00FF00FFFFFFFF00FF00FFFFFFFF00FF00FFFFFFFFFFFF0000FC00FFFCFFFC00FC00FFFCFFFC00FCFCFFFCFFFC00FFFCFFFCFFFCFFFFFC000000FCFCFFFC00FC00FC
310
FCFFFC00FC00FFFCFFFC00FCFCFFFCFFFC00FCFC0000000000000000000000000000000000000000000000000000000000000000000000000000000000000000000000000000000000000000000000000000000000000000000000000000000000000000000000000000000000000000000000000000000000000000000000
310
00000000000000000000000000000000000000000000000000000000000000000000000000000000000000000000000000000000000000000000000000000000000000000000000000000000000000000000000000000000000000000000000000000000000000000000000000000000000000000000000000000000000000
310
0000000000000000000000000000000000000000000000000000000000000000000000000000000000000000000000000000000000000000
102
{BLKREFS
331
320
331
394
102
}
  0
BLOCK_RECORD
  5
9E
330
1
100
AcDbSymbolTableRecord
100
AcDbBlockTableRecord
  2
purlin screw race
340
0
310
2800000020000000200000000100080000000000000400000000000000000000000000000000000000000000000080000080000000808000800000008000800080800000C0C0C000C0DCC000F0CAA6000020400000206000002080000020A0000020C0000020E00000400000004020000040400000406000004080000040A0
310
000040C0000040E00000600000006020000060400000606000006080000060A0000060C0000060E00000800000008020000080400000806000008080000080A0000080C0000080E00000A0000000A0200000A0400000A0600000A0800000A0A00000A0C00000A0E00000C0000000C0200000C0400000C0600000C0800000C0
310
A00000C0C00000C0E00000E0000000E0200000E0400000E0600000E0800000E0A00000E0C00000E0E00040000000400020004000400040006000400080004000A0004000C0004000E00040200000402020004020400040206000402080004020A0004020C0004020E000404000004040200040404000404060004040800040
310
40A0004040C0004040E00040600000406020004060400040606000406080004060A0004060C0004060E00040800000408020004080400040806000408080004080A0004080C0004080E00040A0000040A0200040A0400040A0600040A0800040A0A00040A0C00040A0E00040C0000040C0200040C0400040C0600040C08000
310
40C0A00040C0C00040C0E00040E0000040E0200040E0400040E0600040E0800040E0A00040E0C00040E0E00080000000800020008000400080006000800080008000A0008000C0008000E00080200000802020008020400080206000802080008020A0008020C0008020E00080400000804020008040400080406000804080
310
008040A0008040C0008040E00080600000806020008060400080606000806080008060A0008060C0008060E00080800000808020008080400080806000808080008080A0008080C0008080E00080A0000080A0200080A0400080A0600080A0800080A0A00080A0C00080A0E00080C0000080C0200080C0400080C0600080C0
310
800080C0A00080C0C00080C0E00080E0000080E0200080E0400080E0600080E0800080E0A00080E0C00080E0E000C0000000C0002000C0004000C0006000C0008000C000A000C000C000C000E000C0200000C0202000C0204000C0206000C0208000C020A000C020C000C020E000C0400000C0402000C0404000C0406000C0
310
408000C040A000C040C000C040E000C0600000C0602000C0604000C0606000C0608000C060A000C060C000C060E000C0800000C0802000C0804000C0806000C0808000C080A000C080C000C080E000C0A00000C0A02000C0A04000C0A06000C0A08000C0A0A000C0A0C000C0A0E000C0C00000C0C02000C0C04000C0C06000
310
C0C08000C0C0A000F0FBFF00A4A0A000808080000000FF0000FF000000FFFF00FF000000FF00FF00FFFF0000FFFFFF000000000000000000000000000000000000000000000000000000000000000000000000000000000000000000000000000000000000000000000000000000000000FFFF000000000000000000000000
310
0000000000000000000000000000FFFF0000FFFF0000000000000000000000000000000000000000000000000000FFFF0000FF00FF000000000000000000000000000000000000000000000000FF00FF0000FF00FF000000000000000000000000000000000000000000000000FF00FF0000FFFF0000000000000000000000
310
000000000000000000000000000000FFFF0000FF00FF000000000000000000000000000000000000000000000000FF00FF0000FFFFFF000000000000000000000000000000000000000000000000FFFFFF0000FF00FF000000000000000000000000000000000000000000000000FF00FF0000FF00FF000000000000000000
310
000000000000000000000000000000FF00FF0000FF00FF000000000000000000000000000000000000000000000000FF00FF0000FF00FF000000000000000000000000000000000000000000000000FF00FF0000FF00FF000000000000000000000000000000000000000000000000FF00FF0000FF00FF0000000000000000
310
FFFFFFFFFFFFFFFF0000000000000000FF00FF0000FF00FF0000000000000000FF00FFFFFFFF00FF0000000000000000FF00FF0000FF00FF0000000000000000FF00FF0000FF00FF0000000000000000FF00FF0000FF00FF0000000000000000FF00FF0000FF00FF0000000000000000FF00FF0000FF00FF00000000000000
310
00FF00FF0000FF00FF0000000000000000FF00FF0000FF00FF0000000000000000FF00FF0000FF00FF0000000000000000FF00FF0000FF00FF0000000000000000FF00FF0000FF00FF0000000000000000FF00FF0000FF00FF0000000000000000FF00FF0000FF00FF0000000000000000FF00FF0000FF00FF000000000000
310
0000FF00FF0000FF00FF0000000000000000FF00FF0000FF00FF0000000000000000FF00FF0000FF00FF0000000000000000FF00FF0000FF00FF0000000000000000FF00FF0000FF00FF0000000000000000FF00FF0000FF00FFFFFFFFFFFFFFFFFFFF00FF0000FF00FFFFFFFFFFFFFFFFFFFF00FF0000FF00000000000000
310
0000000000FF0000FF000000000000000000000000FF0000FF0000FFFFFF00FFFFFFFFFFFFFF0000FFFFFFFFFFFFFF00FFFFFF0000FF0000FF0000FF00FF00FF0000000000000000000000000000FF00FF00FF0000FF0000FFFFFFFF00FFFFFF0000000000000000000000000000FFFFFF00FFFFFFFF000000000000000000
310
0000000000000000000000000000000000000000000000000000000000000000000000000000000000000000000000000000000000000000
102
{BLKREFS
331
9D
102
}
  0
BLOCK_RECORD
  5
297
330
1
100
AcDbSymbolTableRecord
100
AcDbBlockTableRecord
  2
snap bottom
340
0
310
2800000020000000200000000100080000000000000400000000000000000000000000000000000000000000000080000080000000808000800000008000800080800000C0C0C000C0DCC000F0CAA6000020400000206000002080000020A0000020C0000020E00000400000004020000040400000406000004080000040A0
310
000040C0000040E00000600000006020000060400000606000006080000060A0000060C0000060E00000800000008020000080400000806000008080000080A0000080C0000080E00000A0000000A0200000A0400000A0600000A0800000A0A00000A0C00000A0E00000C0000000C0200000C0400000C0600000C0800000C0
310
A00000C0C00000C0E00000E0000000E0200000E0400000E0600000E0800000E0A00000E0C00000E0E00040000000400020004000400040006000400080004000A0004000C0004000E00040200000402020004020400040206000402080004020A0004020C0004020E000404000004040200040404000404060004040800040
310
40A0004040C0004040E00040600000406020004060400040606000406080004060A0004060C0004060E00040800000408020004080400040806000408080004080A0004080C0004080E00040A0000040A0200040A0400040A0600040A0800040A0A00040A0C00040A0E00040C0000040C0200040C0400040C0600040C08000
310
40C0A00040C0C00040C0E00040E0000040E0200040E0400040E0600040E0800040E0A00040E0C00040E0E00080000000800020008000400080006000800080008000A0008000C0008000E00080200000802020008020400080206000802080008020A0008020C0008020E00080400000804020008040400080406000804080
310
008040A0008040C0008040E00080600000806020008060400080606000806080008060A0008060C0008060E00080800000808020008080400080806000808080008080A0008080C0008080E00080A0000080A0200080A0400080A0600080A0800080A0A00080A0C00080A0E00080C0000080C0200080C0400080C0600080C0
310
800080C0A00080C0C00080C0E00080E0000080E0200080E0400080E0600080E0800080E0A00080E0C00080E0E000C0000000C0002000C0004000C0006000C0008000C000A000C000C000C000E000C0200000C0202000C0204000C0206000C0208000C020A000C020C000C020E000C0400000C0402000C0404000C0406000C0
310
408000C040A000C040C000C040E000C0600000C0602000C0604000C0606000C0608000C060A000C060C000C060E000C0800000C0802000C0804000C0806000C0808000C080A000C080C000C080E000C0A00000C0A02000C0A04000C0A06000C0A08000C0A0A000C0A0C000C0A0E000C0C00000C0C02000C0C04000C0C06000
310
C0C08000C0C0A000F0FBFF00A4A0A000808080000000FF0000FF000000FFFF00FF000000FF00FF00FFFF0000FFFFFF0000000000000000000000000000000000000000000000000000000000000000000000000000000000000000000000000000000000000000000000000000000000000000000000000000000000000000
310
00000000000000000000000000000000000000000000000000000000000000000000000000000000000000000000000000000000000000000000000000000000000000000000000000000000000000000000000000000000000000000000000000000000000000000000000000000000000000000000000000000000000000
310
00000000000000000000000000000000000000000000000000000000000000000000000000000000000000000000000000000000000000000000000000000000000000000000000000000000000000000000000000000000000000000000000000000000000000000000000000000000000000000000000000000000000000
310
0000000000000000000000000000000000000000FFFFFFFFFFFFFFFFFFFFFFFFFFFFFFFFFFFFFFFFFFFFFFFFFFFFFFFFFFFF0000FF00000000000000000000000000000000000000000000000000000000FF0000FFFFFFFFFFFFFFFFFFFFFFFFFFFFFFFFFFFFFFFFFFFFFFFFFFFFFFFFFFFF0000FFFF000000FF0000000000
310
00000000000000000000000000FF000000FFFF0000FFFF0000FFFF000000000000000000000000000000000000FFFF0000FFFF000000FF000000FF000000000000000000000000000000000000FF000000FF0000000000000000FF000000000000000000000000000000000000FF000000000000000000000000FF00000000
310
0000000000000000000000000000FF000000000000000000000000FF000000000000000000000000000000000000FF000000000000000000000000FF000000000000000000000000000000000000FF000000000000000000000000000000000000000000000000000000000000000000000000000000000000000000000000
310
00000000000000000000000000000000000000000000000000000000000000000000000000000000000000000000000000000000000000000000000000000000000000000000000000000000000000000000000000000000000000000000000000000000000000000000000000000000000000000000000000000000000000
310
00000000000000000000000000000000000000000000000000000000000000000000000000000000000000000000000000000000000000000000000000000000000000000000000000000000000000000000000000000000000000000000000000000000000000000000000000000000000000000000000000000000000000
310
0000000000000000000000000000000000000000000000000000000000000000000000000000000000000000000000000000000000000000
102
{BLKREFS
331
296
102
}
  0
BLOCK_RECORD
  5
165
330
1
100
AcDbSymbolTableRecord
100
AcDbBlockTableRecord
  2
PURLIN CLIP
340
0
310
2800000020000000200000000100080000000000000400000000000000000000000000000000000000000000000080000080000000808000800000008000800080800000C0C0C000C0DCC000F0CAA6000020400000206000002080000020A0000020C0000020E00000400000004020000040400000406000004080000040A0
310
000040C0000040E00000600000006020000060400000606000006080000060A0000060C0000060E00000800000008020000080400000806000008080000080A0000080C0000080E00000A0000000A0200000A0400000A0600000A0800000A0A00000A0C00000A0E00000C0000000C0200000C0400000C0600000C0800000C0
310
A00000C0C00000C0E00000E0000000E0200000E0400000E0600000E0800000E0A00000E0C00000E0E00040000000400020004000400040006000400080004000A0004000C0004000E00040200000402020004020400040206000402080004020A0004020C0004020E000404000004040200040404000404060004040800040
310
40A0004040C0004040E00040600000406020004060400040606000406080004060A0004060C0004060E00040800000408020004080400040806000408080004080A0004080C0004080E00040A0000040A0200040A0400040A0600040A0800040A0A00040A0C00040A0E00040C0000040C0200040C0400040C0600040C08000
310
40C0A00040C0C00040C0E00040E0000040E0200040E0400040E0600040E0800040E0A00040E0C00040E0E00080000000800020008000400080006000800080008000A0008000C0008000E00080200000802020008020400080206000802080008020A0008020C0008020E00080400000804020008040400080406000804080
310
008040A0008040C0008040E00080600000806020008060400080606000806080008060A0008060C0008060E00080800000808020008080400080806000808080008080A0008080C0008080E00080A0000080A0200080A0400080A0600080A0800080A0A00080A0C00080A0E00080C0000080C0200080C0400080C0600080C0
310
800080C0A00080C0C00080C0E00080E0000080E0200080E0400080E0600080E0800080E0A00080E0C00080E0E000C0000000C0002000C0004000C0006000C0008000C000A000C000C000C000E000C0200000C0202000C0204000C0206000C0208000C020A000C020C000C020E000C0400000C0402000C0404000C0406000C0
310
408000C040A000C040C000C040E000C0600000C0602000C0604000C0606000C0608000C060A000C060C000C060E000C0800000C0802000C0804000C0806000C0808000C080A000C080C000C080E000C0A00000C0A02000C0A04000C0A06000C0A08000C0A0A000C0A0C000C0A0E000C0C00000C0C02000C0C04000C0C06000
310
C0C08000C0C0A000F0FBFF00A4A0A000808080000000FF0000FF000000FFFF00FF000000FF00FF00FFFF0000FFFFFF0000000000000000000000000000000000000000000000000000000000000000000000000000000000000000000000000000000000000000000000000000000000000000000000000000000000000000
310
00000000000000000000000000000000000000000000000000000000000000000000000000000000000000000000000000000000000000000000000000000000000000000000000000000000000000000000000000000000000000000000000000000000000000000000000000000000000000000000000000000000000000
310
0000000000000000000000000000000000000000000000000000000000000000000000000000000000000000000000000000000000000000000000000000000000000000000000000000000000000000000000000000000000000000000000000000000000000000000000000000000000000000000000FFFFFFFFFFFFFFFF
310
FFFFFFFFFFFFFFFFFFFFFFFFFFFF00000000000000000000FFFF000000000000000000000000000000000000FFFF00000000000000000000FFFF000000000000000000000000000000000000FFFF00000000000000000000FFFF000000000000000000000000000000000000FFFF0000000000000000FF00FFFF0000FCFFFF
310
0000000000000000FCFCFC0000FFFF00FF00000000FFFFFFFFFFFFFFFFFFFEFFFC000000000000FCFFFFFFFCFFFFFFFFFFFFFF0000FF00FF00FFFFFFFFFEFEFEFF000000000000FFFFFFFFFFFFFFFF00FF00FF0000FF00FFFFFFFFFFFFFFFEFFFC000000000000FCFFFFFFFCFFFFFFFFFF00FF000000FFFF00FFFF0000FCFC
310
FC0000000000000000FCFCFC0000FFFF00FFFF00000000000000FFFF000000000000000000000000000000000000FFFF00000000000000000000FFFF000000000000000000000000000000000000FFFF00000000000000000000FFFFFFFFFFFFFFFFFFFFFFFFFFFFFFFFFFFFFFFFFFFF000000000000000000000000000000
310
00000000000000000000000000000000000000000000000000000000000000000000000000000000000000000000000000000000000000000000000000000000000000000000000000000000000000000000000000000000000000000000000000000000000000000000000000000000000000000000000000000000000000
310
00000000000000000000000000000000000000000000000000000000000000000000000000000000000000000000000000000000000000000000000000000000000000000000000000000000000000000000000000000000000000000000000000000000000000000000000000000000000000000000000000000000000000
310
0000000000000000000000000000000000000000000000000000000000000000000000000000000000000000000000000000000000000000
102
{BLKREFS
331
164
102
}
  0
ENDTAB
  0
ENDSEC
  0
SECTION
  2
BLOCKS
  0
BLOCK
  5
5
330
2
100
AcDbEntity
  8
0
100
AcDbBlockBegin
  2
*MODEL_SPACE
 70
     0
 10
0.0
 20
0.0
 30
0.0
  3
*MODEL_SPACE
  1

  0
ENDBLK
  5
B
330
2
100
AcDbEntity
  8
0
100
AcDbBlockEnd
  0
BLOCK
  5
11
330
E
100
AcDbEntity
 67
     1
  8
0
100
AcDbBlockBegin
  2
*PAPER_SPACE
 70
     0
 10
0.0
 20
0.0
 30
0.0
  3
*PAPER_SPACE
  1

  0
ENDBLK
  5
12
330
E
100
AcDbEntity
 67
     1
  8
0
100
AcDbBlockEnd
  0
BLOCK
  5
322
330
321
100
AcDbEntity
  8
0
100
AcDbBlockBegin
  2
epdm
 70
     0
 10
0.0
 20
0.0
 30
0.0
  3
epdm
  1

  0
LINE
  5
323
330
321
100
AcDbEntity
  8
5
100
AcDbLine
 10
-3.7342876288553
 20
5.081818992145358
 30
0.0
 11
-3.79070225244123
 21
5.062661067774548
 31
0.0
  0
LINE
  5
325
330
321
100
AcDbEntity
  8
5
100
AcDbLine
 10
-3.904010361953952
 20
5.081818992145358
 30
0.0
 11
-3.847595738368022
 21
5.06266106777455
 31
0.0
  0
LINE
  5
326
330
321
100
AcDbEntity
  8
0
 62
     0
100
AcDbLine
 10
-3.831085386472681
 20
5.062661067774548
 30
0.0
 11
-3.879509494485192
 21
5.111085175787058
 31
0.0
  0
LINE
  5
327
330
321
100
AcDbEntity
  8
0
 62
     0
100
AcDbLine
 10
-3.84936330732429
 20
5.063261319096492
 30
0.0
 11
-3.904010361953945
 21
5.11790837372615
 31
0.0
  0
LINE
  5
328
330
321
100
AcDbEntity
  8
0
 62
     0
100
AcDbLine
 10
-3.781259168532224
 20
5.065867858423082
 30
0.0
 11
-3.859784160816312
 21
5.14439285070717
 31
0.0
  0
LINE
  5
329
330
321
100
AcDbEntity
  8
0
 62
     0
100
AcDbLine
 10
-3.795730047413352
 20
5.062661067774548
 30
0.0
 11
-3.84983420580229
 21
5.116765226163481
 31
0.0
  0
LINE
  5
32A
330
321
100
AcDbEntity
  8
0
 62
     0
100
AcDbLine
 10
-3.81340771694302
 20
5.062661067774548
 30
0.0
 11
-3.851618669269948
 21
5.100872020101476
 31
0.0
  0
LINE
  5
32B
330
321
100
AcDbEntity
  8
5
100
AcDbLine
 10
-3.79070225244123
 20
5.062661067774548
 30
0.0
 11
-3.847595738368022
 21
5.06266106777455
 31
0.0
  0
LINE
  5
32C
330
321
100
AcDbEntity
  8
5
100
AcDbLine
 10
-3.79532826093464
 20
5.097704922538818
 30
0.0
 11
-3.7342876288553
 21
5.120056985403987
 31
0.0
  0
LINE
  5
32D
330
321
100
AcDbEntity
  8
5
100
AcDbLine
 10
-3.764063546942781
 20
5.188416018424497
 30
0.0
 11
-3.79532826093464
 21
5.097704922538818
 31
0.0
  0
LINE
  5
32E
330
321
100
AcDbEntity
  8
0
 62
     0
100
AcDbLine
 10
-3.768062854535196
 20
5.070349213955719
 30
0.0
 11
-3.869734115830341
 21
5.172020475250858
 31
0.0
  0
LINE
  5
32F
330
321
100
AcDbEntity
  8
5
100
AcDbLine
 10
-3.778175527431054
 20
5.288786934748507
 30
0.0
 11
-3.799020256880035
 21
5.308469012926966
 31
0.0
  0
LINE
  5
330
330
321
100
AcDbEntity
  8
0
 62
     0
100
AcDbLine
 10
-3.691675294177679
 20
5.188416018424497
 30
0.0
 11
-3.805556559643813
 21
5.302297283890631
 31
0.0
  0
LINE
  5
331
330
321
100
AcDbEntity
  8
0
 62
     0
100
AcDbLine
 10
-3.768164674788282
 20
5.176517051386785
 30
0.0
 11
-3.891522287447552
 21
5.299874664046056
 31
0.0
  0
LINE
  5
332
330
321
100
AcDbEntity
  8
0
 62
     0
100
AcDbLine
 10
-3.76238597229633
 20
5.188416018424497
 30
0.0
 11
-3.882429880218696
 21
5.308459926346861
 31
0.0
  0
LINE
  5
333
330
321
100
AcDbEntity
  8
0
 62
     0
100
AcDbLine
 10
-3.744708302766669
 20
5.188416018424497
 30
0.0
 11
-3.853085627160114
 21
5.296793342817942
 31
0.0
  0
LINE
  5
334
330
321
100
AcDbEntity
  8
0
 62
     0
100
AcDbLine
 10
-3.727030633237001
 20
5.188416018424497
 30
0.0
 11
-3.843993219931251
 21
5.305378605118747
 31
0.0
  0
LINE
  5
335
330
321
100
AcDbEntity
  8
0
 62
     0
100
AcDbLine
 10
-3.70935296370734
 20
5.188416018424497
 30
0.0
 11
-3.814648966872669
 21
5.293712021589826
 31
0.0
  0
LINE
  5
336
330
321
100
AcDbEntity
  8
0
 62
     0
100
AcDbLine
 10
-3.77722691889131
 20
5.150223956430487
 30
0.0
 11
-3.929958947734997
 21
5.30295598527417
 31
0.0
  0
LINE
  5
337
330
321
100
AcDbEntity
  8
0
 62
     0
100
AcDbLine
 10
-3.7726957968398
 20
5.163370503908636
 30
0.0
 11
-3.900614694676415
 21
5.291289401745251
 31
0.0
  0
LINE
  5
338
330
321
100
AcDbEntity
  8
0
 62
     0
100
AcDbLine
 10
-3.781758040942827
 20
5.13707740895234
 30
0.0
 11
-3.939051354963853
 21
5.294370722973365
 31
0.0
  0
LINE
  5
339
330
321
100
AcDbEntity
  8
5
100
AcDbLine
 10
-4.069949034206496
 20
5.188416018424497
 30
0.0
 11
-4.069949034206496
 21
5.288896419438431
 31
0.0
  0
LINE
  5
33A
330
321
100
AcDbEntity
  8
0
 62
     0
100
AcDbLine
 10
-3.886129659003978
 20
5.188416018424495
 30
0.0
 11
-3.986580422480153
 21
5.288866781900674
 31
0.0
  0
LINE
  5
33B
330
321
100
AcDbEntity
  8
0
 62
     0
100
AcDbLine
 10
-3.903807328533639
 20
5.188416018424495
 30
0.0
 11
-4.015924675538736
 21
5.300533365429593
 31
0.0
  0
LINE
  5
33C
330
321
100
AcDbEntity
  8
0
 62
     0
100
AcDbLine
 10
-3.9214849980633
 20
5.188416018424495
 30
0.0
 11
-4.025017082767599
 21
5.291948103128788
 31
0.0
  0
LINE
  5
33D
330
321
100
AcDbEntity
  8
0
 62
     0
100
AcDbLine
 10
-3.939162667592968
 20
5.188416018424495
 30
0.0
 11
-4.054361335826181
 21
5.303614686657709
 31
0.0
  0
LINE
  5
33E
330
321
100
AcDbEntity
  8
0
 62
     0
100
AcDbLine
 10
-3.956840337122629
 20
5.188416018424495
 30
0.0
 11
-4.063453743055037
 21
5.295029424356904
 31
0.0
  0
LINE
  5
33F
330
321
100
AcDbEntity
  8
0
 62
     0
100
AcDbLine
 10
-3.786289162994345
 20
5.123930861474189
 30
0.0
 11
-3.968395608022435
 21
5.306037306502284
 31
0.0
  0
LINE
  5
340
330
321
100
AcDbEntity
  8
0
 62
     0
100
AcDbLine
 10
-3.790820285045855
 20
5.110784313996042
 30
0.0
 11
-3.977488015251298
 21
5.297452044201479
 31
0.0
  0
LINE
  5
341
330
321
100
AcDbEntity
  8
5
100
AcDbLine
 10
-4.069949034206496
 20
5.188416018424497
 30
0.0
 11
-3.875638891202912
 21
5.188416018424497
 31
0.0
  0
LINE
  5
342
330
321
100
AcDbEntity
  8
0
 62
     0
100
AcDbLine
 10
-4.045228684770949
 20
5.188416018424497
 30
0.0
 11
-4.069949034206496
 21
5.213136367860041
 31
0.0
  0
LINE
  5
343
330
321
100
AcDbEntity
  8
0
 62
     0
100
AcDbLine
 10
-4.062906354300617
 20
5.188416018424497
 30
0.0
 11
-4.069949034206496
 21
5.195458698330378
 31
0.0
  0
LINE
  5
344
330
321
100
AcDbEntity
  8
0
 62
     0
100
AcDbLine
 10
-3.992195676181959
 20
5.188416018424495
 30
0.0
 11
-4.069949034206496
 21
5.266169376449033
 31
0.0
  0
LINE
  5
345
330
321
100
AcDbEntity
  8
0
 62
     0
100
AcDbLine
 10
-4.00987334571162
 20
5.188416018424495
 30
0.0
 11
-4.069949034206496
 21
5.24849170691937
 31
0.0
  0
LINE
  5
346
330
321
100
AcDbEntity
  8
0
 62
     0
100
AcDbLine
 10
-4.027551015241288
 20
5.188416018424495
 30
0.0
 11
-4.069949034206496
 21
5.230814037389706
 31
0.0
  0
LINE
  5
347
330
321
100
AcDbEntity
  8
0
 62
     0
100
AcDbLine
 10
-3.974518006652298
 20
5.188416018424495
 30
0.0
 11
-4.069949034206496
 21
5.283847045978697
 31
0.0
  0
LINE
  5
348
330
321
100
AcDbEntity
  8
5
100
AcDbLine
 10
-3.904010361953945
 20
5.120056985403987
 30
0.0
 11
-3.904010361953952
 21
5.081818992145358
 31
0.0
  0
LINE
  5
349
330
321
100
AcDbEntity
  8
0
 62
     0
100
AcDbLine
 10
-3.876131085828612
 20
5.072351428071149
 30
0.0
 11
-3.904010361953945
 21
5.100230704196487
 31
0.0
  0
LINE
  5
34A
330
321
100
AcDbEntity
  8
0
 62
     0
100
AcDbLine
 10
-3.902898864332934
 20
5.081441537045806
 30
0.0
 11
-3.904010361953952
 21
5.082553034666823
 31
0.0
  0
LINE
  5
34B
330
321
100
AcDbEntity
  8
5
100
AcDbLine
 10
-3.842969729874612
 20
5.097704922538818
 30
0.0
 11
-3.904010361953945
 21
5.120056985403987
 31
0.0
  0
LINE
  5
34C
330
321
100
AcDbEntity
  8
5
100
AcDbLine
 10
-3.875638891202912
 20
5.188416018424497
 30
0.0
 11
-3.842969729874612
 21
5.097704922538818
 31
0.0
  0
LINE
  5
34D
330
321
100
AcDbEntity
  8
5
100
AcDbLine
 10
-3.944975527431056
 20
5.288786934748507
 30
0.0
 11
-3.96582025688003
 21
5.308469012926966
 31
0.0
  0
LINE
  5
34E
330
321
100
AcDbEntity
  8
5
100
AcDbLine
 10
-4.049220256880028
 20
5.308469012926966
 30
0.0
 11
-4.070064986329009
 21
5.288786934748507
 31
0.0
  0
LINE
  5
34F
330
321
100
AcDbEntity
  8
5
100
AcDbLine
 10
-4.028375527431053
 20
5.288786934748507
 30
0.0
 11
-4.049220256880028
 21
5.308469012926966
 31
0.0
  0
LINE
  5
350
330
321
100
AcDbEntity
  8
5
100
AcDbLine
 10
-4.007520256880036
 20
5.308469012926966
 30
0.0
 11
-4.028364986329004
 21
5.288786934748507
 31
0.0
  0
LINE
  5
351
330
321
100
AcDbEntity
  8
5
100
AcDbLine
 10
-3.986675527431055
 20
5.288786934748507
 30
0.0
 11
-4.007520256880036
 21
5.308469012926966
 31
0.0
  0
LINE
  5
352
330
321
100
AcDbEntity
  8
5
100
AcDbLine
 10
-3.96582025688003
 20
5.308469012926966
 30
0.0
 11
-3.986664986329012
 21
5.288786934748507
 31
0.0
  0
LINE
  5
353
330
321
100
AcDbEntity
  8
5
100
AcDbLine
 10
-3.924120256880032
 20
5.308469012926966
 30
0.0
 11
-3.944964986329006
 21
5.288786934748507
 31
0.0
  0
LINE
  5
354
330
321
100
AcDbEntity
  8
5
100
AcDbLine
 10
-3.903275527431057
 20
5.288786934748507
 30
0.0
 11
-3.924120256880032
 21
5.308469012926966
 31
0.0
  0
LINE
  5
355
330
321
100
AcDbEntity
  8
5
100
AcDbLine
 10
-3.882420256880033
 20
5.308469012926966
 30
0.0
 11
-3.903264986329007
 21
5.288786934748507
 31
0.0
  0
LINE
  5
356
330
321
100
AcDbEntity
  8
5
100
AcDbLine
 10
-3.861575527431051
 20
5.288786934748507
 30
0.0
 11
-3.882420256880033
 21
5.308469012926966
 31
0.0
  0
LINE
  5
357
330
321
100
AcDbEntity
  8
5
100
AcDbLine
 10
-3.840720256880027
 20
5.308469012926966
 30
0.0
 11
-3.861564986329009
 21
5.288786934748507
 31
0.0
  0
LINE
  5
358
330
321
100
AcDbEntity
  8
5
100
AcDbLine
 10
-3.81987552743106
 20
5.288786934748507
 30
0.0
 11
-3.840720256880027
 21
5.308469012926966
 31
0.0
  0
LINE
  5
359
330
321
100
AcDbEntity
  8
5
100
AcDbLine
 10
-3.799020256880035
 20
5.308469012926966
 30
0.0
 11
-3.81986498632901
 21
5.288786934748507
 31
0.0
  0
LINE
  5
35A
330
321
100
AcDbEntity
  8
5
100
AcDbLine
 10
-3.569675527431053
 20
5.188416018424497
 30
0.0
 11
-3.569675527431053
 21
5.288786934748507
 31
0.0
  0
LINE
  5
35B
330
321
100
AcDbEntity
  8
0
 62
     0
100
AcDbLine
 10
-3.569675527431053
 20
5.225515277444847
 30
0.0
 11
-3.642717511265184
 21
5.298557261278979
 31
0.0
  0
LINE
  5
35C
330
321
100
AcDbEntity
  8
0
 62
     0
100
AcDbLine
 10
-3.569675527431053
 20
5.243192946974511
 30
0.0
 11
-3.633625104036328
 21
5.307142523579784
 31
0.0
  0
LINE
  5
35D
330
321
100
AcDbEntity
  8
0
 62
     0
100
AcDbLine
 10
-3.569675527431053
 20
5.260870616504174
 30
0.0
 11
-3.604280850977739
 21
5.295475940050863
 31
0.0
  0
LINE
  5
35E
330
321
100
AcDbEntity
  8
0
 62
     0
100
AcDbLine
 10
-3.569675527431053
 20
5.278548286033839
 30
0.0
 11
-3.595188443748883
 21
5.304061202351668
 31
0.0
  0
LINE
  5
35F
330
321
100
AcDbEntity
  8
0
 62
     0
100
AcDbLine
 10
-3.673997624648011
 20
5.188416018424497
 30
0.0
 11
-3.776212306585231
 21
5.290630700361711
 31
0.0
  0
LINE
  5
360
330
321
100
AcDbEntity
  8
0
 62
     0
100
AcDbLine
 10
-3.65631995511835
 20
5.188416018424497
 30
0.0
 11
-3.767119899356368
 21
5.299215962662518
 31
0.0
  0
LINE
  5
361
330
321
100
AcDbEntity
  8
0
 62
     0
100
AcDbLine
 10
-3.638642285588682
 20
5.188416018424497
 30
0.0
 11
-3.758027492127512
 21
5.307801224963323
 31
0.0
  0
LINE
  5
362
330
321
100
AcDbEntity
  8
0
 62
     0
100
AcDbLine
 10
-3.620964616059021
 20
5.188416018424497
 30
0.0
 11
-3.72868323906893
 21
5.296134641434402
 31
0.0
  0
LINE
  5
363
330
321
100
AcDbEntity
  8
0
 62
     0
100
AcDbLine
 10
-3.60328694652936
 20
5.188416018424497
 30
0.0
 11
-3.719590831840067
 21
5.304719903735207
 31
0.0
  0
LINE
  5
364
330
321
100
AcDbEntity
  8
0
 62
     0
100
AcDbLine
 10
-3.585609276999692
 20
5.188416018424497
 30
0.0
 11
-3.690246578781485
 21
5.293053320206288
 31
0.0
  0
LINE
  5
365
330
321
100
AcDbEntity
  8
0
 62
     0
100
AcDbLine
 10
-3.569675527431053
 20
5.190159938385519
 30
0.0
 11
-3.681154171552629
 21
5.301638582507093
 31
0.0
  0
LINE
  5
366
330
321
100
AcDbEntity
  8
0
 62
     0
100
AcDbLine
 10
-3.569675527431053
 20
5.207837607915184
 30
0.0
 11
-3.651809918494047
 21
5.289971998978174
 31
0.0
  0
LINE
  5
367
330
321
100
AcDbEntity
  8
5
100
AcDbLine
 10
-3.569675527431053
 20
5.188416018424497
 30
0.0
 11
-3.764063546942781
 21
5.188416018424497
 31
0.0
  0
LINE
  5
368
330
321
100
AcDbEntity
  8
5
100
AcDbLine
 10
-3.7342876288553
 20
5.120056985403987
 30
0.0
 11
-3.7342876288553
 21
5.081818992145358
 31
0.0
  0
LINE
  5
369
330
321
100
AcDbEntity
  8
0
 62
     0
100
AcDbLine
 10
-3.7342876288553
 20
5.107284666394475
 30
0.0
 11
-3.74363653436769
 21
5.116633571906861
 31
0.0
  0
LINE
  5
36A
330
321
100
AcDbEntity
  8
0
 62
     0
100
AcDbLine
 10
-3.7342876288553
 20
5.089606996864812
 30
0.0
 11
-3.756575990545451
 21
5.111895358554965
 31
0.0
  0
LINE
  5
36B
330
321
100
AcDbEntity
  8
0
 62
     0
100
AcDbLine
 10
-3.741670226541147
 20
5.079311925020995
 30
0.0
 11
-3.76951544672322
 21
5.107157145203068
 31
0.0
  0
LINE
  5
36C
330
321
100
AcDbEntity
  8
0
 62
     0
100
AcDbLine
 10
-3.754866540538175
 20
5.074830569488357
 30
0.0
 11
-3.782454902900989
 21
5.102418931851172
 31
0.0
  0
LINE
  5
36D
330
321
100
AcDbEntity
  8
5
100
AcDbLine
 10
-3.611375527431059
 20
5.288786934748507
 30
0.0
 11
-3.632220256880033
 21
5.308469012926966
 31
0.0
  0
LINE
  5
36E
330
321
100
AcDbEntity
  8
5
100
AcDbLine
 10
-3.75732025688003
 20
5.308469012926966
 30
0.0
 11
-3.778164986329011
 21
5.288786934748507
 31
0.0
  0
LINE
  5
36F
330
321
100
AcDbEntity
  8
5
100
AcDbLine
 10
-3.736475527431055
 20
5.288786934748507
 30
0.0
 11
-3.75732025688003
 21
5.308469012926966
 31
0.0
  0
LINE
  5
370
330
321
100
AcDbEntity
  8
5
100
AcDbLine
 10
-3.715620256880031
 20
5.308469012926966
 30
0.0
 11
-3.736464986329005
 21
5.288786934748507
 31
0.0
  0
LINE
  5
371
330
321
100
AcDbEntity
  8
5
100
AcDbLine
 10
-3.694775527431056
 20
5.288786934748507
 30
0.0
 11
-3.715620256880031
 21
5.308469012926966
 31
0.0
  0
LINE
  5
372
330
321
100
AcDbEntity
  8
5
100
AcDbLine
 10
-3.673920256880032
 20
5.308469012926966
 30
0.0
 11
-3.694764986329007
 21
5.288786934748507
 31
0.0
  0
LINE
  5
373
330
321
100
AcDbEntity
  8
5
100
AcDbLine
 10
-3.653075527431051
 20
5.288786934748507
 30
0.0
 11
-3.673920256880032
 21
5.308469012926966
 31
0.0
  0
LINE
  5
374
330
321
100
AcDbEntity
  8
5
100
AcDbLine
 10
-3.632220256880033
 20
5.308469012926966
 30
0.0
 11
-3.653064986329008
 21
5.288786934748507
 31
0.0
  0
LINE
  5
375
330
321
100
AcDbEntity
  8
5
100
AcDbLine
 10
-3.590520256880035
 20
5.308469012926966
 30
0.0
 11
-3.611364986329009
 21
5.288786934748507
 31
0.0
  0
LINE
  5
376
330
321
100
AcDbEntity
  8
5
100
AcDbLine
 10
-3.569675527431053
 20
5.288786934748507
 30
0.0
 11
-3.590520256880035
 21
5.308469012926966
 31
0.0
  0
LINE
  5
377
330
321
100
AcDbEntity
  8
5
100
AcDbLine
 10
-3.590520256880035
 20
5.308469012926966
 30
0.0
 11
-3.611364986329009
 21
5.288786934748507
 31
0.0
  0
LINE
  5
378
330
321
100
AcDbEntity
  8
5
100
AcDbLine
 10
-3.569675527431053
 20
5.288786934748507
 30
0.0
 11
-3.590520256880035
 21
5.308469012926966
 31
0.0
  0
LINE
  5
379
330
321
100
AcDbEntity
  8
5
100
AcDbLine
 10
-3.590520256880035
 20
5.308469012926966
 30
0.0
 11
-3.611364986329009
 21
5.288786934748507
 31
0.0
  0
LINE
  5
37A
330
321
100
AcDbEntity
  8
5
100
AcDbLine
 10
-3.569675527431053
 20
5.288786934748507
 30
0.0
 11
-3.590520256880035
 21
5.308469012926966
 31
0.0
  0
LINE
  5
37B
330
321
100
AcDbEntity
  8
5
100
AcDbLine
 10
-3.590520256880035
 20
5.308469012926966
 30
0.0
 11
-3.611364986329009
 21
5.288786934748507
 31
0.0
  0
LINE
  5
37C
330
321
100
AcDbEntity
  8
5
100
AcDbLine
 10
-3.569675527431053
 20
5.288786934748507
 30
0.0
 11
-3.590520256880035
 21
5.308469012926966
 31
0.0
  0
LINE
  5
37D
330
321
100
AcDbEntity
  8
5
100
AcDbLine
 10
-3.590520256880035
 20
5.308469012926966
 30
0.0
 11
-3.611364986329009
 21
5.288786934748507
 31
0.0
  0
LINE
  5
37E
330
321
100
AcDbEntity
  8
5
100
AcDbLine
 10
-3.569675527431053
 20
5.288786934748507
 30
0.0
 11
-3.590520256880035
 21
5.308469012926966
 31
0.0
  0
LINE
  5
37F
330
321
100
AcDbEntity
  8
5
100
AcDbLine
 10
-3.590520256880035
 20
5.308469012926966
 30
0.0
 11
-3.611364986329009
 21
5.288786934748507
 31
0.0
  0
LINE
  5
380
330
321
100
AcDbEntity
  8
5
100
AcDbLine
 10
-3.569675527431053
 20
5.288786934748507
 30
0.0
 11
-3.590520256880035
 21
5.308469012926966
 31
0.0
  0
LINE
  5
381
330
321
100
AcDbEntity
  8
5
100
AcDbLine
 10
-3.590520256880035
 20
5.308469012926966
 30
0.0
 11
-3.611364986329009
 21
5.288786934748507
 31
0.0
  0
LINE
  5
382
330
321
100
AcDbEntity
  8
5
100
AcDbLine
 10
-3.569675527431053
 20
5.288786934748507
 30
0.0
 11
-3.590520256880035
 21
5.308469012926966
 31
0.0
  0
LINE
  5
383
330
321
100
AcDbEntity
  8
5
100
AcDbLine
 10
-3.590520256880035
 20
5.308469012926966
 30
0.0
 11
-3.611364986329009
 21
5.288786934748507
 31
0.0
  0
LINE
  5
384
330
321
100
AcDbEntity
  8
5
100
AcDbLine
 10
-3.569675527431053
 20
5.288786934748507
 30
0.0
 11
-3.590520256880035
 21
5.308469012926966
 31
0.0
  0
LINE
  5
385
330
321
100
AcDbEntity
  8
5
100
AcDbLine
 10
-3.590520256880035
 20
5.308469012926966
 30
0.0
 11
-3.611364986329009
 21
5.288786934748507
 31
0.0
  0
LINE
  5
386
330
321
100
AcDbEntity
  8
5
100
AcDbLine
 10
-3.569675527431053
 20
5.288786934748507
 30
0.0
 11
-3.590520256880035
 21
5.308469012926966
 31
0.0
  0
LINE
  5
387
330
321
100
AcDbEntity
  8
5
100
AcDbLine
 10
-3.590520256880035
 20
5.308469012926966
 30
0.0
 11
-3.611364986329009
 21
5.288786934748507
 31
0.0
  0
LINE
  5
388
330
321
100
AcDbEntity
  8
5
100
AcDbLine
 10
-3.569675527431053
 20
5.288786934748507
 30
0.0
 11
-3.590520256880035
 21
5.308469012926966
 31
0.0
  0
LINE
  5
389
330
321
100
AcDbEntity
  8
5
100
AcDbLine
 10
-3.590520256880035
 20
5.308469012926966
 30
0.0
 11
-3.611364986329009
 21
5.288786934748507
 31
0.0
  0
LINE
  5
38A
330
321
100
AcDbEntity
  8
5
100
AcDbLine
 10
-3.569675527431053
 20
5.288786934748507
 30
0.0
 11
-3.590520256880035
 21
5.308469012926966
 31
0.0
  0
LINE
  5
38B
330
321
100
AcDbEntity
  8
5
100
AcDbLine
 10
-3.590520256880035
 20
5.308469012926966
 30
0.0
 11
-3.611364986329009
 21
5.288786934748507
 31
0.0
  0
LINE
  5
38C
330
321
100
AcDbEntity
  8
5
100
AcDbLine
 10
-3.569675527431053
 20
5.288786934748507
 30
0.0
 11
-3.590520256880035
 21
5.308469012926966
 31
0.0
  0
ENDBLK
  5
38D
330
321
100
AcDbEntity
  8
0
100
AcDbBlockEnd
  0
BLOCK
  5
9F
330
9E
100
AcDbEntity
  8
0
 62
     0
100
AcDbBlockBegin
  2
purlin screw race
 70
     0
 10
0.0
 20
0.0
 30
0.0
  3
purlin screw race
  1

  0
LINE
  5
A0
330
9E
100
AcDbEntity
  8
0
  6
Continuous
 62
     0
100
AcDbLine
 10
0.8747937173355071
 20
-48.745771069793
 30
0.0
 11
0.8747937173355067
 21
-50.161771069793
 31
0.0
  0
LINE
  5
A1
330
9E
100
AcDbEntity
  8
0
  6
Continuous
 62
     0
100
AcDbLine
 10
-1.125206282664493
 20
-48.74577106979299
 30
0.0
 11
-1.125206282664492
 21
-50.161771069793
 31
0.0
  0
LINE
  5
A2
330
9E
100
AcDbEntity
  8
0
  6
Continuous
 62
     0
100
AcDbLine
 10
0.749793717335507
 20
-48.99577106979299
 30
0.0
 11
0.749793717335507
 21
-50.29677106979298
 31
0.0
  0
LINE
  5
A3
330
9E
100
AcDbEntity
  8
0
  6
Continuous
 62
     0
100
AcDbLine
 10
0.1247937173355069
 20
-48.995771069793
 30
0.0
 11
0.1247937173355069
 21
-49.788771069793
 31
0.0
  0
LINE
  5
A4
330
9E
100
AcDbEntity
  8
0
  6
Continuous
 62
     0
100
AcDbLine
 10
-0.375206282664493
 20
-48.995771069793
 30
0.0
 11
-0.375206282664493
 21
-49.78877106979299
 31
0.0
  0
LINE
  5
A5
330
9E
100
AcDbEntity
  8
0
  6
Continuous
 62
     0
100
AcDbLine
 10
-1.000206282664493
 20
-48.99577106979299
 30
0.0
 11
-1.000206282664493
 21
-50.29677106979298
 31
0.0
  0
LINE
  5
A6
330
9E
100
AcDbEntity
  8
0
  6
Continuous
 62
     0
100
AcDbLine
 10
-0.2232062826644996
 20
-49.53295306362354
 30
0.0
 11
-0.2232062826644996
 21
-49.53895306362355
 31
0.0
  0
LINE
  5
A7
330
9E
100
AcDbEntity
  8
0
  6
Continuous
 62
     0
100
AcDbLine
 10
-0.0002062826645071
 20
-49.52954152089167
 30
0.0
 11
-0.0002062826645072
 21
-49.54236460635545
 31
0.0
  0
LINE
  5
A8
330
9E
100
AcDbEntity
  8
0
  6
Continuous
 62
     0
100
AcDbLine
 10
-1.092442565599664
 20
-50.60324241720653
 30
0.0
 11
-1.001222833078732
 21
-50.42076273556553
 31
0.0
  0
LINE
  5
A9
330
9E
100
AcDbEntity
  8
0
  6
Continuous
 62
     0
100
AcDbLine
 10
-1.10138723173694
 20
-50.60877106979298
 30
0.0
 11
-1.11520628266449
 21
-50.60877106979297
 31
0.0
  0
ARC
  5
AA
330
9E
100
AcDbEntity
  8
0
  6
Continuous
 62
     0
100
AcDbCircle
 10
-1.10138723173694
 20
-50.59877106979299
 30
0.0
 40
0.01
100
AcDbArc
 50
270.0
 51
333.439999999999
  0
LINE
  5
AB
330
9E
100
AcDbEntity
  8
0
  6
Continuous
 62
     0
100
AcDbLine
 10
-1.125206282664492
 20
-50.18177106979298
 30
0.0
 11
-1.125206282664492
 21
-50.59877106979298
 31
0.0
  0
ARC
  5
AC
330
9E
100
AcDbEntity
  8
0
  6
Continuous
 62
     0
100
AcDbCircle
 10
-1.115206282664492
 20
-50.59877106979298
 30
0.0
 40
0.01
100
AcDbArc
 50
180.0
 51
270.0000000000135
  0
ARC
  5
AD
330
9E
100
AcDbEntity
  8
0
  6
Continuous
 62
     0
100
AcDbCircle
 10
-1.000206282664492
 20
-50.35877106979298
 30
0.0
 40
0.062
100
AcDbArc
 50
90.00000000000019
 51
269.0605377690504
  0
LINE
  5
AE
330
9E
100
AcDbEntity
  8
0
  6
Continuous
 62
     0
100
AcDbLine
 10
-1.115206282664493
 20
-50.171771069793
 30
0.0
 11
-1.125206282664493
 21
-50.161771069793
 31
0.0
  0
LINE
  5
AF
330
9E
100
AcDbEntity
  8
0
  6
Continuous
 62
     0
100
AcDbLine
 10
-1.115206282664493
 20
-50.171771069793
 30
0.0
 11
-1.125206282664493
 21
-50.18177106979298
 31
0.0
  0
LINE
  5
B0
330
9E
100
AcDbEntity
  8
0
  6
Continuous
 62
     0
100
AcDbLine
 10
-0.3652062826644932
 20
-49.79877106979299
 30
0.0
 11
0.1147937173355067
 21
-49.798771069793
 31
0.0
  0
ARC
  5
B1
330
9E
100
AcDbEntity
  8
0
  6
Continuous
 62
     0
100
AcDbCircle
 10
0.1147937173355069
 20
-49.788771069793
 30
0.0
 40
0.01
100
AcDbArc
 50
269.9999999999992
 51
0.0
  0
ARC
  5
B2
330
9E
100
AcDbEntity
  8
0
  6
Continuous
 62
     0
100
AcDbCircle
 10
-0.365206282664493
 20
-49.78877106979299
 30
0.0
 40
0.01
100
AcDbArc
 50
180.0
 51
269.9999999999992
  0
LINE
  5
B3
330
9E
100
AcDbEntity
  8
0
  6
Continuous
 62
     0
100
AcDbLine
 10
-0.2391099624937373
 20
-49.67377106979299
 30
0.0
 11
-0.0102009971499533
 21
-49.67377106979299
 31
0.0
  0
LINE
  5
B4
330
9E
100
AcDbEntity
  8
0
  6
Continuous
 62
     0
100
AcDbLine
 10
-0.2391099624937373
 20
-49.67377106979299
 30
0.0
 11
-0.2502062826644986
 21
-49.6673646063554
 31
0.0
  0
LINE
  5
B5
330
9E
100
AcDbEntity
  8
0
  6
Continuous
 62
     0
100
AcDbLine
 10
-0.2502062826644873
 20
-49.65454152089162
 30
0.0
 11
-0.2502062826644871
 21
-49.66736460635541
 31
0.0
  0
LINE
  5
B6
330
9E
100
AcDbEntity
  8
0
  6
Continuous
 62
     0
100
AcDbLine
 10
-0.2232062826644913
 20
-49.58295306362354
 30
0.0
 11
-0.2232062826644913
 21
-49.58895306362354
 31
0.0
  0
LINE
  5
B7
330
9E
100
AcDbEntity
  8
0
  6
Continuous
 62
     0
100
AcDbLine
 10
-0.2232062826645003
 20
-49.63295306362352
 30
0.0
 11
-0.2232062826645003
 21
-49.63895306362353
 31
0.0
  0
LINE
  5
B8
330
9E
100
AcDbEntity
  8
0
  6
Continuous
 62
     0
100
AcDbLine
 10
-0.2232062826644989
 20
-49.63895306362353
 30
0.0
 11
-0.2502062826644993
 21
-49.65454152089164
 31
0.0
  0
LINE
  5
B9
330
9E
100
AcDbEntity
  8
0
  6
Continuous
 62
     0
100
AcDbLine
 10
-0.2232062826644989
 20
-49.63295306362352
 30
0.0
 11
-0.2502062826644993
 21
-49.61736460635541
 31
0.0
  0
LINE
  5
BA
330
9E
100
AcDbEntity
  8
0
  6
Continuous
 62
     0
100
AcDbLine
 10
-0.2232062826644996
 20
-49.53895306362355
 30
0.0
 11
-0.2502062826645
 21
-49.55454152089166
 31
0.0
  0
LINE
  5
BB
330
9E
100
AcDbEntity
  8
0
  6
Continuous
 62
     0
100
AcDbLine
 10
-0.2232062826644996
 20
-49.58295306362353
 30
0.0
 11
-0.2502062826645
 21
-49.56736460635542
 31
0.0
  0
LINE
  5
BC
330
9E
100
AcDbEntity
  8
0
  6
Continuous
 62
     0
100
AcDbLine
 10
-0.2232062826644996
 20
-49.58895306362354
 30
0.0
 11
-0.2502062826645
 21
-49.60454152089165
 31
0.0
  0
LINE
  5
BD
330
9E
100
AcDbEntity
  8
0
  6
Continuous
 62
     0
100
AcDbLine
 10
-0.250206282664488
 20
-49.60454152089163
 30
0.0
 11
-0.2502062826644877
 21
-49.61736460635542
 31
0.0
  0
LINE
  5
BE
330
9E
100
AcDbEntity
  8
0
  6
Continuous
 62
     0
100
AcDbLine
 10
-0.2502062826644886
 20
-49.55454152089164
 30
0.0
 11
-0.2502062826644884
 21
-49.56736460635543
 31
0.0
  0
LINE
  5
BF
330
9E
100
AcDbEntity
  8
0
  6
Continuous
 62
     0
100
AcDbLine
 10
-0.0002062826645078
 20
-49.57954152089165
 30
0.0
 11
-0.000206282664508
 21
-49.59236460635543
 31
0.0
  0
LINE
  5
C0
330
9E
100
AcDbEntity
  8
0
  6
Continuous
 62
     0
100
AcDbLine
 10
-0.0002062826645085
 20
-49.62954152089164
 30
0.0
 11
-0.0002062826645087
 21
-49.64236460635542
 31
0.0
  0
LINE
  5
C1
330
9E
100
AcDbEntity
  8
0
  6
Continuous
 62
     0
100
AcDbLine
 10
-0.0272062826644967
 20
-49.66395306362353
 30
0.0
 11
-0.0102009971499585
 21
-49.67377106979299
 31
0.0
  0
LINE
  5
C2
330
9E
100
AcDbEntity
  8
0
  6
Continuous
 62
     0
100
AcDbLine
 10
-0.0272062826644967
 20
-49.65795306362353
 30
0.0
 11
-0.0002062826644964
 21
-49.64236460635541
 31
0.0
  0
LINE
  5
C3
330
9E
100
AcDbEntity
  8
0
  6
Continuous
 62
     0
100
AcDbLine
 10
-0.0272062826644967
 20
-49.65795306362353
 30
0.0
 11
-0.0272062826644967
 21
-49.66395306362353
 31
0.0
  0
LINE
  5
C4
330
9E
100
AcDbEntity
  8
0
  6
Continuous
 62
     0
100
AcDbLine
 10
-0.0272062826644967
 20
-49.61395306362354
 30
0.0
 11
-0.0002062826644964
 21
-49.62954152089166
 31
0.0
  0
LINE
  5
C5
330
9E
100
AcDbEntity
  8
0
  6
Continuous
 62
     0
100
AcDbLine
 10
-0.0272062826644967
 20
-49.60795306362354
 30
0.0
 11
-0.0002062826644964
 21
-49.59236460635542
 31
0.0
  0
LINE
  5
C6
330
9E
100
AcDbEntity
  8
0
  6
Continuous
 62
     0
100
AcDbLine
 10
-0.0272062826644967
 20
-49.60795306362354
 30
0.0
 11
-0.0272062826644967
 21
-49.61395306362354
 31
0.0
  0
LINE
  5
C7
330
9E
100
AcDbEntity
  8
0
  6
Continuous
 62
     0
100
AcDbLine
 10
-0.0272062826644967
 20
-49.55795306362355
 30
0.0
 11
-0.0272062826644967
 21
-49.56395306362355
 31
0.0
  0
LINE
  5
C8
330
9E
100
AcDbEntity
  8
0
  6
Continuous
 62
     0
100
AcDbLine
 10
-0.0272062826644967
 20
-49.55795306362355
 30
0.0
 11
-0.0002062826644964
 21
-49.54236460635543
 31
0.0
  0
LINE
  5
C9
330
9E
100
AcDbEntity
  8
0
  6
Continuous
 62
     0
100
AcDbLine
 10
-0.0272062826644967
 20
-49.56395306362355
 30
0.0
 11
-0.0002062826644964
 21
-49.57954152089167
 31
0.0
  0
LINE
  5
CA
330
9E
100
AcDbEntity
  8
0
  6
Continuous
 62
     0
100
AcDbLine
 10
0.8647937173355069
 20
-50.171771069793
 30
0.0
 11
0.8747937173355069
 21
-50.18177106979298
 31
0.0
  0
LINE
  5
CB
330
9E
100
AcDbEntity
  8
0
  6
Continuous
 62
     0
100
AcDbLine
 10
0.8647937173355069
 20
-50.171771069793
 30
0.0
 11
0.8747937173355069
 21
-50.161771069793
 31
0.0
  0
ARC
  5
CC
330
9E
100
AcDbEntity
  8
0
  6
Continuous
 62
     0
100
AcDbCircle
 10
0.7497937173355068
 20
-50.35877106979298
 30
0.0
 40
0.062
100
AcDbArc
 50
270.9394622309496
 51
89.99999999999982
  0
ARC
  5
CD
330
9E
100
AcDbEntity
  8
0
  6
Continuous
 62
     0
100
AcDbCircle
 10
0.8647937173355067
 20
-50.59877106979298
 30
0.0
 40
0.01
100
AcDbArc
 50
269.9999999999865
 51
0.000000000000007
  0
LINE
  5
CE
330
9E
100
AcDbEntity
  8
0
  6
Continuous
 62
     0
100
AcDbLine
 10
0.8747937173355067
 20
-50.18177106979298
 30
0.0
 11
0.8747937173355067
 21
-50.59877106979298
 31
0.0
  0
ARC
  5
CF
330
9E
100
AcDbEntity
  8
0
  6
Continuous
 62
     0
100
AcDbCircle
 10
0.8509746664079539
 20
-50.59877106979299
 30
0.0
 40
0.01
100
AcDbArc
 50
206.560000000001
 51
270.0
  0
LINE
  5
D0
330
9E
100
AcDbEntity
  8
0
  6
Continuous
 62
     0
100
AcDbLine
 10
0.8509746664079539
 20
-50.60877106979298
 30
0.0
 11
0.8647937173355042
 21
-50.60877106979297
 31
0.0
  0
LINE
  5
D1
330
9E
100
AcDbEntity
  8
0
  6
Continuous
 62
     0
100
AcDbLine
 10
0.8420300002706785
 20
-50.60324241720653
 30
0.0
 11
0.7508102677497459
 21
-50.42076273556553
 31
0.0
  0
LINE
  5
D2
330
9E
100
AcDbEntity
  8
0
  6
Continuous
 62
     0
100
AcDbLine
 10
-0.6152062826644933
 20
-48.86077106979299
 30
0.0
 11
-0.2502062826644984
 21
-48.860771069793
 31
0.0
  0
LINE
  5
D3
330
9E
100
AcDbEntity
  8
0
  6
Continuous
 62
     0
100
AcDbLine
 10
-0.9902062826644931
 20
-48.98577106979299
 30
0.0
 11
-0.385206282664493
 21
-48.985771069793
 31
0.0
  0
LINE
  5
D4
330
9E
100
AcDbEntity
  8
0
  6
Continuous
 62
     0
100
AcDbLine
 10
-0.7807062826644933
 20
-48.735771069793
 30
0.0
 11
-0.6352062826644933
 21
-48.73577106979301
 31
0.0
  0
LINE
  5
D5
330
9E
100
AcDbEntity
  8
0
  6
Continuous
 62
     0
100
AcDbLine
 10
-0.6252062826644932
 20
-48.745771069793
 30
0.0
 11
-0.6252062826644931
 21
-48.85077106979299
 31
0.0
  0
ARC
  5
D6
330
9E
100
AcDbEntity
  8
0
  6
Continuous
 62
     0
100
AcDbCircle
 10
-0.6352062826644933
 20
-48.745771069793
 30
0.0
 40
0.01
100
AcDbArc
 50
0.0
 51
90.0
  0
LINE
  5
D7
330
9E
100
AcDbEntity
  8
0
  6
Continuous
 62
     0
100
AcDbLine
 10
-1.115206282664493
 20
-48.735771069793
 30
0.0
 11
-0.9697062826644931
 21
-48.73577106979299
 31
0.0
  0
ARC
  5
D8
330
9E
100
AcDbEntity
  8
0
  6
Continuous
 62
     0
100
AcDbCircle
 10
-1.115206282664493
 20
-48.74577106979299
 30
0.0
 40
0.01
100
AcDbArc
 50
90.00000000000261
 51
180.0
  0
ARC
  5
D9
330
9E
100
AcDbEntity
  8
0
  6
Continuous
 62
     0
100
AcDbCircle
 10
-0.6152062826644931
 20
-48.85077106979299
 30
0.0
 40
0.01
100
AcDbArc
 50
180.0
 51
269.9999999999989
  0
ARC
  5
DA
330
9E
100
AcDbEntity
  8
0
  6
Continuous
 62
     0
100
AcDbCircle
 10
-0.9902062826644932
 20
-48.99577106979299
 30
0.0
 40
0.01
100
AcDbArc
 50
89.99999999999934
 51
180.0
  0
LINE
  5
DB
330
9E
100
AcDbEntity
  8
0
  6
Continuous
 62
     0
100
AcDbLine
 10
-0.937706282664493
 20
-48.76777106979298
 30
0.0
 11
-0.9377062826644932
 21
-48.785771069793
 31
0.0
  0
ARC
  5
DC
330
9E
100
AcDbEntity
  8
0
  6
Continuous
 62
     0
100
AcDbCircle
 10
-0.9697062826644931
 20
-48.76777106979298
 30
0.0
 40
0.032
100
AcDbArc
 50
0.0
 51
90.0
  0
LINE
  5
DD
330
9E
100
AcDbEntity
  8
0
  6
Continuous
 62
     0
100
AcDbLine
 10
-0.8127062826644932
 20
-48.76777106979299
 30
0.0
 11
-0.8127062826644932
 21
-48.785771069793
 31
0.0
  0
ARC
  5
DE
330
9E
100
AcDbEntity
  8
0
  6
Continuous
 62
     0
100
AcDbCircle
 10
-0.7807062826644933
 20
-48.76777106979299
 30
0.0
 40
0.032
100
AcDbArc
 50
90.0
 51
180.0
  0
LINE
  5
DF
330
9E
100
AcDbEntity
  8
0
  6
Continuous
 62
     0
100
AcDbLine
 10
-0.7752062826644933
 20
-48.785771069793
 30
0.0
 11
-0.7752062826644934
 21
-48.86296905973005
 31
0.0
  0
LINE
  5
E0
330
9E
100
AcDbEntity
  8
0
  6
Continuous
 62
     0
100
AcDbLine
 10
-0.975206282664493
 20
-48.785771069793
 30
0.0
 11
-0.9752062826644928
 21
-48.86296905973005
 31
0.0
  0
ARC
  5
E1
330
9E
100
AcDbEntity
  8
0
  6
Continuous
 62
     0
100
AcDbCircle
 10
-0.875206282664493
 20
-48.70377106979299
 30
0.0
 40
0.188
100
AcDbArc
 50
237.8650719958524
 51
302.1349280041475
  0
LINE
  5
E2
330
9E
100
AcDbEntity
  8
0
  6
Continuous
 62
     0
100
AcDbLine
 10
-0.8127062826644932
 20
-48.785771069793
 30
0.0
 11
-0.7752062826644933
 21
-48.785771069793
 31
0.0
  0
LINE
  5
E3
330
9E
100
AcDbEntity
  8
0
  6
Continuous
 62
     0
100
AcDbLine
 10
-0.975206282664493
 20
-48.785771069793
 30
0.0
 11
-0.9377062826644932
 21
-48.785771069793
 31
0.0
  0
LINE
  5
E4
330
9E
100
AcDbEntity
  8
0
  6
Continuous
 62
     0
100
AcDbLine
 10
0.8647937173355074
 20
-48.73577106979301
 30
0.0
 11
0.719293717335507
 21
-48.73577106979299
 31
0.0
  0
ARC
  5
E5
330
9E
100
AcDbEntity
  8
0
  6
Continuous
 62
     0
100
AcDbCircle
 10
0.8647937173355069
 20
-48.745771069793
 30
0.0
 40
0.01
100
AcDbArc
 50
0.0
 51
89.99999999999738
  0
LINE
  5
E6
330
9E
100
AcDbEntity
  8
0
  6
Continuous
 62
     0
100
AcDbLine
 10
0.374793717335507
 20
-48.745771069793
 30
0.0
 11
0.374793717335507
 21
-48.850771069793
 31
0.0
  0
LINE
  5
E7
330
9E
100
AcDbEntity
  8
0
  6
Continuous
 62
     0
100
AcDbLine
 10
0.5302937173355071
 20
-48.735771069793
 30
0.0
 11
0.3847937173355071
 21
-48.73577106979301
 31
0.0
  0
ARC
  5
E8
330
9E
100
AcDbEntity
  8
0
  6
Continuous
 62
     0
100
AcDbCircle
 10
0.3847937173355071
 20
-48.745771069793
 30
0.0
 40
0.01
100
AcDbArc
 50
90.0
 51
180.0
  0
LINE
  5
E9
330
9E
100
AcDbEntity
  8
0
  6
Continuous
 62
     0
100
AcDbLine
 10
-0.0002062826644976
 20
-48.860771069793
 30
0.0
 11
0.364793717335507
 21
-48.860771069793
 31
0.0
  0
ARC
  5
EA
330
9E
100
AcDbEntity
  8
0
  6
Continuous
 62
     0
100
AcDbCircle
 10
0.364793717335507
 20
-48.850771069793
 30
0.0
 40
0.01
100
AcDbArc
 50
270.0
 51
0.0
  0
LINE
  5
EB
330
9E
100
AcDbEntity
  8
0
  6
Continuous
 62
     0
100
AcDbLine
 10
0.1347937173355068
 20
-48.98577106979301
 30
0.0
 11
0.7397937173355067
 21
-48.98577106979299
 31
0.0
  0
ARC
  5
EC
330
9E
100
AcDbEntity
  8
0
  6
Continuous
 62
     0
100
AcDbCircle
 10
0.739793717335507
 20
-48.99577106979299
 30
0.0
 40
0.01
100
AcDbArc
 50
0.0
 51
90.00000000000133
  0
ARC
  5
ED
330
9E
100
AcDbEntity
  8
0
  6
Continuous
 62
     0
100
AcDbCircle
 10
0.1347937173355069
 20
-48.995771069793
 30
0.0
 40
0.01
100
AcDbArc
 50
90.00000000000063
 51
180.0
  0
ARC
  5
EE
330
9E
100
AcDbEntity
  8
0
  6
Continuous
 62
     0
100
AcDbCircle
 10
-0.385206282664493
 20
-48.995771069793
 30
0.0
 40
0.01
100
AcDbArc
 50
0.0
 51
90.0
  0
LINE
  5
EF
330
9E
100
AcDbEntity
  8
0
  6
Continuous
 62
     0
100
AcDbLine
 10
-0.2502062826644984
 20
-48.86718261252487
 30
0.0
 11
-0.2502062826644984
 21
-48.86077106979299
 31
0.0
  0
LINE
  5
F0
330
9E
100
AcDbEntity
  8
0
  6
Continuous
 62
     0
100
AcDbLine
 10
-0.223206282664498
 20
-48.88277106979298
 30
0.0
 11
-0.223206282664498
 21
-48.88877106979299
 31
0.0
  0
LINE
  5
F1
330
9E
100
AcDbEntity
  8
0
  6
Continuous
 62
     0
100
AcDbLine
 10
-0.223206282664498
 20
-48.88277106979298
 30
0.0
 11
-0.2502062826644984
 21
-48.86718261252487
 31
0.0
  0
LINE
  5
F2
330
9E
100
AcDbEntity
  8
0
  6
Continuous
 62
     0
100
AcDbLine
 10
-0.223206282664498
 20
-48.88877106979299
 30
0.0
 11
-0.2502062826644984
 21
-48.9043595270611
 31
0.0
  0
LINE
  5
F3
330
9E
100
AcDbEntity
  8
0
  6
Continuous
 62
     0
100
AcDbLine
 10
-0.223206282664498
 20
-48.93877106979298
 30
0.0
 11
-0.2502062826644984
 21
-48.95435952706109
 31
0.0
  0
LINE
  5
F4
330
9E
100
AcDbEntity
  8
0
  6
Continuous
 62
     0
100
AcDbLine
 10
-0.223206282664498
 20
-48.93277106979297
 30
0.0
 11
-0.2502062826644984
 21
-48.91718261252486
 31
0.0
  0
LINE
  5
F5
330
9E
100
AcDbEntity
  8
0
  6
Continuous
 62
     0
100
AcDbLine
 10
-0.223206282664498
 20
-48.93277106979297
 30
0.0
 11
-0.223206282664498
 21
-48.93877106979298
 31
0.0
  0
LINE
  5
F6
330
9E
100
AcDbEntity
  8
0
  6
Continuous
 62
     0
100
AcDbLine
 10
-0.223206282664498
 20
-48.98277106979296
 30
0.0
 11
-0.223206282664498
 21
-48.98877106979297
 31
0.0
  0
LINE
  5
F7
330
9E
100
AcDbEntity
  8
0
  6
Continuous
 62
     0
100
AcDbLine
 10
-0.223206282664498
 20
-48.98277106979296
 30
0.0
 11
-0.2502062826644984
 21
-48.96718261252485
 31
0.0
  0
LINE
  5
F8
330
9E
100
AcDbEntity
  8
0
  6
Continuous
 62
     0
100
AcDbLine
 10
-0.223206282664498
 20
-48.98877106979297
 30
0.0
 11
-0.2502062826644984
 21
-49.00435952706108
 31
0.0
  0
LINE
  5
F9
330
9E
100
AcDbEntity
  8
0
  6
Continuous
 62
     0
100
AcDbLine
 10
-0.223206282664498
 20
-49.08877106979295
 30
0.0
 11
-0.2502062826644984
 21
-49.10435952706106
 31
0.0
  0
LINE
  5
FA
330
9E
100
AcDbEntity
  8
0
  6
Continuous
 62
     0
100
AcDbLine
 10
-0.223206282664498
 20
-49.08277106979294
 30
0.0
 11
-0.2502062826644984
 21
-49.06718261252483
 31
0.0
  0
LINE
  5
FB
330
9E
100
AcDbEntity
  8
0
  6
Continuous
 62
     0
100
AcDbLine
 10
-0.223206282664498
 20
-49.08277106979294
 30
0.0
 11
-0.223206282664498
 21
-49.08877106979295
 31
0.0
  0
LINE
  5
FC
330
9E
100
AcDbEntity
  8
0
  6
Continuous
 62
     0
100
AcDbLine
 10
-0.223206282664498
 20
-49.03277106979295
 30
0.0
 11
-0.223206282664498
 21
-49.03877106979296
 31
0.0
  0
LINE
  5
FD
330
9E
100
AcDbEntity
  8
0
  6
Continuous
 62
     0
100
AcDbLine
 10
-0.223206282664498
 20
-49.03277106979295
 30
0.0
 11
-0.2502062826644984
 21
-49.01718261252484
 31
0.0
  0
LINE
  5
FE
330
9E
100
AcDbEntity
  8
0
  6
Continuous
 62
     0
100
AcDbLine
 10
-0.223206282664498
 20
-49.03877106979296
 30
0.0
 11
-0.2502062826644984
 21
-49.05435952706107
 31
0.0
  0
LINE
  5
FF
330
9E
100
AcDbEntity
  8
0
  6
Continuous
 62
     0
100
AcDbLine
 10
-0.2232062826644987
 20
-49.23877106979292
 30
0.0
 11
-0.2502062826644988
 21
-49.25435952706103
 31
0.0
  0
LINE
  5
100
330
9E
100
AcDbEntity
  8
0
  6
Continuous
 62
     0
100
AcDbLine
 10
-0.2232062826644987
 20
-49.23277106979291
 30
0.0
 11
-0.2502062826644988
 21
-49.2171826125248
 31
0.0
  0
LINE
  5
101
330
9E
100
AcDbEntity
  8
0
  6
Continuous
 62
     0
100
AcDbLine
 10
-0.2232062826644987
 20
-49.23277106979291
 30
0.0
 11
-0.2232062826644987
 21
-49.23877106979292
 31
0.0
  0
LINE
  5
102
330
9E
100
AcDbEntity
  8
0
  6
Continuous
 62
     0
100
AcDbLine
 10
-0.2232062826644987
 20
-49.2827710697929
 30
0.0
 11
-0.2232062826644987
 21
-49.28877106979291
 31
0.0
  0
LINE
  5
103
330
9E
100
AcDbEntity
  8
0
  6
Continuous
 62
     0
100
AcDbLine
 10
-0.2232062826644987
 20
-49.2827710697929
 30
0.0
 11
-0.2502062826644988
 21
-49.26718261252479
 31
0.0
  0
LINE
  5
104
330
9E
100
AcDbEntity
  8
0
  6
Continuous
 62
     0
100
AcDbLine
 10
-0.2232062826644987
 20
-49.28877106979291
 30
0.0
 11
-0.2502062826644988
 21
-49.30435952706102
 31
0.0
  0
LINE
  5
105
330
9E
100
AcDbEntity
  8
0
  6
Continuous
 62
     0
100
AcDbLine
 10
-0.2232062826644987
 20
-49.18877106979293
 30
0.0
 11
-0.2502062826644988
 21
-49.20435952706104
 31
0.0
  0
LINE
  5
106
330
9E
100
AcDbEntity
  8
0
  6
Continuous
 62
     0
100
AcDbLine
 10
-0.2232062826644987
 20
-49.18277106979292
 30
0.0
 11
-0.2502062826644988
 21
-49.16718261252481
 31
0.0
  0
LINE
  5
107
330
9E
100
AcDbEntity
  8
0
  6
Continuous
 62
     0
100
AcDbLine
 10
-0.2232062826644987
 20
-49.18277106979292
 30
0.0
 11
-0.2232062826644987
 21
-49.18877106979293
 31
0.0
  0
LINE
  5
108
330
9E
100
AcDbEntity
  8
0
  6
Continuous
 62
     0
100
AcDbLine
 10
-0.2232062826644987
 20
-49.13277106979293
 30
0.0
 11
-0.2232062826644987
 21
-49.13877106979294
 31
0.0
  0
LINE
  5
109
330
9E
100
AcDbEntity
  8
0
  6
Continuous
 62
     0
100
AcDbLine
 10
-0.2232062826644987
 20
-49.13277106979293
 30
0.0
 11
-0.2502062826644988
 21
-49.11718261252482
 31
0.0
  0
LINE
  5
10A
330
9E
100
AcDbEntity
  8
0
  6
Continuous
 62
     0
100
AcDbLine
 10
-0.2232062826644987
 20
-49.13877106979294
 30
0.0
 11
-0.2502062826644988
 21
-49.15435952706105
 31
0.0
  0
LINE
  5
10B
330
9E
100
AcDbEntity
  8
0
  6
Continuous
 62
     0
100
AcDbLine
 10
-0.2232062826644992
 20
-49.43895306362357
 30
0.0
 11
-0.2502062826644995
 21
-49.45454152089168
 31
0.0
  0
LINE
  5
10C
330
9E
100
AcDbEntity
  8
0
  6
Continuous
 62
     0
100
AcDbLine
 10
-0.2232062826644992
 20
-49.43295306362356
 30
0.0
 11
-0.2502062826644995
 21
-49.41736460635545
 31
0.0
  0
LINE
  5
10D
330
9E
100
AcDbEntity
  8
0
  6
Continuous
 62
     0
100
AcDbLine
 10
-0.2232062826644992
 20
-49.43295306362356
 30
0.0
 11
-0.2232062826644992
 21
-49.43895306362357
 31
0.0
  0
LINE
  5
10E
330
9E
100
AcDbEntity
  8
0
  6
Continuous
 62
     0
100
AcDbLine
 10
-0.2232062826644992
 20
-49.48295306362355
 30
0.0
 11
-0.2232062826644992
 21
-49.48895306362356
 31
0.0
  0
LINE
  5
10F
330
9E
100
AcDbEntity
  8
0
  6
Continuous
 62
     0
100
AcDbLine
 10
-0.2232062826644992
 20
-49.48295306362355
 30
0.0
 11
-0.2502062826644995
 21
-49.46736460635544
 31
0.0
  0
LINE
  5
110
330
9E
100
AcDbEntity
  8
0
  6
Continuous
 62
     0
100
AcDbLine
 10
-0.2232062826644992
 20
-49.48895306362356
 30
0.0
 11
-0.2502062826644995
 21
-49.50454152089167
 31
0.0
  0
LINE
  5
111
330
9E
100
AcDbEntity
  8
0
  6
Continuous
 62
     0
100
AcDbLine
 10
-0.2232062826644992
 20
-49.38895306362358
 30
0.0
 11
-0.2502062826644995
 21
-49.40454152089169
 31
0.0
  0
LINE
  5
112
330
9E
100
AcDbEntity
  8
0
  6
Continuous
 62
     0
100
AcDbLine
 10
-0.2232062826644992
 20
-49.38295306362357
 30
0.0
 11
-0.2502062826644995
 21
-49.36736460635546
 31
0.0
  0
LINE
  5
113
330
9E
100
AcDbEntity
  8
0
  6
Continuous
 62
     0
100
AcDbLine
 10
-0.2232062826644992
 20
-49.38295306362357
 30
0.0
 11
-0.2232062826644992
 21
-49.38895306362358
 31
0.0
  0
LINE
  5
114
330
9E
100
AcDbEntity
  8
0
  6
Continuous
 62
     0
100
AcDbLine
 10
-0.2232062826644992
 20
-49.33295306362358
 30
0.0
 11
-0.2232062826644992
 21
-49.33895306362359
 31
0.0
  0
LINE
  5
115
330
9E
100
AcDbEntity
  8
0
  6
Continuous
 62
     0
100
AcDbLine
 10
-0.2232062826644992
 20
-49.33295306362358
 30
0.0
 11
-0.2502062826644995
 21
-49.31736460635547
 31
0.0
  0
LINE
  5
116
330
9E
100
AcDbEntity
  8
0
  6
Continuous
 62
     0
100
AcDbLine
 10
-0.2232062826644992
 20
-49.33895306362359
 30
0.0
 11
-0.2502062826644995
 21
-49.3545415208917
 31
0.0
  0
LINE
  5
117
330
9E
100
AcDbEntity
  8
0
  6
Continuous
 62
     0
100
AcDbLine
 10
-0.2502062826644977
 20
-48.90435952706112
 30
0.0
 11
-0.2502062826644977
 21
-48.91718261252485
 31
0.0
  0
LINE
  5
118
330
9E
100
AcDbEntity
  8
0
  6
Continuous
 62
     0
100
AcDbLine
 10
-0.2502062826644971
 20
-48.95435952706109
 30
0.0
 11
-0.2502062826644968
 21
-48.96718261252485
 31
0.0
  0
LINE
  5
119
330
9E
100
AcDbEntity
  8
0
  6
Continuous
 62
     0
100
AcDbLine
 10
-0.2502062826644964
 20
-49.00435952706109
 30
0.0
 11
-0.2502062826644962
 21
-49.01718261252484
 31
0.0
  0
LINE
  5
11A
330
9E
100
AcDbEntity
  8
0
  6
Continuous
 62
     0
100
AcDbLine
 10
-0.2502062826644957
 20
-49.05435952706109
 30
0.0
 11
-0.2502062826644955
 21
-49.06718261252483
 31
0.0
  0
LINE
  5
11B
330
9E
100
AcDbEntity
  8
0
  6
Continuous
 62
     0
100
AcDbLine
 10
-0.2502062826644951
 20
-49.10435952706106
 30
0.0
 11
-0.2502062826644948
 21
-49.11718261252482
 31
0.0
  0
LINE
  5
11C
330
9E
100
AcDbEntity
  8
0
  6
Continuous
 62
     0
100
AcDbLine
 10
-0.2502062826644942
 20
-49.15435952706106
 30
0.0
 11
-0.2502062826644942
 21
-49.16718261252481
 31
0.0
  0
LINE
  5
11D
330
9E
100
AcDbEntity
  8
0
  6
Continuous
 62
     0
100
AcDbLine
 10
-0.2502062826644935
 20
-49.20435952706106
 30
0.0
 11
-0.2502062826644933
 21
-49.21718261252481
 31
0.0
  0
LINE
  5
11E
330
9E
100
AcDbEntity
  8
0
  6
Continuous
 62
     0
100
AcDbLine
 10
-0.2502062826644928
 20
-49.25435952706103
 30
0.0
 11
-0.2502062826644926
 21
-49.26718261252479
 31
0.0
  0
LINE
  5
11F
330
9E
100
AcDbEntity
  8
0
  6
Continuous
 62
     0
100
AcDbLine
 10
-0.2502062826644922
 20
-49.30435952706101
 30
0.0
 11
-0.250206282664492
 21
-49.31736460635547
 31
0.0
  0
LINE
  5
120
330
9E
100
AcDbEntity
  8
0
  6
Continuous
 62
     0
100
AcDbLine
 10
-0.2502062826644915
 20
-49.35454152089169
 30
0.0
 11
-0.2502062826644913
 21
-49.36736460635547
 31
0.0
  0
LINE
  5
121
330
9E
100
AcDbEntity
  8
0
  6
Continuous
 62
     0
100
AcDbLine
 10
-0.25020628266449
 20
-49.45454152089167
 30
0.0
 11
-0.2502062826644897
 21
-49.46736460635545
 31
0.0
  0
LINE
  5
122
330
9E
100
AcDbEntity
  8
0
  6
Continuous
 62
     0
100
AcDbLine
 10
-0.2502062826644906
 20
-49.40454152089168
 30
0.0
 11
-0.2502062826644906
 21
-49.41736460635546
 31
0.0
  0
LINE
  5
123
330
9E
100
AcDbEntity
  8
0
  6
Continuous
 62
     0
100
AcDbLine
 10
-0.2232062826644996
 20
-49.53295306362354
 30
0.0
 11
-0.2502062826645
 21
-49.51736460635543
 31
0.0
  0
LINE
  5
124
330
9E
100
AcDbEntity
  8
0
  6
Continuous
 62
     0
100
AcDbLine
 10
-0.2502062826644893
 20
-49.50454152089166
 30
0.0
 11
-0.2502062826644891
 21
-49.51736460635544
 31
0.0
  0
LINE
  5
125
330
9E
100
AcDbEntity
  8
0
  6
Continuous
 62
     0
100
AcDbLine
 10
-0.0002062826645056
 20
-49.42954152089169
 30
0.0
 11
-0.0002062826645058
 21
-49.44236460635546
 31
0.0
  0
LINE
  5
126
330
9E
100
AcDbEntity
  8
0
  6
Continuous
 62
     0
100
AcDbLine
 10
-0.0002062826645063
 20
-49.47954152089168
 30
0.0
 11
-0.0002062826645065
 21
-49.49236460635545
 31
0.0
  0
LINE
  5
127
330
9E
100
AcDbEntity
  8
0
  6
Continuous
 62
     0
100
AcDbLine
 10
-0.0002062826645049
 20
-49.3795415208917
 30
0.0
 11
-0.0002062826645051
 21
-49.39236460635547
 31
0.0
  0
LINE
  5
128
330
9E
100
AcDbEntity
  8
0
  6
Continuous
 62
     0
100
AcDbLine
 10
-0.0002062826645042
 20
-49.32935952706102
 30
0.0
 11
-0.0002062826645044
 21
-49.34236460635547
 31
0.0
  0
LINE
  5
129
330
9E
100
AcDbEntity
  8
0
  6
Continuous
 62
     0
100
AcDbLine
 10
-0.0002062826645035
 20
-49.27935952706103
 30
0.0
 11
-0.0002062826645037
 21
-49.29218261252479
 31
0.0
  0
LINE
  5
12A
330
9E
100
AcDbEntity
  8
0
  6
Continuous
 62
     0
100
AcDbLine
 10
-0.0002062826645028
 20
-49.22935952706106
 30
0.0
 11
-0.000206282664503
 21
-49.24218261252481
 31
0.0
  0
LINE
  5
12B
330
9E
100
AcDbEntity
  8
0
  6
Continuous
 62
     0
100
AcDbLine
 10
-0.0002062826645021
 20
-49.17935952706106
 30
0.0
 11
-0.0002062826645023
 21
-49.19218261252481
 31
0.0
  0
LINE
  5
12C
330
9E
100
AcDbEntity
  8
0
  6
Continuous
 62
     0
100
AcDbLine
 10
-0.0002062826645014
 20
-49.12935952706106
 30
0.0
 11
-0.0002062826645016
 21
-49.14218261252482
 31
0.0
  0
LINE
  5
12D
330
9E
100
AcDbEntity
  8
0
  6
Continuous
 62
     0
100
AcDbLine
 10
-0.0002062826645007
 20
-49.07935952706109
 30
0.0
 11
-0.0002062826645008
 21
-49.09218261252483
 31
0.0
  0
LINE
  5
12E
330
9E
100
AcDbEntity
  8
0
  6
Continuous
 62
     0
100
AcDbLine
 10
-0.0002062826645
 20
-49.02935952706109
 30
0.0
 11
-0.0002062826645001
 21
-49.04218261252484
 31
0.0
  0
LINE
  5
12F
330
9E
100
AcDbEntity
  8
0
  6
Continuous
 62
     0
100
AcDbLine
 10
-0.0002062826644992
 20
-48.97935952706109
 30
0.0
 11
-0.0002062826644994
 21
-48.99218261252485
 31
0.0
  0
LINE
  5
130
330
9E
100
AcDbEntity
  8
0
  6
Continuous
 62
     0
100
AcDbLine
 10
-0.0002062826644985
 20
-48.92935952706112
 30
0.0
 11
-0.0002062826644987
 21
-48.94218261252486
 31
0.0
  0
LINE
  5
131
330
9E
100
AcDbEntity
  8
0
  6
Continuous
 62
     0
100
AcDbLine
 10
-0.0002062826644976
 20
-48.86077106979299
 30
0.0
 11
-0.000206282664498
 21
-48.89218261252486
 31
0.0
  0
LINE
  5
132
330
9E
100
AcDbEntity
  8
0
  6
Continuous
 62
     0
100
AcDbLine
 10
-0.0272062826644972
 20
-49.36395306362359
 30
0.0
 11
-0.000206282664497
 21
-49.3795415208917
 31
0.0
  0
LINE
  5
133
330
9E
100
AcDbEntity
  8
0
  6
Continuous
 62
     0
100
AcDbLine
 10
-0.0272062826644972
 20
-49.35795306362359
 30
0.0
 11
-0.000206282664497
 21
-49.34236460635547
 31
0.0
  0
LINE
  5
134
330
9E
100
AcDbEntity
  8
0
  6
Continuous
 62
     0
100
AcDbLine
 10
-0.0272062826644972
 20
-49.35795306362359
 30
0.0
 11
-0.0272062826644972
 21
-49.36395306362359
 31
0.0
  0
LINE
  5
135
330
9E
100
AcDbEntity
  8
0
  6
Continuous
 62
     0
100
AcDbLine
 10
-0.0272062826644972
 20
-49.40795306362358
 30
0.0
 11
-0.0272062826644972
 21
-49.41395306362358
 31
0.0
  0
LINE
  5
136
330
9E
100
AcDbEntity
  8
0
  6
Continuous
 62
     0
100
AcDbLine
 10
-0.0272062826644972
 20
-49.40795306362358
 30
0.0
 11
-0.000206282664497
 21
-49.39236460635546
 31
0.0
  0
LINE
  5
137
330
9E
100
AcDbEntity
  8
0
  6
Continuous
 62
     0
100
AcDbLine
 10
-0.0272062826644972
 20
-49.41395306362358
 30
0.0
 11
-0.000206282664497
 21
-49.42954152089169
 31
0.0
  0
LINE
  5
138
330
9E
100
AcDbEntity
  8
0
  6
Continuous
 62
     0
100
AcDbLine
 10
-0.0272062826644972
 20
-49.51395306362356
 30
0.0
 11
-0.000206282664497
 21
-49.52954152089168
 31
0.0
  0
LINE
  5
139
330
9E
100
AcDbEntity
  8
0
  6
Continuous
 62
     0
100
AcDbLine
 10
-0.0272062826644972
 20
-49.50795306362356
 30
0.0
 11
-0.000206282664497
 21
-49.49236460635544
 31
0.0
  0
LINE
  5
13A
330
9E
100
AcDbEntity
  8
0
  6
Continuous
 62
     0
100
AcDbLine
 10
-0.0272062826644972
 20
-49.50795306362356
 30
0.0
 11
-0.0272062826644972
 21
-49.51395306362356
 31
0.0
  0
LINE
  5
13B
330
9E
100
AcDbEntity
  8
0
  6
Continuous
 62
     0
100
AcDbLine
 10
-0.0272062826644972
 20
-49.45795306362357
 30
0.0
 11
-0.0272062826644972
 21
-49.46395306362357
 31
0.0
  0
LINE
  5
13C
330
9E
100
AcDbEntity
  8
0
  6
Continuous
 62
     0
100
AcDbLine
 10
-0.0272062826644972
 20
-49.45795306362357
 30
0.0
 11
-0.000206282664497
 21
-49.44236460635545
 31
0.0
  0
LINE
  5
13D
330
9E
100
AcDbEntity
  8
0
  6
Continuous
 62
     0
100
AcDbLine
 10
-0.0272062826644972
 20
-49.46395306362357
 30
0.0
 11
-0.000206282664497
 21
-49.47954152089168
 31
0.0
  0
LINE
  5
13E
330
9E
100
AcDbEntity
  8
0
  6
Continuous
 62
     0
100
AcDbLine
 10
-0.0272062826644978
 20
-49.16377106979294
 30
0.0
 11
-0.0002062826644975
 21
-49.17935952706105
 31
0.0
  0
LINE
  5
13F
330
9E
100
AcDbEntity
  8
0
  6
Continuous
 62
     0
100
AcDbLine
 10
-0.0272062826644978
 20
-49.15777106979295
 30
0.0
 11
-0.0002062826644975
 21
-49.14218261252482
 31
0.0
  0
LINE
  5
140
330
9E
100
AcDbEntity
  8
0
  6
Continuous
 62
     0
100
AcDbLine
 10
-0.0272062826644978
 20
-49.15777106979295
 30
0.0
 11
-0.0272062826644978
 21
-49.16377106979294
 31
0.0
  0
LINE
  5
141
330
9E
100
AcDbEntity
  8
0
  6
Continuous
 62
     0
100
AcDbLine
 10
-0.0272062826644978
 20
-49.20777106979294
 30
0.0
 11
-0.0272062826644978
 21
-49.21377106979293
 31
0.0
  0
LINE
  5
142
330
9E
100
AcDbEntity
  8
0
  6
Continuous
 62
     0
100
AcDbLine
 10
-0.0272062826644978
 20
-49.20777106979294
 30
0.0
 11
-0.0002062826644975
 21
-49.19218261252481
 31
0.0
  0
LINE
  5
143
330
9E
100
AcDbEntity
  8
0
  6
Continuous
 62
     0
100
AcDbLine
 10
-0.0272062826644978
 20
-49.21377106979293
 30
0.0
 11
-0.0002062826644975
 21
-49.22935952706104
 31
0.0
  0
LINE
  5
144
330
9E
100
AcDbEntity
  8
0
  6
Continuous
 62
     0
100
AcDbLine
 10
-0.0272062826644978
 20
-49.31377106979291
 30
0.0
 11
-0.0002062826644975
 21
-49.32935952706102
 31
0.0
  0
LINE
  5
145
330
9E
100
AcDbEntity
  8
0
  6
Continuous
 62
     0
100
AcDbLine
 10
-0.0272062826644978
 20
-49.30777106979292
 30
0.0
 11
-0.0002062826644975
 21
-49.29218261252479
 31
0.0
  0
LINE
  5
146
330
9E
100
AcDbEntity
  8
0
  6
Continuous
 62
     0
100
AcDbLine
 10
-0.0272062826644978
 20
-49.30777106979292
 30
0.0
 11
-0.0272062826644978
 21
-49.31377106979291
 31
0.0
  0
LINE
  5
147
330
9E
100
AcDbEntity
  8
0
  6
Continuous
 62
     0
100
AcDbLine
 10
-0.0272062826644978
 20
-49.25777106979293
 30
0.0
 11
-0.0272062826644978
 21
-49.26377106979292
 31
0.0
  0
LINE
  5
148
330
9E
100
AcDbEntity
  8
0
  6
Continuous
 62
     0
100
AcDbLine
 10
-0.0272062826644978
 20
-49.25777106979293
 30
0.0
 11
-0.0002062826644975
 21
-49.2421826125248
 31
0.0
  0
LINE
  5
149
330
9E
100
AcDbEntity
  8
0
  6
Continuous
 62
     0
100
AcDbLine
 10
-0.0272062826644978
 20
-49.26377106979292
 30
0.0
 11
-0.0002062826644975
 21
-49.27935952706103
 31
0.0
  0
LINE
  5
14A
330
9E
100
AcDbEntity
  8
0
  6
Continuous
 62
     0
100
AcDbLine
 10
-0.0272062826644983
 20
-49.06377106979296
 30
0.0
 11
-0.000206282664498
 21
-49.07935952706107
 31
0.0
  0
LINE
  5
14B
330
9E
100
AcDbEntity
  8
0
  6
Continuous
 62
     0
100
AcDbLine
 10
-0.0272062826644983
 20
-49.05777106979297
 30
0.0
 11
-0.000206282664498
 21
-49.04218261252484
 31
0.0
  0
LINE
  5
14C
330
9E
100
AcDbEntity
  8
0
  6
Continuous
 62
     0
100
AcDbLine
 10
-0.0272062826644983
 20
-49.05777106979297
 30
0.0
 11
-0.0272062826644983
 21
-49.06377106979296
 31
0.0
  0
LINE
  5
14D
330
9E
100
AcDbEntity
  8
0
  6
Continuous
 62
     0
100
AcDbLine
 10
-0.0272062826644983
 20
-49.10777106979296
 30
0.0
 11
-0.0272062826644983
 21
-49.11377106979295
 31
0.0
  0
LINE
  5
14E
330
9E
100
AcDbEntity
  8
0
  6
Continuous
 62
     0
100
AcDbLine
 10
-0.0272062826644983
 20
-49.10777106979296
 30
0.0
 11
-0.000206282664498
 21
-49.09218261252483
 31
0.0
  0
LINE
  5
14F
330
9E
100
AcDbEntity
  8
0
  6
Continuous
 62
     0
100
AcDbLine
 10
-0.0272062826644983
 20
-49.11377106979295
 30
0.0
 11
-0.000206282664498
 21
-49.12935952706106
 31
0.0
  0
LINE
  5
150
330
9E
100
AcDbEntity
  8
0
  6
Continuous
 62
     0
100
AcDbLine
 10
-0.0272062826644983
 20
-49.01377106979297
 30
0.0
 11
-0.000206282664498
 21
-49.02935952706108
 31
0.0
  0
LINE
  5
151
330
9E
100
AcDbEntity
  8
0
  6
Continuous
 62
     0
100
AcDbLine
 10
-0.0272062826644983
 20
-49.00777106979298
 30
0.0
 11
-0.000206282664498
 21
-48.99218261252485
 31
0.0
  0
LINE
  5
152
330
9E
100
AcDbEntity
  8
0
  6
Continuous
 62
     0
100
AcDbLine
 10
-0.0272062826644983
 20
-49.00777106979298
 30
0.0
 11
-0.0272062826644983
 21
-49.01377106979297
 31
0.0
  0
LINE
  5
153
330
9E
100
AcDbEntity
  8
0
  6
Continuous
 62
     0
100
AcDbLine
 10
-0.0272062826644983
 20
-48.95777106979299
 30
0.0
 11
-0.0272062826644983
 21
-48.96377106979298
 31
0.0
  0
LINE
  5
154
330
9E
100
AcDbEntity
  8
0
  6
Continuous
 62
     0
100
AcDbLine
 10
-0.0272062826644983
 20
-48.95777106979299
 30
0.0
 11
-0.000206282664498
 21
-48.94218261252486
 31
0.0
  0
LINE
  5
155
330
9E
100
AcDbEntity
  8
0
  6
Continuous
 62
     0
100
AcDbLine
 10
-0.0272062826644983
 20
-48.96377106979298
 30
0.0
 11
-0.000206282664498
 21
-48.97935952706109
 31
0.0
  0
LINE
  5
156
330
9E
100
AcDbEntity
  8
0
  6
Continuous
 62
     0
100
AcDbLine
 10
-0.0272062826644983
 20
-48.91377106979299
 30
0.0
 11
-0.000206282664498
 21
-48.9293595270611
 31
0.0
  0
LINE
  5
157
330
9E
100
AcDbEntity
  8
0
  6
Continuous
 62
     0
100
AcDbLine
 10
-0.0272062826644983
 20
-48.907771069793
 30
0.0
 11
-0.000206282664498
 21
-48.89218261252487
 31
0.0
  0
LINE
  5
158
330
9E
100
AcDbEntity
  8
0
  6
Continuous
 62
     0
100
AcDbLine
 10
-0.0272062826644983
 20
-48.907771069793
 30
0.0
 11
-0.0272062826644983
 21
-48.91377106979299
 31
0.0
  0
LINE
  5
159
330
9E
100
AcDbEntity
  8
0
  6
Continuous
 62
     0
100
AcDbLine
 10
0.7247937173355071
 20
-48.785771069793
 30
0.0
 11
0.6872937173355071
 21
-48.785771069793
 31
0.0
  0
LINE
  5
15A
330
9E
100
AcDbEntity
  8
0
  6
Continuous
 62
     0
100
AcDbLine
 10
0.5622937173355071
 20
-48.785771069793
 30
0.0
 11
0.5247937173355071
 21
-48.785771069793
 31
0.0
  0
ARC
  5
15B
330
9E
100
AcDbEntity
  8
0
  6
Continuous
 62
     0
100
AcDbCircle
 10
0.624793717335507
 20
-48.70377106979299
 30
0.0
 40
0.188
100
AcDbArc
 50
237.8650719958525
 51
302.1349280041476
  0
LINE
  5
15C
330
9E
100
AcDbEntity
  8
0
  6
Continuous
 62
     0
100
AcDbLine
 10
0.7247937173355071
 20
-48.785771069793
 30
0.0
 11
0.7247937173355068
 21
-48.86296905973005
 31
0.0
  0
LINE
  5
15D
330
9E
100
AcDbEntity
  8
0
  6
Continuous
 62
     0
100
AcDbLine
 10
0.5247937173355071
 20
-48.785771069793
 30
0.0
 11
0.5247937173355073
 21
-48.86296905973005
 31
0.0
  0
ARC
  5
15E
330
9E
100
AcDbEntity
  8
0
  6
Continuous
 62
     0
100
AcDbCircle
 10
0.5302937173355071
 20
-48.76777106979299
 30
0.0
 40
0.032
100
AcDbArc
 50
0.000000000000007
 51
90.0
  0
LINE
  5
15F
330
9E
100
AcDbEntity
  8
0
  6
Continuous
 62
     0
100
AcDbLine
 10
0.5622937173355071
 20
-48.76777106979299
 30
0.0
 11
0.5622937173355071
 21
-48.785771069793
 31
0.0
  0
ARC
  5
160
330
9E
100
AcDbEntity
  8
0
  6
Continuous
 62
     0
100
AcDbCircle
 10
0.719293717335507
 20
-48.76777106979298
 30
0.0
 40
0.032
100
AcDbArc
 50
90.0
 51
180.0
  0
LINE
  5
161
330
9E
100
AcDbEntity
  8
0
  6
Continuous
 62
     0
100
AcDbLine
 10
0.687293717335507
 20
-48.76777106979298
 30
0.0
 11
0.6872937173355071
 21
-48.785771069793
 31
0.0
  0
ENDBLK
  5
162
330
9E
100
AcDbEntity
  8
0
 62
     0
100
AcDbBlockEnd
  0
BLOCK
  5
298
330
297
100
AcDbEntity
  8
0
 62
     0
100
AcDbBlockBegin
  2
snap bottom
 70
     0
 10
0.0
 20
0.0
 30
0.0
  3
snap bottom
  1

  0
ARC
  5
299
330
297
100
AcDbEntity
  8
0
  6
Continuous
 62
     0
100
AcDbCircle
 10
8.146588015093087
 20
-55.6325175405397
 30
0.0
 40
0.054
100
AcDbArc
 50
270.0000000000009
 51
89.99999999999909
  0
LINE
  5
29A
330
297
100
AcDbEntity
  8
0
  6
Continuous
 62
     0
100
AcDbLine
 10
8.084588015093085
 20
-55.26751754053969
 30
0.0
 11
8.084588015093089
 21
-55.87251754053971
 31
0.0
  0
ARC
  5
29B
330
297
100
AcDbEntity
  8
0
  6
Continuous
 62
     0
100
AcDbCircle
 10
6.396588015093087
 20
-55.6325175405397
 30
0.0
 40
0.054
100
AcDbArc
 50
90.0000000000009
 51
269.9999999999991
  0
LINE
  5
29C
330
297
100
AcDbEntity
  8
0
  6
Continuous
 62
     0
100
AcDbLine
 10
6.458588015093087
 20
-55.26751754053969
 30
0.0
 11
6.458588015093085
 21
-55.87251754053971
 31
0.0
  0
LINE
  5
29D
330
297
100
AcDbEntity
  8
0
  6
Continuous
 62
     0
100
AcDbLine
 10
6.031588015093086
 20
-56.00751754053971
 30
0.0
 11
8.511588015093087
 21
-56.0075175405397
 31
0.0
  0
LINE
  5
29E
330
297
100
AcDbEntity
  8
0
  6
Continuous
 62
     0
100
AcDbLine
 10
6.468588015093085
 20
-55.8825175405397
 30
0.0
 11
8.074588015093087
 21
-55.8825175405397
 31
0.0
  0
ARC
  5
29F
330
297
100
AcDbEntity
  8
0
  6
Continuous
 62
     0
100
AcDbCircle
 10
6.386588015093088
 20
-55.87251754053969
 30
0.0
 40
0.01
100
AcDbArc
 50
270.0
 51
0.0000000000002685
  0
LINE
  5
2A0
330
297
100
AcDbEntity
  8
0
  6
Continuous
 62
     0
100
AcDbLine
 10
6.396588015093086
 20
-55.6865175405397
 30
0.0
 11
6.396588015093088
 21
-55.87251754053969
 31
0.0
  0
ARC
  5
2A1
330
297
100
AcDbEntity
  8
0
  6
Continuous
 62
     0
100
AcDbCircle
 10
6.468588015093085
 20
-55.87251754053971
 30
0.0
 40
0.01
100
AcDbArc
 50
179.9999999999999
 51
270.0000000000005
  0
ARC
  5
2A2
330
297
100
AcDbEntity
  8
0
  6
Continuous
 62
     0
100
AcDbCircle
 10
6.093588015093087
 20
-55.8725175405397
 30
0.0
 40
0.01
100
AcDbArc
 50
180.0000000000002
 51
270.0000000000013
  0
LINE
  5
2A3
330
297
100
AcDbEntity
  8
0
  6
Continuous
 62
     0
100
AcDbLine
 10
6.093588015093087
 20
-55.8825175405397
 30
0.0
 11
6.386588015093088
 21
-55.8825175405397
 31
0.0
  0
ARC
  5
2A4
330
297
100
AcDbEntity
  8
0
  6
Continuous
 62
     0
100
AcDbCircle
 10
6.073588015093087
 20
-55.64251754053969
 30
0.0
 40
0.01
100
AcDbArc
 50
0.0000000000002176
 51
90.00000000000003
  0
LINE
  5
2A5
330
297
100
AcDbEntity
  8
0
  6
Continuous
 62
     0
100
AcDbLine
 10
6.083588015093087
 20
-55.64251754053969
 30
0.0
 11
6.083588015093087
 21
-55.8725175405397
 31
0.0
  0
ARC
  5
2A6
330
297
100
AcDbEntity
  8
0
  6
Continuous
 62
     0
100
AcDbCircle
 10
6.031588015093087
 20
-55.64251754053969
 30
0.0
 40
0.01
100
AcDbArc
 50
90.00000000000785
 51
180.0
  0
LINE
  5
2A7
330
297
100
AcDbEntity
  8
0
  6
Continuous
 62
     0
100
AcDbLine
 10
6.031588015093086
 20
-55.6325175405397
 30
0.0
 11
6.073588015093087
 21
-55.63251754053969
 31
0.0
  0
ARC
  5
2A8
330
297
100
AcDbEntity
  8
0
  6
Continuous
 62
     0
100
AcDbCircle
 10
6.031588015093086
 20
-55.99751754053971
 30
0.0
 40
0.01
100
AcDbArc
 50
179.9999999999998
 51
270.0
  0
LINE
  5
2A9
330
297
100
AcDbEntity
  8
0
  6
Continuous
 62
     0
100
AcDbLine
 10
6.021588015093087
 20
-55.99751754053971
 30
0.0
 11
6.021588015093088
 21
-55.64251754053969
 31
0.0
  0
ARC
  5
2AA
330
297
100
AcDbEntity
  8
0
  6
Continuous
 62
     0
100
AcDbCircle
 10
8.511588015093087
 20
-55.9975175405397
 30
0.0
 40
0.01
100
AcDbArc
 50
270.0000000000002
 51
0.0
  0
ARC
  5
2AB
330
297
100
AcDbEntity
  8
0
  6
Continuous
 62
     0
100
AcDbCircle
 10
8.449588015093087
 20
-55.87251754053971
 30
0.0
 40
0.01
100
AcDbArc
 50
269.9999999999987
 51
0.0
  0
ARC
  5
2AC
330
297
100
AcDbEntity
  8
0
  6
Continuous
 62
     0
100
AcDbCircle
 10
8.511588015093087
 20
-55.6425175405397
 30
0.0
 40
0.01
100
AcDbArc
 50
0.0
 51
90.00000000000003
  0
LINE
  5
2AD
330
297
100
AcDbEntity
  8
0
  6
Continuous
 62
     0
100
AcDbLine
 10
8.521588015093087
 20
-55.9975175405397
 30
0.0
 11
8.521588015093087
 21
-55.6425175405397
 31
0.0
  0
ARC
  5
2AE
330
297
100
AcDbEntity
  8
0
  6
Continuous
 62
     0
100
AcDbCircle
 10
8.469588015093089
 20
-55.64251754053969
 30
0.0
 40
0.01
100
AcDbArc
 50
89.99999999999216
 51
180.0
  0
LINE
  5
2AF
330
297
100
AcDbEntity
  8
0
  6
Continuous
 62
     0
100
AcDbLine
 10
8.511588015093087
 20
-55.63251754053971
 30
0.0
 11
8.469588015093091
 21
-55.63251754053969
 31
0.0
  0
LINE
  5
2B0
330
297
100
AcDbEntity
  8
0
  6
Continuous
 62
     0
100
AcDbLine
 10
8.459588015093089
 20
-55.64251754053969
 30
0.0
 11
8.459588015093087
 21
-55.87251754053971
 31
0.0
  0
ARC
  5
2B1
330
297
100
AcDbEntity
  8
0
  6
Continuous
 62
     0
100
AcDbCircle
 10
8.156588015093085
 20
-55.87251754053969
 30
0.0
 40
0.01
100
AcDbArc
 50
179.9999999999997
 51
270.0
  0
LINE
  5
2B2
330
297
100
AcDbEntity
  8
0
  6
Continuous
 62
     0
100
AcDbLine
 10
8.146588015093087
 20
-55.6865175405397
 30
0.0
 11
8.146588015093087
 21
-55.87251754053969
 31
0.0
  0
ARC
  5
2B3
330
297
100
AcDbEntity
  8
0
  6
Continuous
 62
     0
100
AcDbCircle
 10
8.074588015093087
 20
-55.87251754053971
 30
0.0
 40
0.01
100
AcDbArc
 50
269.9999999999995
 51
0.0000000000000649
  0
LINE
  5
2B4
330
297
100
AcDbEntity
  8
0
  6
Continuous
 62
     0
100
AcDbLine
 10
8.156588015093085
 20
-55.8825175405397
 30
0.0
 11
8.449588015093087
 21
-55.8825175405397
 31
0.0
  0
ARC
  5
2B5
330
297
100
AcDbEntity
  8
0
  6
Continuous
 62
     0
100
AcDbCircle
 10
6.406588015093085
 20
-55.31389060749866
 30
0.0
 40
0.01
100
AcDbArc
 50
149.9999999999993
 51
180.0
  0
LINE
  5
2B6
330
297
100
AcDbEntity
  8
0
  6
Continuous
 62
     0
100
AcDbLine
 10
6.396588015093085
 20
-55.31389060749866
 30
0.0
 11
6.396588015093086
 21
-55.5785175405397
 31
0.0
  0
ARC
  5
2B7
330
297
100
AcDbEntity
  8
0
  6
Continuous
 62
     0
100
AcDbCircle
 10
6.433361517784994
 20
-55.26751754053969
 30
0.0
 40
0.01
100
AcDbArc
 50
90.00000000000003
 51
150.0000000000011
  0
LINE
  5
2B8
330
297
100
AcDbEntity
  8
0
  6
Continuous
 62
     0
100
AcDbLine
 10
6.424701263747149
 20
-55.26251754053969
 30
0.0
 11
6.397927761055241
 21
-55.30889060749866
 31
0.0
  0
ARC
  5
2B9
330
297
100
AcDbEntity
  8
0
  6
Continuous
 62
     0
100
AcDbCircle
 10
6.448588015093087
 20
-55.26751754053969
 30
0.0
 40
0.01
100
AcDbArc
 50
0.0
 51
90.00000000000003
  0
LINE
  5
2BA
330
297
100
AcDbEntity
  8
0
  6
Continuous
 62
     0
100
AcDbLine
 10
6.433361517784994
 20
-55.2575175405397
 30
0.0
 11
6.448588015093087
 21
-55.2575175405397
 31
0.0
  0
ARC
  5
2BB
330
297
100
AcDbEntity
  8
0
  6
Continuous
 62
     0
100
AcDbCircle
 10
8.136588015093089
 20
-55.31389060749866
 30
0.0
 40
0.01
100
AcDbArc
 50
0.0
 51
30.00000000000071
  0
LINE
  5
2BC
330
297
100
AcDbEntity
  8
0
  6
Continuous
 62
     0
100
AcDbLine
 10
8.146588015093088
 20
-55.31389060749866
 30
0.0
 11
8.146588015093087
 21
-55.5785175405397
 31
0.0
  0
ARC
  5
2BD
330
297
100
AcDbEntity
  8
0
  6
Continuous
 62
     0
100
AcDbCircle
 10
8.109814512401179
 20
-55.26751754053969
 30
0.0
 40
0.01
100
AcDbArc
 50
29.99999999999893
 51
90.00000000000003
  0
LINE
  5
2BE
330
297
100
AcDbEntity
  8
0
  6
Continuous
 62
     0
100
AcDbLine
 10
8.118474766439025
 20
-55.26251754053969
 30
0.0
 11
8.145248269130933
 21
-55.30889060749866
 31
0.0
  0
ARC
  5
2BF
330
297
100
AcDbEntity
  8
0
  6
Continuous
 62
     0
100
AcDbCircle
 10
8.094588015093087
 20
-55.26751754053969
 30
0.0
 40
0.01
100
AcDbArc
 50
90.00000000000003
 51
180.0
  0
LINE
  5
2C0
330
297
100
AcDbEntity
  8
0
  6
Continuous
 62
     0
100
AcDbLine
 10
8.109814512401179
 20
-55.2575175405397
 30
0.0
 11
8.094588015093087
 21
-55.2575175405397
 31
0.0
  0
ENDBLK
  5
2C1
330
297
100
AcDbEntity
  8
0
 62
     0
100
AcDbBlockEnd
  0
BLOCK
  5
166
330
165
100
AcDbEntity
  8
0
 62
     0
100
AcDbBlockBegin
  2
PURLIN CLIP
 70
     0
 10
0.0
 20
0.0
 30
0.0
  3
PURLIN CLIP
  1

  0
HATCH
  5
167
330
165
100
AcDbEntity
  8
HIDDEN
  6
Continuous
100
AcDbHatch
 10
0.0
 20
0.0
 30
0.0
210
0.0
220
0.0
230
1.0
  2
ANSI31
 70
     0
 71
     1
 91
        4
 92
        7
 72
     0
 73
     1
 93
       10
 10
19.01070570468438
 20
-35.97596295904438
 10
18.88570540109838
 20
-35.97596295969756
 10
18.8857055623056
 20
-36.30322995545127
 10
18.88705236345105
 20
-36.30322996193428
 10
18.90732942125643
 20
-36.33877892462076
 10
18.93503023724924
 20
-36.33892420907537
 10
18.95567768021076
 20
-36.30358897079295
 10
18.97595490414006
 20
-36.33913892167367
 10
19.00365497882779
 20
-36.33928420224027
 10
19.0107058997314
 20
-36.32721796243881
 97
       10
330
28D
330
177
330
1B8
330
192
330
183
330
190
330
18D
330
18C
330
18B
330
176
 92
        7
 72
     0
 73
     1
 93
       11
 10
19.01070591913038
 20
-36.45906780634894
 10
19.00991588164136
 20
-36.45906366279169
 10
18.98926754746218
 20
-36.49439889640612
 10
18.96899147753543
 20
-36.45884977297159
 10
18.94129113088619
 20
-36.45870368536682
 10
18.92064206552721
 20
-36.49403889903688
 10
18.90036582944899
 20
-36.45848948429653
 10
18.89006662644873
 20
-36.49401372240792
 10
18.8857057548116
 20
-36.49401370141629
 10
18.88570578582953
 20
-36.88775664959755
 10
19.01070607424243
 20
-36.88775664960526
 97
       11
330
180
330
182
330
17C
330
18A
330
187
330
186
330
189
330
1B7
330
19D
330
290
330
19C
 92
        7
 72
     0
 73
     1
 93
       10
 10
20.49507441103056
 20
-36.32721796243882
 10
20.50212533193418
 20
-36.33928420224028
 10
20.5298254066219
 20
-36.33913892167366
 10
20.55010263055119
 20
-36.30358897079295
 10
20.57075007351272
 20
-36.33892420907535
 10
20.59845088950552
 20
-36.33877892462076
 10
20.6187279473109
 20
-36.30322996193428
 10
20.62007474845635
 20
-36.30322995545127
 10
20.62007490966358
 20
-35.97596295063471
 10
20.49507460607759
 20
-35.9759629512879
 97
       10
330
28D
330
23F
330
22A
330
229
330
228
330
225
330
232
330
223
330
1FF
330
23E
 92
        7
 72
     0
 73
     1
 93
       11
 10
20.62007455595035
 20
-36.49401370141629
 10
20.61571368431323
 20
-36.49401372240793
 10
20.60541448131298
 20
-36.45848948429654
 10
20.58513824523474
 20
-36.49403889903688
 10
20.56448917987576
 20
-36.45870368536681
 10
20.53678883322652
 20
-36.45884977297159
 10
20.51651276329978
 20
-36.49439889640613
 10
20.4958644291206
 20
-36.45906366279168
 10
20.49507439163157
 20
-36.45906780634893
 10
20.49507423651953
 20
-36.88775664969681
 10
20.62007452493242
 20
-36.88775664970452
 97
       11
330
200
330
22C
330
22F
330
22E
330
22B
330
239
330
233
330
235
330
219
330
290
330
218
 75
     0
 76
     1
 52
0.0
 41
0.25
 77
     0
 78
     1
 53
45.0
 43
0.0
 44
0.0
 45
-0.0220970869120796
 46
0.0220970869120796
 79
     0
 47
0.0029273141127875
 98
        4
 10
18.95100687343751
 20
-36.1753171319744
 10
18.96564898883196
 20
-36.6202691505822
 10
20.53234568512306
 20
-36.15189860467928
 10
20.56455791938589
 20
-36.63783290195374
  0
ARC
  5
168
330
165
100
AcDbEntity
  8
Glazing
  6
Continuous
 62
     5
100
AcDbCircle
 10
20.17335184579016
 20
-36.40152507372832
 30
0.0
 40
0.156336
100
AcDbArc
 50
23.91620309999928
 51
338.2719830700004
  0
ARC
  5
169
330
165
100
AcDbEntity
  8
Glazing
  6
Continuous
 62
     5
100
AcDbCircle
 10
19.33242846497179
 20
-36.40152507372832
 30
0.0
 40
0.156336
100
AcDbArc
 50
201.7280169299997
 51
156.0837969000007
  0
LINE
  5
16A
330
165
100
AcDbEntity
  8
0
  6
Continuous
 62
     0
100
AcDbLine
 10
19.44613504877741
 20
-36.38052598701018
 30
0.0
 11
19.37442863434178
 21
-36.3805254005121
 31
0.0
  0
LINE
  5
16B
330
165
100
AcDbEntity
  8
0
  6
Continuous
 62
     0
100
AcDbLine
 10
19.44613472086772
 20
-36.42252599558732
 30
0.0
 11
19.37442830738076
 21
-36.42252540877289
 31
0.0
  0
LINE
  5
16C
330
165
100
AcDbEntity
  8
0
  6
Continuous
 62
     0
100
AcDbLine
 10
19.44613504877741
 20
-36.38052598701018
 30
0.0
 11
19.37442863434178
 21
-36.3805254005121
 31
0.0
  0
LINE
  5
16D
330
165
100
AcDbEntity
  8
0
  6
Continuous
 62
     0
100
AcDbLine
 10
19.44613472086772
 20
-36.42252599558732
 30
0.0
 11
19.37442830738076
 21
-36.42252540877289
 31
0.0
  0
ARC
  5
16E
330
165
100
AcDbEntity
  8
Glazing
  6
Continuous
 62
     5
100
AcDbCircle
 10
19.33242846497179
 20
-36.40152507372832
 30
0.0
 40
0.156336
100
AcDbArc
 50
201.7280169299997
 51
156.0837969000007
  0
ARC
  5
16F
330
165
100
AcDbEntity
  8
0
  6
Continuous
 62
     0
100
AcDbCircle
 10
19.31603673414988
 20
-36.40152537176336
 30
0.0
 40
0.131782
100
AcDbArc
 50
350.830114900001
 51
9.168986900000877
  0
ARC
  5
170
330
165
100
AcDbEntity
  8
0
  6
Continuous
 62
     0
100
AcDbCircle
 10
19.31603673414988
 20
-36.40152537176336
 30
0.0
 40
0.131782
100
AcDbArc
 50
350.830114900001
 51
9.168986900000877
  0
ARC
  5
171
330
165
100
AcDbEntity
  8
0
  6
Continuous
 62
     0
100
AcDbCircle
 10
18.75288995820901
 20
-36.45719316911877
 30
0.0
 40
0.1302118990505079
100
AcDbArc
 50
180.0
 51
270.0
  0
ARC
  5
172
330
165
100
AcDbEntity
  8
0
  6
Continuous
 62
     0
100
AcDbCircle
 10
18.75288995820901
 20
-36.34261696721978
 30
0.0
 40
0.1302118990505079
100
AcDbArc
 50
90.00000000000305
 51
180.0000000000031
  0
LINE
  5
173
330
165
100
AcDbEntity
  8
0
  6
Continuous
 62
     0
100
AcDbLine
 10
18.6226780591585
 20
-36.45719316911877
 30
0.0
 11
18.6226780591585
 21
-36.34261696721978
 31
0.0
  0
LINE
  5
174
330
165
100
AcDbEntity
  8
0
  6
Continuous
 62
     0
100
AcDbLine
 10
19.14755172537928
 20
-36.45919291485061
 30
0.0
 11
19.17392223858312
 21
-36.45933162716215
 31
0.0
  0
LINE
  5
175
330
165
100
AcDbEntity
  8
0
  6
Continuous
 62
     0
100
AcDbLine
 10
19.17392223858312
 20
-36.45933162716215
 30
0.0
 11
19.17885259383533
 21
-36.46797647162633
 31
0.0
  0
LINE
  5
176
102
{ACAD_REACTORS
330
167
102
}
330
165
100
AcDbEntity
  8
0
  6
Continuous
 62
     0
100
AcDbLine
 10
19.01070570468436
 20
-35.9759629209838
 30
0.0
 11
19.0107058997314
 21
-36.32721796243885
 31
0.0
  0
LINE
  5
177
102
{ACAD_REACTORS
330
167
102
}
330
165
100
AcDbEntity
  8
0
  6
Continuous
 62
     0
100
AcDbLine
 10
18.88570556231255
 20
-36.30324406083718
 30
0.0
 11
18.88570540109838
 21
-35.97596295063471
 31
0.0
  0
LINE
  5
178
330
165
100
AcDbEntity
  8
0
  6
Continuous
 62
     0
100
AcDbLine
 10
19.10679432800186
 20
-36.45957169976127
 30
0.0
 11
19.12707040109192
 21
-36.49512083268225
 31
0.0
  0
LINE
  5
179
330
165
100
AcDbEntity
  8
0
  6
Continuous
 62
     0
100
AcDbLine
 10
19.12707040109192
 20
-36.49512083268225
 30
0.0
 11
19.14771897452253
 21
-36.45978644722018
 31
0.0
  0
LINE
  5
17A
330
165
100
AcDbEntity
  8
0
  6
Continuous
 62
     0
100
AcDbLine
 10
19.00991595793209
 20
-36.45906353223632
 30
0.0
 11
19.04458022089976
 21
-36.33949793053233
 31
0.0
  0
LINE
  5
17B
330
165
100
AcDbEntity
  8
0
  6
Continuous
 62
     0
100
AcDbLine
 10
19.03761580736515
 20
-36.45920894226198
 30
0.0
 11
19.07228006938418
 21
-36.33964334087435
 31
0.0
  0
LINE
  5
17C
102
{ACAD_REACTORS
330
167
102
}
330
165
100
AcDbEntity
  8
0
  6
Continuous
 62
     0
100
AcDbLine
 10
18.96899147753543
 20
-36.45884977297159
 30
0.0
 11
18.98926754746218
 21
-36.49439889640613
 31
0.0
  0
LINE
  5
17D
330
165
100
AcDbEntity
  8
0
  6
Continuous
 62
     0
100
AcDbLine
 10
18.98926754746218
 20
-36.49439889640613
 30
0.0
 11
19.02430316309441
 21
-36.30394896784586
 31
0.0
  0
LINE
  5
17E
330
165
100
AcDbEntity
  8
0
  6
Continuous
 62
     0
100
AcDbLine
 10
19.05789286422189
 20
-36.49475790526478
 30
0.0
 11
19.07854045293715
 21
-36.45942369003724
 31
0.0
  0
LINE
  5
17F
330
165
100
AcDbEntity
  8
0
  6
Continuous
 62
     0
100
AcDbLine
 10
19.07854045293715
 20
-36.45942369003724
 30
0.0
 11
19.10679432800186
 21
-36.45957169976127
 31
0.0
  0
LINE
  5
180
102
{ACAD_REACTORS
330
167
102
}
330
165
100
AcDbEntity
  8
0
  6
Continuous
 62
     0
100
AcDbLine
 10
19.00936291606712
 20
-36.4590607626198
 30
0.0
 11
19.03761580736515
 21
-36.45920894226198
 31
0.0
  0
LINE
  5
181
330
165
100
AcDbEntity
  8
0
  6
Continuous
 62
     0
100
AcDbLine
 10
19.03761580736515
 20
-36.45920894226198
 30
0.0
 11
19.05789286422189
 21
-36.49475790526478
 31
0.0
  0
LINE
  5
182
102
{ACAD_REACTORS
330
167
102
}
330
165
100
AcDbEntity
  8
0
  6
Continuous
 62
     0
100
AcDbLine
 10
18.98926754746218
 20
-36.49439889640613
 30
0.0
 11
19.00991595793209
 21
-36.45906353223632
 31
0.0
  0
LINE
  5
183
102
{ACAD_REACTORS
330
167
102
}
330
165
100
AcDbEntity
  8
0
  6
Continuous
 62
     0
100
AcDbLine
 10
18.9355823116058
 20
-36.3389271045793
 30
0.0
 11
18.90732942125644
 21
-36.33877892462076
 31
0.0
  0
LINE
  5
184
330
165
100
AcDbEntity
  8
0
  6
Continuous
 62
     0
100
AcDbLine
 10
18.90732942125644
 20
-36.33877892462076
 30
0.0
 11
18.88705251602454
 21
-36.40872053571006
 31
0.0
  0
LINE
  5
185
330
165
100
AcDbEntity
  8
0
  6
Continuous
 62
     0
100
AcDbLine
 10
19.07283311124913
 20
-36.33964611049087
 30
0.0
 11
19.04458022089976
 21
-36.33949793053233
 31
0.0
  0
LINE
  5
186
102
{ACAD_REACTORS
330
167
102
}
330
165
100
AcDbEntity
  8
0
  6
Continuous
 62
     0
100
AcDbLine
 10
18.9003659956004
 20
-36.45848977560236
 30
0.0
 11
18.92064206552721
 21
-36.49403889903688
 31
0.0
  0
LINE
  5
187
102
{ACAD_REACTORS
330
167
102
}
330
165
100
AcDbEntity
  8
0
  6
Continuous
 62
     0
100
AcDbLine
 10
18.92064206552721
 20
-36.49403889903688
 30
0.0
 11
18.94129064117244
 21
-36.45870452337765
 31
0.0
  0
LINE
  5
188
330
165
100
AcDbEntity
  8
0
  6
Continuous
 62
     0
100
AcDbLine
 10
19.04458022089976
 20
-36.33949793053233
 30
0.0
 11
19.02430316309441
 21
-36.30394896784586
 31
0.0
  0
LINE
  5
189
102
{ACAD_REACTORS
330
167
102
}
330
165
100
AcDbEntity
  8
0
  6
Continuous
 62
     0
100
AcDbLine
 10
18.89006662644873
 20
-36.49401372240793
 30
0.0
 11
18.9350302576194
 21
-36.33892417421466
 31
0.0
  0
LINE
  5
18A
102
{ACAD_REACTORS
330
167
102
}
330
165
100
AcDbEntity
  8
0
  6
Continuous
 62
     0
100
AcDbLine
 10
18.94073743413215
 20
-36.45870076525056
 30
0.0
 11
18.96899147753543
 21
-36.45884977297159
 31
0.0
  0
LINE
  5
18B
102
{ACAD_REACTORS
330
167
102
}
330
165
100
AcDbEntity
  8
0
  6
Continuous
 62
     0
100
AcDbLine
 10
19.02430316309441
 20
-36.30394896784586
 30
0.0
 11
19.0036555743791
 21
-36.33928318307339
 31
0.0
  0
LINE
  5
18C
102
{ACAD_REACTORS
330
167
102
}
330
165
100
AcDbEntity
  8
0
  6
Continuous
 62
     0
100
AcDbLine
 10
19.00420779448947
 20
-36.33928710163218
 30
0.0
 11
18.97595490414006
 21
-36.33913892167367
 31
0.0
  0
LINE
  5
18D
102
{ACAD_REACTORS
330
167
102
}
330
165
100
AcDbEntity
  8
0
  6
Continuous
 62
     0
100
AcDbLine
 10
18.97595490414006
 20
-36.33913892167367
 30
0.0
 11
18.95567768021076
 21
-36.30358897079296
 31
0.0
  0
LINE
  5
18E
330
165
100
AcDbEntity
  8
0
  6
Continuous
 62
     0
100
AcDbLine
 10
18.94129064117244
 20
-36.45870452337765
 30
0.0
 11
18.97595490414006
 21
-36.33913892167367
 31
0.0
  0
LINE
  5
18F
330
165
100
AcDbEntity
  8
0
  6
Continuous
 62
     0
100
AcDbLine
 10
18.92064206552721
 20
-36.49403889903688
 30
0.0
 11
18.95567768021076
 21
-36.30358897079296
 31
0.0
  0
LINE
  5
190
102
{ACAD_REACTORS
330
167
102
}
330
165
100
AcDbEntity
  8
0
  6
Continuous
 62
     0
100
AcDbLine
 10
18.95567768021076
 20
-36.30358897079296
 30
0.0
 11
18.9350302576194
 21
-36.33892417421466
 31
0.0
  0
LINE
  5
191
330
165
100
AcDbEntity
  8
0
  6
Continuous
 62
     0
100
AcDbLine
 10
18.96899147753543
 20
-36.45884977297159
 30
0.0
 11
19.0036555743791
 21
-36.33928318307339
 31
0.0
  0
LINE
  5
192
102
{ACAD_REACTORS
330
167
102
}
330
165
100
AcDbEntity
  8
0
  6
Continuous
 62
     0
100
AcDbLine
 10
18.90732942125644
 20
-36.33877892462076
 30
0.0
 11
18.88705236345105
 21
-36.30322996193428
 31
0.0
  0
LINE
  5
193
330
165
100
AcDbEntity
  8
0
  6
Continuous
 62
     0
100
AcDbLine
 10
18.88705236345105
 20
-36.30322996193428
 30
0.0
 11
18.88705251602454
 21
-36.40872053571006
 31
0.0
  0
LINE
  5
194
330
165
100
AcDbEntity
  8
0
  6
Continuous
 62
     0
100
AcDbLine
 10
19.12707040109192
 20
-36.49512083268225
 30
0.0
 11
19.16210617968481
 21
-36.30467188282973
 31
0.0
  0
LINE
  5
195
330
165
100
AcDbEntity
  8
0
  6
Continuous
 62
     0
100
AcDbLine
 10
19.14201064495591
 20
-36.34000902842184
 30
0.0
 11
19.11375775776979
 21
-36.33986085794983
 31
0.0
  0
LINE
  5
196
330
165
100
AcDbEntity
  8
0
  6
Continuous
 62
     0
100
AcDbLine
 10
19.10679432800186
 20
-36.45957169976127
 30
0.0
 11
19.14145859413279
 21
-36.34000610754374
 31
0.0
  0
LINE
  5
197
330
165
100
AcDbEntity
  8
0
  6
Continuous
 62
     0
100
AcDbLine
 10
19.16210617968481
 20
-36.30467188282973
 30
0.0
 11
19.14145859413279
 21
-36.34000610754374
 31
0.0
  0
LINE
  5
198
330
165
100
AcDbEntity
  8
0
  6
Continuous
 62
     0
100
AcDbLine
 10
19.07854045293715
 20
-36.45942369003724
 30
0.0
 11
19.11320471590483
 21
-36.33985808833327
 31
0.0
  0
LINE
  5
199
330
165
100
AcDbEntity
  8
0
  6
Continuous
 62
     0
100
AcDbLine
 10
19.05789286422189
 20
-36.49475790526478
 30
0.0
 11
19.09292864597806
 21
-36.30430896489878
 31
0.0
  0
LINE
  5
19A
330
165
100
AcDbEntity
  8
0
  6
Continuous
 62
     0
100
AcDbLine
 10
19.11320471590483
 20
-36.33985808833327
 30
0.0
 11
19.09292864597806
 21
-36.30430896489878
 31
0.0
  0
LINE
  5
19B
330
165
100
AcDbEntity
  8
0
  6
Continuous
 62
     0
100
AcDbLine
 10
19.09292864597806
 20
-36.30430896489878
 30
0.0
 11
19.07228006938418
 21
-36.33964334087435
 31
0.0
  0
LINE
  5
19C
102
{ACAD_REACTORS
330
167
102
}
330
165
100
AcDbEntity
  8
0
  6
Continuous
 62
     0
100
AcDbLine
 10
19.01070591913038
 20
-36.45906780634886
 30
0.0
 11
19.01070607424243
 21
-36.8877566496968
 31
0.0
  0
LINE
  5
19D
102
{ACAD_REACTORS
330
167
102
}
330
165
100
AcDbEntity
  8
0
  6
Continuous
 62
     0
100
AcDbLine
 10
18.88570578582954
 20
-36.88775664970452
 30
0.0
 11
18.8857057548116
 21
-36.49401370141631
 31
0.0
  0
LINE
  5
19E
330
165
100
AcDbEntity
  8
0
  6
Continuous
 62
     0
100
AcDbLine
 10
19.25775589311198
 20
-36.39989771059901
 30
0.0
 11
19.22334173974316
 21
-36.45959099591167
 31
0.0
  0
LINE
  5
19F
330
165
100
AcDbEntity
  8
0
  6
Continuous
 62
     0
100
AcDbLine
 10
19.18272283311606
 20
-36.33811188666718
 30
0.0
 11
19.2237883669855
 21
-36.33832637417011
 31
0.0
  0
LINE
  5
1A0
330
165
100
AcDbEntity
  8
0
  6
Continuous
 62
     0
100
AcDbLine
 10
19.29042829560181
 20
-36.42252474694454
 30
0.0
 11
19.24471040892353
 21
-36.42252502704208
 31
0.0
  0
LINE
  5
1A1
330
165
100
AcDbEntity
  8
0
  6
Continuous
 62
     0
100
AcDbLine
 10
19.29042862667478
 20
-36.38052474785397
 30
0.0
 11
19.24706805514196
 21
-36.38052497030624
 31
0.0
  0
LINE
  5
1A2
330
165
100
AcDbEntity
  8
0
  6
Continuous
 62
     0
100
AcDbLine
 10
19.2237883669855
 20
-36.33832637417011
 30
0.0
 11
19.25775589311198
 21
-36.39989771059901
 31
0.0
  0
ARC
  5
1A3
330
165
100
AcDbEntity
  8
0
  6
Continuous
 62
     0
100
AcDbCircle
 10
19.33242871633834
 20
-36.38546378537057
 30
0.0
 40
0.131782
100
AcDbArc
 50
260.8301149300001
 51
279.1689869290015
  0
LINE
  5
1A4
330
165
100
AcDbEntity
  8
0
  6
Continuous
 62
     0
100
AcDbLine
 10
19.31142813372154
 20
-36.44352491170969
 30
0.0
 11
19.31142792354484
 21
-36.51556078800541
 31
0.0
  0
ARC
  5
1A5
330
165
100
AcDbEntity
  8
0
  6
Continuous
 62
     0
100
AcDbCircle
 10
19.29042813259559
 20
-36.44352475091678
 30
0.0
 40
0.021
100
AcDbArc
 50
359.9995508999989
 51
89.99955090000099
  0
ARC
  5
1A6
330
165
100
AcDbEntity
  8
0
  6
Continuous
 62
     0
100
AcDbCircle
 10
19.37442879829664
 20
-36.35952539622349
 30
0.0
 40
0.021
100
AcDbArc
 50
179.9995508999997
 51
269.9995509299998
  0
LINE
  5
1A7
330
165
100
AcDbEntity
  8
0
  6
Continuous
 62
     0
100
AcDbLine
 10
19.31142972602673
 20
-36.2878387154978
 30
0.0
 11
19.31142879175555
 21
-36.3595249043583
 31
0.0
  0
LINE
  5
1A8
330
165
100
AcDbEntity
  8
0
  6
Continuous
 62
     0
100
AcDbLine
 10
19.3534297282786
 20
-36.28783903708356
 30
0.0
 11
19.35342879717071
 21
-36.35952523543063
 31
0.0
  0
ARC
  5
1A9
330
165
100
AcDbEntity
  8
0
  6
Continuous
 62
     0
100
AcDbCircle
 10
19.33242795076976
 20
-36.41793620995294
 30
0.0
 40
0.131782
100
AcDbArc
 50
80.83011490000023
 51
99.16898690000129
  0
ARC
  5
1AA
330
165
100
AcDbEntity
  8
0
  6
Continuous
 62
     0
100
AcDbCircle
 10
19.37442814342592
 20
-36.44352541306139
 30
0.0
 40
0.021
100
AcDbArc
 50
89.99955090000099
 51
179.9995508999997
  0
LINE
  5
1AB
330
165
100
AcDbEntity
  8
2
  6
CENTER
 62
     4
100
AcDbLine
 10
19.39660967868074
 20
-36.4015256195114
 30
0.0
 11
19.26824741738682
 21
-36.40152551613942
 31
0.0
  0
ARC
  5
1AE
330
165
100
AcDbEntity
  8
0
  6
Continuous
 62
     0
100
AcDbCircle
 10
19.29042879062959
 20
-36.35952474356539
 30
0.0
 40
0.021
100
AcDbArc
 50
269.9995509299998
 51
359.9995508999989
  0
LINE
  5
1AF
330
165
100
AcDbEntity
  8
0
  6
Continuous
 62
     0
100
AcDbLine
 10
19.35342813913668
 20
-36.44352524278197
 30
0.0
 11
19.35342792896
 21
-36.51556111907773
 31
0.0
  0
LINE
  5
1B0
330
165
100
AcDbEntity
  8
2
  6
CENTER
 62
     4
100
AcDbLine
 10
19.33242917845984
 20
-36.33734484663234
 30
0.0
 11
19.33242791760775
 21
-36.46570628901856
 31
0.0
  0
LINE
  5
1B1
330
165
100
AcDbEntity
  8
0
  6
Continuous
 62
     0
100
AcDbLine
 10
19.14771897452253
 20
-36.45978644722018
 30
0.0
 11
19.18238323654155
 21
-36.34022084583254
 31
0.0
  0
LINE
  5
1B2
330
165
100
AcDbEntity
  8
0
  6
Continuous
 62
     0
100
AcDbLine
 10
19.18238323654155
 20
-36.34022084583254
 30
0.0
 11
19.16210617968481
 21
-36.30467188282973
 31
0.0
  0
LINE
  5
1B3
330
165
100
AcDbEntity
  8
0
  6
Continuous
 62
     0
100
AcDbLine
 10
19.17392223858312
 20
-36.45933162716215
 30
0.0
 11
19.17904424646606
 21
-36.43148847403376
 31
0.0
  0
LINE
  5
1B4
330
165
100
AcDbEntity
  8
0
  6
Continuous
 62
     0
100
AcDbLine
 10
19.17885259383533
 20
-36.46797647162633
 30
0.0
 11
19.17904424646606
 21
-36.43148847403376
 31
0.0
  0
LINE
  5
1B5
330
165
100
AcDbEntity
  8
0
  6
Continuous
 62
     0
100
AcDbLine
 10
19.17889779403028
 20
-36.45935782513894
 30
0.0
 11
19.22334173974316
 21
-36.45959099591167
 31
0.0
  0
LINE
  5
1B6
330
165
100
AcDbEntity
  8
0
  6
Continuous
 62
     0
100
AcDbLine
 10
18.752889958209
 20
-36.21240506816928
 30
0.0
 11
18.75288995820901
 21
-36.58740506816928
 31
0.0
  0
LINE
  5
1B7
102
{ACAD_REACTORS
330
167
102
}
330
165
100
AcDbEntity
  8
0
  6
Continuous
 62
     0
100
AcDbLine
 10
18.75288995820901
 20
-36.49401306208977
 30
0.0
 11
18.89006662644873
 21
-36.49401372240793
 31
0.0
  0
LINE
  5
1B8
102
{ACAD_REACTORS
330
167
102
}
330
165
100
AcDbEntity
  8
0
  6
Continuous
 62
     0
100
AcDbLine
 10
18.752889958209
 20
-36.30322931612568
 30
0.0
 11
18.88705236345105
 21
-36.30322996193428
 31
0.0
  0
ARC
  5
1B9
330
165
100
AcDbEntity
  8
0
  6
Continuous
 62
     0
100
AcDbCircle
 10
18.75288995820901
 20
-36.45719316911877
 30
0.0
 40
0.1302118990505079
100
AcDbArc
 50
180.0
 51
270.0
  0
ARC
  5
1BA
330
165
100
AcDbEntity
  8
0
  6
Continuous
 62
     0
100
AcDbCircle
 10
18.75288995820901
 20
-36.34261696721978
 30
0.0
 40
0.1302118990505079
100
AcDbArc
 50
90.00000000000305
 51
180.0000000000031
  0
LINE
  5
1BB
330
165
100
AcDbEntity
  8
0
  6
Continuous
 62
     0
100
AcDbLine
 10
18.6226780591585
 20
-36.45719316911877
 30
0.0
 11
18.6226780591585
 21
-36.34261696721978
 31
0.0
  0
LINE
  5
1BC
330
165
100
AcDbEntity
  8
0
  6
Continuous
 62
     0
100
AcDbLine
 10
19.14755172537928
 20
-36.45919291485061
 30
0.0
 11
19.17392223858312
 21
-36.45933162716215
 31
0.0
  0
LINE
  5
1BD
330
165
100
AcDbEntity
  8
0
  6
Continuous
 62
     0
100
AcDbLine
 10
19.17392223858312
 20
-36.45933162716215
 30
0.0
 11
19.17885259383533
 21
-36.46797647162633
 31
0.0
  0
LINE
  5
1BE
330
165
100
AcDbEntity
  8
0
  6
Continuous
 62
     0
100
AcDbLine
 10
19.01070570468436
 20
-35.9759629209838
 30
0.0
 11
19.0107058997314
 21
-36.32721796243885
 31
0.0
  0
LINE
  5
1BF
330
165
100
AcDbEntity
  8
0
  6
Continuous
 62
     0
100
AcDbLine
 10
18.88570556231255
 20
-36.30324406083718
 30
0.0
 11
18.88570540109838
 21
-35.97596295063471
 31
0.0
  0
LINE
  5
1C0
330
165
100
AcDbEntity
  8
0
  6
Continuous
 62
     0
100
AcDbLine
 10
19.10679432800186
 20
-36.45957169976127
 30
0.0
 11
19.12707040109192
 21
-36.49512083268225
 31
0.0
  0
LINE
  5
1C1
330
165
100
AcDbEntity
  8
0
  6
Continuous
 62
     0
100
AcDbLine
 10
19.12707040109192
 20
-36.49512083268225
 30
0.0
 11
19.14771897452253
 21
-36.45978644722018
 31
0.0
  0
LINE
  5
1C2
330
165
100
AcDbEntity
  8
0
  6
Continuous
 62
     0
100
AcDbLine
 10
19.00991595793209
 20
-36.45906353223632
 30
0.0
 11
19.04458022089976
 21
-36.33949793053233
 31
0.0
  0
LINE
  5
1C3
330
165
100
AcDbEntity
  8
0
  6
Continuous
 62
     0
100
AcDbLine
 10
19.03761580736515
 20
-36.45920894226198
 30
0.0
 11
19.07228006938418
 21
-36.33964334087435
 31
0.0
  0
LINE
  5
1C4
330
165
100
AcDbEntity
  8
0
  6
Continuous
 62
     0
100
AcDbLine
 10
18.96899147753543
 20
-36.45884977297159
 30
0.0
 11
18.98926754746218
 21
-36.49439889640613
 31
0.0
  0
LINE
  5
1C5
330
165
100
AcDbEntity
  8
0
  6
Continuous
 62
     0
100
AcDbLine
 10
18.98926754746218
 20
-36.49439889640613
 30
0.0
 11
19.02430316309441
 21
-36.30394896784586
 31
0.0
  0
LINE
  5
1C6
330
165
100
AcDbEntity
  8
0
  6
Continuous
 62
     0
100
AcDbLine
 10
19.05789286422189
 20
-36.49475790526478
 30
0.0
 11
19.07854045293715
 21
-36.45942369003724
 31
0.0
  0
LINE
  5
1C7
330
165
100
AcDbEntity
  8
0
  6
Continuous
 62
     0
100
AcDbLine
 10
19.07854045293715
 20
-36.45942369003724
 30
0.0
 11
19.10679432800186
 21
-36.45957169976127
 31
0.0
  0
LINE
  5
1C8
330
165
100
AcDbEntity
  8
0
  6
Continuous
 62
     0
100
AcDbLine
 10
19.00936291606712
 20
-36.4590607626198
 30
0.0
 11
19.03761580736515
 21
-36.45920894226198
 31
0.0
  0
LINE
  5
1C9
330
165
100
AcDbEntity
  8
0
  6
Continuous
 62
     0
100
AcDbLine
 10
19.03761580736515
 20
-36.45920894226198
 30
0.0
 11
19.05789286422189
 21
-36.49475790526478
 31
0.0
  0
LINE
  5
1CA
330
165
100
AcDbEntity
  8
0
  6
Continuous
 62
     0
100
AcDbLine
 10
18.98926754746218
 20
-36.49439889640613
 30
0.0
 11
19.00991595793209
 21
-36.45906353223632
 31
0.0
  0
LINE
  5
1CB
330
165
100
AcDbEntity
  8
0
  6
Continuous
 62
     0
100
AcDbLine
 10
18.9355823116058
 20
-36.3389271045793
 30
0.0
 11
18.90732942125644
 21
-36.33877892462076
 31
0.0
  0
LINE
  5
1CC
330
165
100
AcDbEntity
  8
0
  6
Continuous
 62
     0
100
AcDbLine
 10
18.90732942125644
 20
-36.33877892462076
 30
0.0
 11
18.88705251602454
 21
-36.40872053571006
 31
0.0
  0
LINE
  5
1CD
330
165
100
AcDbEntity
  8
0
  6
Continuous
 62
     0
100
AcDbLine
 10
19.07283311124913
 20
-36.33964611049087
 30
0.0
 11
19.04458022089976
 21
-36.33949793053233
 31
0.0
  0
LINE
  5
1CE
330
165
100
AcDbEntity
  8
0
  6
Continuous
 62
     0
100
AcDbLine
 10
18.9003659956004
 20
-36.45848977560236
 30
0.0
 11
18.92064206552721
 21
-36.49403889903688
 31
0.0
  0
LINE
  5
1CF
330
165
100
AcDbEntity
  8
0
  6
Continuous
 62
     0
100
AcDbLine
 10
18.92064206552721
 20
-36.49403889903688
 30
0.0
 11
18.94129064117244
 21
-36.45870452337765
 31
0.0
  0
LINE
  5
1D0
330
165
100
AcDbEntity
  8
0
  6
Continuous
 62
     0
100
AcDbLine
 10
19.04458022089976
 20
-36.33949793053233
 30
0.0
 11
19.02430316309441
 21
-36.30394896784586
 31
0.0
  0
LINE
  5
1D1
330
165
100
AcDbEntity
  8
0
  6
Continuous
 62
     0
100
AcDbLine
 10
18.89006662644873
 20
-36.49401372240793
 30
0.0
 11
18.9350302576194
 21
-36.33892417421466
 31
0.0
  0
LINE
  5
1D2
330
165
100
AcDbEntity
  8
0
  6
Continuous
 62
     0
100
AcDbLine
 10
18.94073743413215
 20
-36.45870076525056
 30
0.0
 11
18.96899147753543
 21
-36.45884977297159
 31
0.0
  0
LINE
  5
1D3
330
165
100
AcDbEntity
  8
0
  6
Continuous
 62
     0
100
AcDbLine
 10
19.02430316309441
 20
-36.30394896784586
 30
0.0
 11
19.0036555743791
 21
-36.33928318307339
 31
0.0
  0
LINE
  5
1D4
330
165
100
AcDbEntity
  8
0
  6
Continuous
 62
     0
100
AcDbLine
 10
19.00420779448947
 20
-36.33928710163218
 30
0.0
 11
18.97595490414006
 21
-36.33913892167367
 31
0.0
  0
LINE
  5
1D5
330
165
100
AcDbEntity
  8
0
  6
Continuous
 62
     0
100
AcDbLine
 10
18.97595490414006
 20
-36.33913892167367
 30
0.0
 11
18.95567768021076
 21
-36.30358897079296
 31
0.0
  0
LINE
  5
1D6
330
165
100
AcDbEntity
  8
0
  6
Continuous
 62
     0
100
AcDbLine
 10
18.94129064117244
 20
-36.45870452337765
 30
0.0
 11
18.97595490414006
 21
-36.33913892167367
 31
0.0
  0
LINE
  5
1D7
330
165
100
AcDbEntity
  8
0
  6
Continuous
 62
     0
100
AcDbLine
 10
18.92064206552721
 20
-36.49403889903688
 30
0.0
 11
18.95567768021076
 21
-36.30358897079296
 31
0.0
  0
LINE
  5
1D8
330
165
100
AcDbEntity
  8
0
  6
Continuous
 62
     0
100
AcDbLine
 10
18.95567768021076
 20
-36.30358897079296
 30
0.0
 11
18.9350302576194
 21
-36.33892417421466
 31
0.0
  0
LINE
  5
1D9
330
165
100
AcDbEntity
  8
0
  6
Continuous
 62
     0
100
AcDbLine
 10
18.96899147753543
 20
-36.45884977297159
 30
0.0
 11
19.0036555743791
 21
-36.33928318307339
 31
0.0
  0
LINE
  5
1DA
330
165
100
AcDbEntity
  8
0
  6
Continuous
 62
     0
100
AcDbLine
 10
18.90732942125644
 20
-36.33877892462076
 30
0.0
 11
18.88705236345105
 21
-36.30322996193428
 31
0.0
  0
LINE
  5
1DB
330
165
100
AcDbEntity
  8
0
  6
Continuous
 62
     0
100
AcDbLine
 10
18.88705236345105
 20
-36.30322996193428
 30
0.0
 11
18.88705251602454
 21
-36.40872053571006
 31
0.0
  0
LINE
  5
1DC
330
165
100
AcDbEntity
  8
0
  6
Continuous
 62
     0
100
AcDbLine
 10
19.12707040109192
 20
-36.49512083268225
 30
0.0
 11
19.16210617968481
 21
-36.30467188282973
 31
0.0
  0
LINE
  5
1DD
330
165
100
AcDbEntity
  8
0
  6
Continuous
 62
     0
100
AcDbLine
 10
19.14201064495591
 20
-36.34000902842184
 30
0.0
 11
19.11375775776979
 21
-36.33986085794983
 31
0.0
  0
LINE
  5
1DE
330
165
100
AcDbEntity
  8
0
  6
Continuous
 62
     0
100
AcDbLine
 10
19.10679432800186
 20
-36.45957169976127
 30
0.0
 11
19.14145859413279
 21
-36.34000610754374
 31
0.0
  0
LINE
  5
1DF
330
165
100
AcDbEntity
  8
0
  6
Continuous
 62
     0
100
AcDbLine
 10
19.16210617968481
 20
-36.30467188282973
 30
0.0
 11
19.14145859413279
 21
-36.34000610754374
 31
0.0
  0
LINE
  5
1E0
330
165
100
AcDbEntity
  8
0
  6
Continuous
 62
     0
100
AcDbLine
 10
19.07854045293715
 20
-36.45942369003724
 30
0.0
 11
19.11320471590483
 21
-36.33985808833327
 31
0.0
  0
LINE
  5
1E1
330
165
100
AcDbEntity
  8
0
  6
Continuous
 62
     0
100
AcDbLine
 10
19.05789286422189
 20
-36.49475790526478
 30
0.0
 11
19.09292864597806
 21
-36.30430896489878
 31
0.0
  0
LINE
  5
1E2
330
165
100
AcDbEntity
  8
0
  6
Continuous
 62
     0
100
AcDbLine
 10
19.11320471590483
 20
-36.33985808833327
 30
0.0
 11
19.09292864597806
 21
-36.30430896489878
 31
0.0
  0
LINE
  5
1E3
330
165
100
AcDbEntity
  8
0
  6
Continuous
 62
     0
100
AcDbLine
 10
19.09292864597806
 20
-36.30430896489878
 30
0.0
 11
19.07228006938418
 21
-36.33964334087435
 31
0.0
  0
LINE
  5
1E4
330
165
100
AcDbEntity
  8
0
  6
Continuous
 62
     0
100
AcDbLine
 10
19.01070591913038
 20
-36.45906780634886
 30
0.0
 11
19.01070607424243
 21
-36.8877566496968
 31
0.0
  0
LINE
  5
1E5
330
165
100
AcDbEntity
  8
0
  6
Continuous
 62
     0
100
AcDbLine
 10
18.88570578582954
 20
-36.88775664970452
 30
0.0
 11
18.8857057548116
 21
-36.49401370141631
 31
0.0
  0
LINE
  5
1E6
330
165
100
AcDbEntity
  8
0
  6
Continuous
 62
     0
100
AcDbLine
 10
19.25775589311198
 20
-36.39989771059901
 30
0.0
 11
19.22334173974316
 21
-36.45959099591167
 31
0.0
  0
LINE
  5
1E7
330
165
100
AcDbEntity
  8
0
  6
Continuous
 62
     0
100
AcDbLine
 10
19.18272283311606
 20
-36.33811188666718
 30
0.0
 11
19.2237883669855
 21
-36.33832637417011
 31
0.0
  0
LINE
  5
1E8
330
165
100
AcDbEntity
  8
0
  6
Continuous
 62
     0
100
AcDbLine
 10
19.29042829560181
 20
-36.42252474694454
 30
0.0
 11
19.24471040892353
 21
-36.42252502704208
 31
0.0
  0
LINE
  5
1E9
330
165
100
AcDbEntity
  8
0
  6
Continuous
 62
     0
100
AcDbLine
 10
19.29042862667478
 20
-36.38052474785397
 30
0.0
 11
19.24706805514196
 21
-36.38052497030624
 31
0.0
  0
LINE
  5
1EA
330
165
100
AcDbEntity
  8
0
  6
Continuous
 62
     0
100
AcDbLine
 10
19.2237883669855
 20
-36.33832637417011
 30
0.0
 11
19.25775589311198
 21
-36.39989771059901
 31
0.0
  0
ARC
  5
1EB
330
165
100
AcDbEntity
  8
0
  6
Continuous
 62
     0
100
AcDbCircle
 10
19.33242871633834
 20
-36.38546378537057
 30
0.0
 40
0.131782
100
AcDbArc
 50
260.8301149300001
 51
279.1689869290015
  0
LINE
  5
1EC
330
165
100
AcDbEntity
  8
0
  6
Continuous
 62
     0
100
AcDbLine
 10
19.31142813372154
 20
-36.44352491170969
 30
0.0
 11
19.31142792354484
 21
-36.51556078800541
 31
0.0
  0
ARC
  5
1ED
330
165
100
AcDbEntity
  8
0
  6
Continuous
 62
     0
100
AcDbCircle
 10
19.29042813259559
 20
-36.44352475091678
 30
0.0
 40
0.021
100
AcDbArc
 50
359.9995508999989
 51
89.99955090000099
  0
ARC
  5
1EE
330
165
100
AcDbEntity
  8
0
  6
Continuous
 62
     0
100
AcDbCircle
 10
19.37442879829664
 20
-36.35952539622349
 30
0.0
 40
0.021
100
AcDbArc
 50
179.9995508999997
 51
269.9995509299998
  0
LINE
  5
1EF
330
165
100
AcDbEntity
  8
0
  6
Continuous
 62
     0
100
AcDbLine
 10
19.31142972602673
 20
-36.2878387154978
 30
0.0
 11
19.31142879175555
 21
-36.3595249043583
 31
0.0
  0
LINE
  5
1F0
330
165
100
AcDbEntity
  8
0
  6
Continuous
 62
     0
100
AcDbLine
 10
19.3534297282786
 20
-36.28783903708356
 30
0.0
 11
19.35342879717071
 21
-36.35952523543063
 31
0.0
  0
ARC
  5
1F1
330
165
100
AcDbEntity
  8
0
  6
Continuous
 62
     0
100
AcDbCircle
 10
19.33242795076976
 20
-36.41793620995294
 30
0.0
 40
0.131782
100
AcDbArc
 50
80.83011490000023
 51
99.16898690000129
  0
ARC
  5
1F2
330
165
100
AcDbEntity
  8
0
  6
Continuous
 62
     0
100
AcDbCircle
 10
19.37442814342592
 20
-36.44352541306139
 30
0.0
 40
0.021
100
AcDbArc
 50
89.99955090000099
 51
179.9995508999997
  0
LINE
  5
1F3
330
165
100
AcDbEntity
  8
2
  6
CENTER
 62
     4
100
AcDbLine
 10
19.39660967868074
 20
-36.4015256195114
 30
0.0
 11
19.26824741738682
 21
-36.40152551613942
 31
0.0
  0
ARC
  5
1F4
330
165
100
AcDbEntity
  8
0
  6
Continuous
 62
     0
100
AcDbCircle
 10
19.29042879062959
 20
-36.35952474356539
 30
0.0
 40
0.021
100
AcDbArc
 50
269.9995509299998
 51
359.9995508999989
  0
LINE
  5
1F5
330
165
100
AcDbEntity
  8
0
  6
Continuous
 62
     0
100
AcDbLine
 10
19.35342813913668
 20
-36.44352524278197
 30
0.0
 11
19.35342792896
 21
-36.51556111907773
 31
0.0
  0
LINE
  5
1F6
330
165
100
AcDbEntity
  8
2
  6
CENTER
 62
     4
100
AcDbLine
 10
19.33242917845984
 20
-36.33734484663234
 30
0.0
 11
19.33242791760775
 21
-36.46570628901856
 31
0.0
  0
LINE
  5
1F7
330
165
100
AcDbEntity
  8
0
  6
Continuous
 62
     0
100
AcDbLine
 10
19.14771897452253
 20
-36.45978644722018
 30
0.0
 11
19.18238323654155
 21
-36.34022084583254
 31
0.0
  0
LINE
  5
1F8
330
165
100
AcDbEntity
  8
0
  6
Continuous
 62
     0
100
AcDbLine
 10
19.18238323654155
 20
-36.34022084583254
 30
0.0
 11
19.16210617968481
 21
-36.30467188282973
 31
0.0
  0
LINE
  5
1F9
330
165
100
AcDbEntity
  8
0
  6
Continuous
 62
     0
100
AcDbLine
 10
19.17392223858312
 20
-36.45933162716215
 30
0.0
 11
19.17904424646606
 21
-36.43148847403376
 31
0.0
  0
LINE
  5
1FA
330
165
100
AcDbEntity
  8
0
  6
Continuous
 62
     0
100
AcDbLine
 10
19.17885259383533
 20
-36.46797647162633
 30
0.0
 11
19.17904424646606
 21
-36.43148847403376
 31
0.0
  0
LINE
  5
1FB
330
165
100
AcDbEntity
  8
0
  6
Continuous
 62
     0
100
AcDbLine
 10
19.17889779403028
 20
-36.45935782513894
 30
0.0
 11
19.22334173974316
 21
-36.45959099591167
 31
0.0
  0
LINE
  5
1FC
330
165
100
AcDbEntity
  8
0
  6
Continuous
 62
     0
100
AcDbLine
 10
18.752889958209
 20
-36.21240506816928
 30
0.0
 11
18.75288995820901
 21
-36.58740506816928
 31
0.0
  0
LINE
  5
1FD
330
165
100
AcDbEntity
  8
0
  6
Continuous
 62
     0
100
AcDbLine
 10
18.75288995820901
 20
-36.49401306208977
 30
0.0
 11
18.89006662644873
 21
-36.49401372240793
 31
0.0
  0
LINE
  5
1FE
330
165
100
AcDbEntity
  8
0
  6
Continuous
 62
     0
100
AcDbLine
 10
18.752889958209
 20
-36.30322931612568
 30
0.0
 11
18.88705236345105
 21
-36.30322996193428
 31
0.0
  0
LINE
  5
1FF
102
{ACAD_REACTORS
330
167
102
}
330
165
100
AcDbEntity
  8
0
  6
Continuous
 62
     0
100
AcDbLine
 10
20.75289035255295
 20
-36.30322931612568
 30
0.0
 11
20.6187279473109
 21
-36.30322996193428
 31
0.0
  0
LINE
  5
200
102
{ACAD_REACTORS
330
167
102
}
330
165
100
AcDbEntity
  8
0
  6
Continuous
 62
     0
100
AcDbLine
 10
20.75289035255295
 20
-36.49401306208977
 30
0.0
 11
20.61571368431323
 21
-36.49401372240793
 31
0.0
  0
LINE
  5
201
330
165
100
AcDbEntity
  8
0
  6
Continuous
 62
     0
100
AcDbLine
 10
20.75289035255295
 20
-36.21240506816928
 30
0.0
 11
20.75289035255294
 21
-36.58740506816928
 31
0.0
  0
LINE
  5
202
330
165
100
AcDbEntity
  8
0
  6
Continuous
 62
     0
100
AcDbLine
 10
20.32688251673167
 20
-36.45935782513894
 30
0.0
 11
20.2824385710188
 21
-36.45959099591167
 31
0.0
  0
LINE
  5
203
330
165
100
AcDbEntity
  8
0
  6
Continuous
 62
     0
100
AcDbLine
 10
20.32692771692662
 20
-36.46797647162633
 30
0.0
 11
20.32673606429589
 21
-36.43148847403376
 31
0.0
  0
LINE
  5
204
330
165
100
AcDbEntity
  8
0
  6
Continuous
 62
     0
100
AcDbLine
 10
20.33185807217884
 20
-36.45933162716215
 30
0.0
 11
20.32673606429589
 21
-36.43148847403376
 31
0.0
  0
LINE
  5
205
330
165
100
AcDbEntity
  8
0
  6
Continuous
 62
     0
100
AcDbLine
 10
20.32339707422041
 20
-36.34022084583254
 30
0.0
 11
20.34367413107714
 21
-36.30467188282973
 31
0.0
  0
LINE
  5
206
330
165
100
AcDbEntity
  8
0
  6
Continuous
 62
     0
100
AcDbLine
 10
20.35806133623943
 20
-36.45978644722018
 30
0.0
 11
20.32339707422041
 21
-36.34022084583254
 31
0.0
  0
LINE
  5
207
330
165
100
AcDbEntity
  8
2
  6
CENTER
 62
     4
100
AcDbLine
 10
20.17335113230212
 20
-36.33734484663234
 30
0.0
 11
20.17335239315421
 21
-36.46570628901856
 31
0.0
  0
LINE
  5
208
330
165
100
AcDbEntity
  8
0
  6
Continuous
 62
     0
100
AcDbLine
 10
20.15235217162528
 20
-36.44352524278197
 30
0.0
 11
20.15235238180195
 21
-36.51556111907773
 31
0.0
  0
ARC
  5
209
330
165
100
AcDbEntity
  8
0
  6
Continuous
 62
     0
100
AcDbCircle
 10
20.21535152013236
 20
-36.35952474356539
 30
0.0
 40
0.021
100
AcDbArc
 50
180.000449100001
 51
270.0004490700002
  0
LINE
  5
20A
330
165
100
AcDbEntity
  8
2
  6
CENTER
 62
     4
100
AcDbLine
 10
20.10917063208121
 20
-36.4015256195114
 30
0.0
 11
20.23753289337513
 21
-36.40152551613942
 31
0.0
  0
ARC
  5
20B
330
165
100
AcDbEntity
  8
0
  6
Continuous
 62
     0
100
AcDbCircle
 10
20.13135216733604
 20
-36.44352541306139
 30
0.0
 40
0.021
100
AcDbArc
 50
0.0004491000002257
 51
90.00044909999902
  0
ARC
  5
20C
330
165
100
AcDbEntity
  8
0
  6
Continuous
 62
     0
100
AcDbCircle
 10
20.17335235999219
 20
-36.41793620995294
 30
0.0
 40
0.131782
100
AcDbArc
 50
80.83101309999872
 51
99.16988509999978
  0
LINE
  5
20D
330
165
100
AcDbEntity
  8
0
  6
Continuous
 62
     0
100
AcDbLine
 10
20.15235058248336
 20
-36.28783903708356
 30
0.0
 11
20.15235151359124
 21
-36.35952523543063
 31
0.0
  0
LINE
  5
20E
330
165
100
AcDbEntity
  8
0
  6
Continuous
 62
     0
100
AcDbLine
 10
20.19435058473523
 20
-36.2878387154978
 30
0.0
 11
20.19435151900641
 21
-36.3595249043583
 31
0.0
  0
ARC
  5
20F
330
165
100
AcDbEntity
  8
0
  6
Continuous
 62
     0
100
AcDbCircle
 10
20.13135151246531
 20
-36.35952539622349
 30
0.0
 40
0.021
100
AcDbArc
 50
270.0004490700002
 51
0.0004491000002257
  0
ARC
  5
210
330
165
100
AcDbEntity
  8
0
  6
Continuous
 62
     0
100
AcDbCircle
 10
20.21535217816637
 20
-36.44352475091678
 30
0.0
 40
0.021
100
AcDbArc
 50
90.00044909999902
 51
180.000449100001
  0
LINE
  5
211
330
165
100
AcDbEntity
  8
0
  6
Continuous
 62
     0
100
AcDbLine
 10
20.19435217704042
 20
-36.44352491170969
 30
0.0
 11
20.19435238721711
 21
-36.51556078800541
 31
0.0
  0
ARC
  5
212
330
165
100
AcDbEntity
  8
0
  6
Continuous
 62
     0
100
AcDbCircle
 10
20.17335159442362
 20
-36.38546378537057
 30
0.0
 40
0.131782
100
AcDbArc
 50
260.8310130709985
 51
279.1698850699999
  0
LINE
  5
213
330
165
100
AcDbEntity
  8
0
  6
Continuous
 62
     0
100
AcDbLine
 10
20.28199194377646
 20
-36.33832637417011
 30
0.0
 11
20.24802441764998
 21
-36.39989771059901
 31
0.0
  0
LINE
  5
214
330
165
100
AcDbEntity
  8
0
  6
Continuous
 62
     0
100
AcDbLine
 10
20.21535168408717
 20
-36.38052474785397
 30
0.0
 11
20.25871225561999
 21
-36.38052497030624
 31
0.0
  0
LINE
  5
215
330
165
100
AcDbEntity
  8
0
  6
Continuous
 62
     0
100
AcDbLine
 10
20.21535201516015
 20
-36.42252474694454
 30
0.0
 11
20.26106990183842
 21
-36.42252502704208
 31
0.0
  0
LINE
  5
216
330
165
100
AcDbEntity
  8
0
  6
Continuous
 62
     0
100
AcDbLine
 10
20.32305747764589
 20
-36.33811188666718
 30
0.0
 11
20.28199194377646
 21
-36.33832637417011
 31
0.0
  0
LINE
  5
217
330
165
100
AcDbEntity
  8
0
  6
Continuous
 62
     0
100
AcDbLine
 10
20.24802441764998
 20
-36.39989771059901
 30
0.0
 11
20.2824385710188
 21
-36.45959099591167
 31
0.0
  0
LINE
  5
218
102
{ACAD_REACTORS
330
167
102
}
330
165
100
AcDbEntity
  8
0
  6
Continuous
 62
     0
100
AcDbLine
 10
20.62007452493242
 20
-36.88775664970452
 30
0.0
 11
20.62007455595036
 21
-36.49401370141631
 31
0.0
  0
LINE
  5
219
102
{ACAD_REACTORS
330
167
102
}
330
165
100
AcDbEntity
  8
0
  6
Continuous
 62
     0
100
AcDbLine
 10
20.49507439163157
 20
-36.45906780634886
 30
0.0
 11
20.49507423651952
 21
-36.8877566496968
 31
0.0
  0
LINE
  5
21A
330
165
100
AcDbEntity
  8
0
  6
Continuous
 62
     0
100
AcDbLine
 10
20.41285166478389
 20
-36.30430896489878
 30
0.0
 11
20.43350024137778
 21
-36.33964334087435
 31
0.0
  0
LINE
  5
21B
330
165
100
AcDbEntity
  8
0
  6
Continuous
 62
     0
100
AcDbLine
 10
20.39257559485712
 20
-36.33985808833327
 30
0.0
 11
20.41285166478389
 21
-36.30430896489878
 31
0.0
  0
LINE
  5
21C
330
165
100
AcDbEntity
  8
0
  6
Continuous
 62
     0
100
AcDbLine
 10
20.44788744654007
 20
-36.49475790526478
 30
0.0
 11
20.41285166478389
 21
-36.30430896489878
 31
0.0
  0
LINE
  5
21D
330
165
100
AcDbEntity
  8
0
  6
Continuous
 62
     0
100
AcDbLine
 10
20.42723985782481
 20
-36.45942369003724
 30
0.0
 11
20.39257559485712
 21
-36.33985808833327
 31
0.0
  0
LINE
  5
21E
330
165
100
AcDbEntity
  8
0
  6
Continuous
 62
     0
100
AcDbLine
 10
20.34367413107714
 20
-36.30467188282973
 30
0.0
 11
20.36432171662917
 21
-36.34000610754374
 31
0.0
  0
LINE
  5
21F
330
165
100
AcDbEntity
  8
0
  6
Continuous
 62
     0
100
AcDbLine
 10
20.3989859827601
 20
-36.45957169976127
 30
0.0
 11
20.36432171662917
 21
-36.34000610754374
 31
0.0
  0
LINE
  5
220
330
165
100
AcDbEntity
  8
0
  6
Continuous
 62
     0
100
AcDbLine
 10
20.36376966580604
 20
-36.34000902842184
 30
0.0
 11
20.39202255299216
 21
-36.33986085794983
 31
0.0
  0
LINE
  5
221
330
165
100
AcDbEntity
  8
0
  6
Continuous
 62
     0
100
AcDbLine
 10
20.37870990967003
 20
-36.49512083268225
 30
0.0
 11
20.34367413107714
 21
-36.30467188282973
 31
0.0
  0
LINE
  5
222
330
165
100
AcDbEntity
  8
0
  6
Continuous
 62
     0
100
AcDbLine
 10
20.6187279473109
 20
-36.30322996193428
 30
0.0
 11
20.61872779473741
 21
-36.40872053571006
 31
0.0
  0
LINE
  5
223
102
{ACAD_REACTORS
330
167
102
}
330
165
100
AcDbEntity
  8
0
  6
Continuous
 62
     0
100
AcDbLine
 10
20.59845088950552
 20
-36.33877892462076
 30
0.0
 11
20.6187279473109
 21
-36.30322996193428
 31
0.0
  0
LINE
  5
224
330
165
100
AcDbEntity
  8
0
  6
Continuous
 62
     0
100
AcDbLine
 10
20.53678883322653
 20
-36.45884977297159
 30
0.0
 11
20.50212473638285
 21
-36.33928318307339
 31
0.0
  0
LINE
  5
225
102
{ACAD_REACTORS
330
167
102
}
330
165
100
AcDbEntity
  8
0
  6
Continuous
 62
     0
100
AcDbLine
 10
20.55010263055119
 20
-36.30358897079296
 30
0.0
 11
20.57075005314256
 21
-36.33892417421466
 31
0.0
  0
LINE
  5
226
330
165
100
AcDbEntity
  8
0
  6
Continuous
 62
     0
100
AcDbLine
 10
20.58513824523474
 20
-36.49403889903688
 30
0.0
 11
20.55010263055119
 21
-36.30358897079296
 31
0.0
  0
LINE
  5
227
330
165
100
AcDbEntity
  8
0
  6
Continuous
 62
     0
100
AcDbLine
 10
20.56448966958952
 20
-36.45870452337765
 30
0.0
 11
20.5298254066219
 21
-36.33913892167367
 31
0.0
  0
LINE
  5
228
102
{ACAD_REACTORS
330
167
102
}
330
165
100
AcDbEntity
  8
0
  6
Continuous
 62
     0
100
AcDbLine
 10
20.5298254066219
 20
-36.33913892167367
 30
0.0
 11
20.55010263055119
 21
-36.30358897079296
 31
0.0
  0
LINE
  5
229
102
{ACAD_REACTORS
330
167
102
}
330
165
100
AcDbEntity
  8
0
  6
Continuous
 62
     0
100
AcDbLine
 10
20.50157251627249
 20
-36.33928710163218
 30
0.0
 11
20.5298254066219
 21
-36.33913892167367
 31
0.0
  0
LINE
  5
22A
102
{ACAD_REACTORS
330
167
102
}
330
165
100
AcDbEntity
  8
0
  6
Continuous
 62
     0
100
AcDbLine
 10
20.48147714766754
 20
-36.30394896784586
 30
0.0
 11
20.50212473638285
 21
-36.33928318307339
 31
0.0
  0
LINE
  5
22B
102
{ACAD_REACTORS
330
167
102
}
330
165
100
AcDbEntity
  8
0
  6
Continuous
 62
     0
100
AcDbLine
 10
20.5650428766298
 20
-36.45870076525056
 30
0.0
 11
20.53678883322653
 21
-36.45884977297159
 31
0.0
  0
LINE
  5
22C
102
{ACAD_REACTORS
330
167
102
}
330
165
100
AcDbEntity
  8
0
  6
Continuous
 62
     0
100
AcDbLine
 10
20.61571368431323
 20
-36.49401372240793
 30
0.0
 11
20.57075005314256
 21
-36.33892417421466
 31
0.0
  0
LINE
  5
22D
330
165
100
AcDbEntity
  8
0
  6
Continuous
 62
     0
100
AcDbLine
 10
20.46120008986219
 20
-36.33949793053233
 30
0.0
 11
20.48147714766754
 21
-36.30394896784586
 31
0.0
  0
LINE
  5
22E
102
{ACAD_REACTORS
330
167
102
}
330
165
100
AcDbEntity
  8
0
  6
Continuous
 62
     0
100
AcDbLine
 10
20.58513824523474
 20
-36.49403889903688
 30
0.0
 11
20.56448966958952
 21
-36.45870452337765
 31
0.0
  0
LINE
  5
22F
102
{ACAD_REACTORS
330
167
102
}
330
165
100
AcDbEntity
  8
0
  6
Continuous
 62
     0
100
AcDbLine
 10
20.60541431516155
 20
-36.45848977560236
 30
0.0
 11
20.58513824523474
 21
-36.49403889903688
 31
0.0
  0
LINE
  5
230
330
165
100
AcDbEntity
  8
0
  6
Continuous
 62
     0
100
AcDbLine
 10
20.43294719951283
 20
-36.33964611049087
 30
0.0
 11
20.46120008986219
 21
-36.33949793053233
 31
0.0
  0
LINE
  5
231
330
165
100
AcDbEntity
  8
0
  6
Continuous
 62
     0
100
AcDbLine
 10
20.59845088950552
 20
-36.33877892462076
 30
0.0
 11
20.61872779473741
 21
-36.40872053571006
 31
0.0
  0
LINE
  5
232
102
{ACAD_REACTORS
330
167
102
}
330
165
100
AcDbEntity
  8
0
  6
Continuous
 62
     0
100
AcDbLine
 10
20.57019799915615
 20
-36.3389271045793
 30
0.0
 11
20.59845088950552
 21
-36.33877892462076
 31
0.0
  0
LINE
  5
233
102
{ACAD_REACTORS
330
167
102
}
330
165
100
AcDbEntity
  8
0
  6
Continuous
 62
     0
100
AcDbLine
 10
20.51651276329978
 20
-36.49439889640613
 30
0.0
 11
20.49586435282986
 21
-36.45906353223632
 31
0.0
  0
LINE
  5
234
330
165
100
AcDbEntity
  8
0
  6
Continuous
 62
     0
100
AcDbLine
 10
20.4681645033968
 20
-36.45920894226198
 30
0.0
 11
20.44788744654007
 21
-36.49475790526478
 31
0.0
  0
LINE
  5
235
102
{ACAD_REACTORS
330
167
102
}
330
165
100
AcDbEntity
  8
0
  6
Continuous
 62
     0
100
AcDbLine
 10
20.49641739469484
 20
-36.4590607626198
 30
0.0
 11
20.4681645033968
 21
-36.45920894226198
 31
0.0
  0
LINE
  5
236
330
165
100
AcDbEntity
  8
0
  6
Continuous
 62
     0
100
AcDbLine
 10
20.42723985782481
 20
-36.45942369003724
 30
0.0
 11
20.3989859827601
 21
-36.45957169976127
 31
0.0
  0
LINE
  5
237
330
165
100
AcDbEntity
  8
0
  6
Continuous
 62
     0
100
AcDbLine
 10
20.44788744654007
 20
-36.49475790526478
 30
0.0
 11
20.42723985782481
 21
-36.45942369003724
 31
0.0
  0
LINE
  5
238
330
165
100
AcDbEntity
  8
0
  6
Continuous
 62
     0
100
AcDbLine
 10
20.51651276329978
 20
-36.49439889640613
 30
0.0
 11
20.48147714766754
 21
-36.30394896784586
 31
0.0
  0
LINE
  5
239
102
{ACAD_REACTORS
330
167
102
}
330
165
100
AcDbEntity
  8
0
  6
Continuous
 62
     0
100
AcDbLine
 10
20.53678883322653
 20
-36.45884977297159
 30
0.0
 11
20.51651276329978
 21
-36.49439889640613
 31
0.0
  0
LINE
  5
23A
330
165
100
AcDbEntity
  8
0
  6
Continuous
 62
     0
100
AcDbLine
 10
20.4681645033968
 20
-36.45920894226198
 30
0.0
 11
20.43350024137778
 21
-36.33964334087435
 31
0.0
  0
LINE
  5
23B
330
165
100
AcDbEntity
  8
0
  6
Continuous
 62
     0
100
AcDbLine
 10
20.49586435282986
 20
-36.45906353223632
 30
0.0
 11
20.46120008986219
 21
-36.33949793053233
 31
0.0
  0
LINE
  5
23C
330
165
100
AcDbEntity
  8
0
  6
Continuous
 62
     0
100
AcDbLine
 10
20.37870990967003
 20
-36.49512083268225
 30
0.0
 11
20.35806133623943
 21
-36.45978644722018
 31
0.0
  0
LINE
  5
23D
330
165
100
AcDbEntity
  8
0
  6
Continuous
 62
     0
100
AcDbLine
 10
20.3989859827601
 20
-36.45957169976127
 30
0.0
 11
20.37870990967003
 21
-36.49512083268225
 31
0.0
  0
LINE
  5
23E
102
{ACAD_REACTORS
330
167
102
}
330
165
100
AcDbEntity
  8
0
  6
Continuous
 62
     0
100
AcDbLine
 10
20.6200747484494
 20
-36.30324406083718
 30
0.0
 11
20.62007490966358
 21
-35.97596295063471
 31
0.0
  0
LINE
  5
23F
102
{ACAD_REACTORS
330
167
102
}
330
165
100
AcDbEntity
  8
0
  6
Continuous
 62
     0
100
AcDbLine
 10
20.4950746060776
 20
-35.9759629209838
 30
0.0
 11
20.49507441103056
 21
-36.32721796243885
 31
0.0
  0
LINE
  5
240
330
165
100
AcDbEntity
  8
0
  6
Continuous
 62
     0
100
AcDbLine
 10
20.33185807217884
 20
-36.45933162716215
 30
0.0
 11
20.32692771692662
 21
-36.46797647162633
 31
0.0
  0
LINE
  5
241
330
165
100
AcDbEntity
  8
0
  6
Continuous
 62
     0
100
AcDbLine
 10
20.35822858538268
 20
-36.45919291485061
 30
0.0
 11
20.33185807217884
 21
-36.45933162716215
 31
0.0
  0
LINE
  5
242
330
165
100
AcDbEntity
  8
0
  6
Continuous
 62
     0
100
AcDbLine
 10
20.88310225160345
 20
-36.45719316911877
 30
0.0
 11
20.88310225160346
 21
-36.34261696721978
 31
0.0
  0
ARC
  5
243
330
165
100
AcDbEntity
  8
0
  6
Continuous
 62
     0
100
AcDbCircle
 10
20.75289035255294
 20
-36.34261696721978
 30
0.0
 40
0.1302118990505079
100
AcDbArc
 50
359.9999999999968
 51
89.99999999999694
  0
ARC
  5
244
330
165
100
AcDbEntity
  8
0
  6
Continuous
 62
     0
100
AcDbCircle
 10
20.75289035255294
 20
-36.45719316911877
 30
0.0
 40
0.1302118990505079
100
AcDbArc
 50
270.0
 51
0.0
  0
LINE
  5
245
330
165
100
AcDbEntity
  8
0
  6
Continuous
 62
     0
100
AcDbLine
 10
20.75289035255295
 20
-36.30322931612568
 30
0.0
 11
20.6187279473109
 21
-36.30322996193428
 31
0.0
  0
LINE
  5
246
330
165
100
AcDbEntity
  8
0
  6
Continuous
 62
     0
100
AcDbLine
 10
20.75289035255295
 20
-36.49401306208977
 30
0.0
 11
20.61571368431323
 21
-36.49401372240793
 31
0.0
  0
LINE
  5
247
330
165
100
AcDbEntity
  8
0
  6
Continuous
 62
     0
100
AcDbLine
 10
20.75289035255295
 20
-36.21240506816928
 30
0.0
 11
20.75289035255294
 21
-36.58740506816928
 31
0.0
  0
LINE
  5
248
330
165
100
AcDbEntity
  8
0
  6
Continuous
 62
     0
100
AcDbLine
 10
20.32688251673167
 20
-36.45935782513894
 30
0.0
 11
20.2824385710188
 21
-36.45959099591167
 31
0.0
  0
LINE
  5
249
330
165
100
AcDbEntity
  8
0
  6
Continuous
 62
     0
100
AcDbLine
 10
20.32692771692662
 20
-36.46797647162633
 30
0.0
 11
20.32673606429589
 21
-36.43148847403376
 31
0.0
  0
LINE
  5
24A
330
165
100
AcDbEntity
  8
0
  6
Continuous
 62
     0
100
AcDbLine
 10
20.33185807217884
 20
-36.45933162716215
 30
0.0
 11
20.32673606429589
 21
-36.43148847403376
 31
0.0
  0
LINE
  5
24B
330
165
100
AcDbEntity
  8
0
  6
Continuous
 62
     0
100
AcDbLine
 10
20.32339707422041
 20
-36.34022084583254
 30
0.0
 11
20.34367413107714
 21
-36.30467188282973
 31
0.0
  0
LINE
  5
24C
330
165
100
AcDbEntity
  8
0
  6
Continuous
 62
     0
100
AcDbLine
 10
20.35806133623943
 20
-36.45978644722018
 30
0.0
 11
20.32339707422041
 21
-36.34022084583254
 31
0.0
  0
LINE
  5
24D
330
165
100
AcDbEntity
  8
2
  6
CENTER
 62
     4
100
AcDbLine
 10
20.17335113230212
 20
-36.33734484663234
 30
0.0
 11
20.17335239315421
 21
-36.46570628901856
 31
0.0
  0
LINE
  5
24E
330
165
100
AcDbEntity
  8
0
  6
Continuous
 62
     0
100
AcDbLine
 10
20.15235217162528
 20
-36.44352524278197
 30
0.0
 11
20.15235238180195
 21
-36.51556111907773
 31
0.0
  0
ARC
  5
24F
330
165
100
AcDbEntity
  8
0
  6
Continuous
 62
     0
100
AcDbCircle
 10
20.21535152013236
 20
-36.35952474356539
 30
0.0
 40
0.021
100
AcDbArc
 50
180.000449100001
 51
270.0004490700002
  0
LINE
  5
250
330
165
100
AcDbEntity
  8
2
  6
CENTER
 62
     4
100
AcDbLine
 10
20.10917063208121
 20
-36.4015256195114
 30
0.0
 11
20.23753289337513
 21
-36.40152551613942
 31
0.0
  0
ARC
  5
251
330
165
100
AcDbEntity
  8
0
  6
Continuous
 62
     0
100
AcDbCircle
 10
20.13135216733604
 20
-36.44352541306139
 30
0.0
 40
0.021
100
AcDbArc
 50
0.0004491000002257
 51
90.00044909999902
  0
ARC
  5
252
330
165
100
AcDbEntity
  8
0
  6
Continuous
 62
     0
100
AcDbCircle
 10
20.17335235999219
 20
-36.41793620995294
 30
0.0
 40
0.131782
100
AcDbArc
 50
80.83101309999872
 51
99.16988509999978
  0
LINE
  5
253
330
165
100
AcDbEntity
  8
0
  6
Continuous
 62
     0
100
AcDbLine
 10
20.15235058248336
 20
-36.28783903708356
 30
0.0
 11
20.15235151359124
 21
-36.35952523543063
 31
0.0
  0
LINE
  5
254
330
165
100
AcDbEntity
  8
0
  6
Continuous
 62
     0
100
AcDbLine
 10
20.19435058473523
 20
-36.2878387154978
 30
0.0
 11
20.19435151900641
 21
-36.3595249043583
 31
0.0
  0
ARC
  5
255
330
165
100
AcDbEntity
  8
0
  6
Continuous
 62
     0
100
AcDbCircle
 10
20.13135151246531
 20
-36.35952539622349
 30
0.0
 40
0.021
100
AcDbArc
 50
270.0004490700002
 51
0.0004491000002257
  0
ARC
  5
256
330
165
100
AcDbEntity
  8
0
  6
Continuous
 62
     0
100
AcDbCircle
 10
20.21535217816637
 20
-36.44352475091678
 30
0.0
 40
0.021
100
AcDbArc
 50
90.00044909999902
 51
180.000449100001
  0
LINE
  5
257
330
165
100
AcDbEntity
  8
0
  6
Continuous
 62
     0
100
AcDbLine
 10
20.19435217704042
 20
-36.44352491170969
 30
0.0
 11
20.19435238721711
 21
-36.51556078800541
 31
0.0
  0
ARC
  5
258
330
165
100
AcDbEntity
  8
0
  6
Continuous
 62
     0
100
AcDbCircle
 10
20.17335159442362
 20
-36.38546378537057
 30
0.0
 40
0.131782
100
AcDbArc
 50
260.8310130709985
 51
279.1698850699999
  0
LINE
  5
259
330
165
100
AcDbEntity
  8
0
  6
Continuous
 62
     0
100
AcDbLine
 10
20.28199194377646
 20
-36.33832637417011
 30
0.0
 11
20.24802441764998
 21
-36.39989771059901
 31
0.0
  0
LINE
  5
25A
330
165
100
AcDbEntity
  8
0
  6
Continuous
 62
     0
100
AcDbLine
 10
20.21535168408717
 20
-36.38052474785397
 30
0.0
 11
20.25871225561999
 21
-36.38052497030624
 31
0.0
  0
LINE
  5
25B
330
165
100
AcDbEntity
  8
0
  6
Continuous
 62
     0
100
AcDbLine
 10
20.21535201516015
 20
-36.42252474694454
 30
0.0
 11
20.26106990183842
 21
-36.42252502704208
 31
0.0
  0
LINE
  5
25C
330
165
100
AcDbEntity
  8
0
  6
Continuous
 62
     0
100
AcDbLine
 10
20.32305747764589
 20
-36.33811188666718
 30
0.0
 11
20.28199194377646
 21
-36.33832637417011
 31
0.0
  0
LINE
  5
25D
330
165
100
AcDbEntity
  8
0
  6
Continuous
 62
     0
100
AcDbLine
 10
20.24802441764998
 20
-36.39989771059901
 30
0.0
 11
20.2824385710188
 21
-36.45959099591167
 31
0.0
  0
LINE
  5
25E
330
165
100
AcDbEntity
  8
0
  6
Continuous
 62
     0
100
AcDbLine
 10
20.62007452493242
 20
-36.88775664970452
 30
0.0
 11
20.62007455595036
 21
-36.49401370141631
 31
0.0
  0
LINE
  5
25F
330
165
100
AcDbEntity
  8
0
  6
Continuous
 62
     0
100
AcDbLine
 10
20.49507439163157
 20
-36.45906780634886
 30
0.0
 11
20.49507423651952
 21
-36.8877566496968
 31
0.0
  0
LINE
  5
260
330
165
100
AcDbEntity
  8
0
  6
Continuous
 62
     0
100
AcDbLine
 10
20.41285166478389
 20
-36.30430896489878
 30
0.0
 11
20.43350024137778
 21
-36.33964334087435
 31
0.0
  0
LINE
  5
261
330
165
100
AcDbEntity
  8
0
  6
Continuous
 62
     0
100
AcDbLine
 10
20.39257559485712
 20
-36.33985808833327
 30
0.0
 11
20.41285166478389
 21
-36.30430896489878
 31
0.0
  0
LINE
  5
262
330
165
100
AcDbEntity
  8
0
  6
Continuous
 62
     0
100
AcDbLine
 10
20.44788744654007
 20
-36.49475790526478
 30
0.0
 11
20.41285166478389
 21
-36.30430896489878
 31
0.0
  0
LINE
  5
263
330
165
100
AcDbEntity
  8
0
  6
Continuous
 62
     0
100
AcDbLine
 10
20.42723985782481
 20
-36.45942369003724
 30
0.0
 11
20.39257559485712
 21
-36.33985808833327
 31
0.0
  0
LINE
  5
264
330
165
100
AcDbEntity
  8
0
  6
Continuous
 62
     0
100
AcDbLine
 10
20.34367413107714
 20
-36.30467188282973
 30
0.0
 11
20.36432171662917
 21
-36.34000610754374
 31
0.0
  0
LINE
  5
265
330
165
100
AcDbEntity
  8
0
  6
Continuous
 62
     0
100
AcDbLine
 10
20.3989859827601
 20
-36.45957169976127
 30
0.0
 11
20.36432171662917
 21
-36.34000610754374
 31
0.0
  0
LINE
  5
266
330
165
100
AcDbEntity
  8
0
  6
Continuous
 62
     0
100
AcDbLine
 10
20.36376966580604
 20
-36.34000902842184
 30
0.0
 11
20.39202255299216
 21
-36.33986085794983
 31
0.0
  0
LINE
  5
267
330
165
100
AcDbEntity
  8
0
  6
Continuous
 62
     0
100
AcDbLine
 10
20.37870990967003
 20
-36.49512083268225
 30
0.0
 11
20.34367413107714
 21
-36.30467188282973
 31
0.0
  0
LINE
  5
268
330
165
100
AcDbEntity
  8
0
  6
Continuous
 62
     0
100
AcDbLine
 10
20.6187279473109
 20
-36.30322996193428
 30
0.0
 11
20.61872779473741
 21
-36.40872053571006
 31
0.0
  0
LINE
  5
269
330
165
100
AcDbEntity
  8
0
  6
Continuous
 62
     0
100
AcDbLine
 10
20.59845088950552
 20
-36.33877892462076
 30
0.0
 11
20.6187279473109
 21
-36.30322996193428
 31
0.0
  0
LINE
  5
26A
330
165
100
AcDbEntity
  8
0
  6
Continuous
 62
     0
100
AcDbLine
 10
20.53678883322653
 20
-36.45884977297159
 30
0.0
 11
20.50212473638285
 21
-36.33928318307339
 31
0.0
  0
LINE
  5
26B
330
165
100
AcDbEntity
  8
0
  6
Continuous
 62
     0
100
AcDbLine
 10
20.55010263055119
 20
-36.30358897079296
 30
0.0
 11
20.57075005314256
 21
-36.33892417421466
 31
0.0
  0
LINE
  5
26C
330
165
100
AcDbEntity
  8
0
  6
Continuous
 62
     0
100
AcDbLine
 10
20.58513824523474
 20
-36.49403889903688
 30
0.0
 11
20.55010263055119
 21
-36.30358897079296
 31
0.0
  0
LINE
  5
26D
330
165
100
AcDbEntity
  8
0
  6
Continuous
 62
     0
100
AcDbLine
 10
20.56448966958952
 20
-36.45870452337765
 30
0.0
 11
20.5298254066219
 21
-36.33913892167367
 31
0.0
  0
LINE
  5
26E
330
165
100
AcDbEntity
  8
0
  6
Continuous
 62
     0
100
AcDbLine
 10
20.5298254066219
 20
-36.33913892167367
 30
0.0
 11
20.55010263055119
 21
-36.30358897079296
 31
0.0
  0
LINE
  5
26F
330
165
100
AcDbEntity
  8
0
  6
Continuous
 62
     0
100
AcDbLine
 10
20.50157251627249
 20
-36.33928710163218
 30
0.0
 11
20.5298254066219
 21
-36.33913892167367
 31
0.0
  0
LINE
  5
270
330
165
100
AcDbEntity
  8
0
  6
Continuous
 62
     0
100
AcDbLine
 10
20.48147714766754
 20
-36.30394896784586
 30
0.0
 11
20.50212473638285
 21
-36.33928318307339
 31
0.0
  0
LINE
  5
271
330
165
100
AcDbEntity
  8
0
  6
Continuous
 62
     0
100
AcDbLine
 10
20.5650428766298
 20
-36.45870076525056
 30
0.0
 11
20.53678883322653
 21
-36.45884977297159
 31
0.0
  0
LINE
  5
272
330
165
100
AcDbEntity
  8
0
  6
Continuous
 62
     0
100
AcDbLine
 10
20.61571368431323
 20
-36.49401372240793
 30
0.0
 11
20.57075005314256
 21
-36.33892417421466
 31
0.0
  0
LINE
  5
273
330
165
100
AcDbEntity
  8
0
  6
Continuous
 62
     0
100
AcDbLine
 10
20.46120008986219
 20
-36.33949793053233
 30
0.0
 11
20.48147714766754
 21
-36.30394896784586
 31
0.0
  0
LINE
  5
274
330
165
100
AcDbEntity
  8
0
  6
Continuous
 62
     0
100
AcDbLine
 10
20.58513824523474
 20
-36.49403889903688
 30
0.0
 11
20.56448966958952
 21
-36.45870452337765
 31
0.0
  0
LINE
  5
275
330
165
100
AcDbEntity
  8
0
  6
Continuous
 62
     0
100
AcDbLine
 10
20.60541431516155
 20
-36.45848977560236
 30
0.0
 11
20.58513824523474
 21
-36.49403889903688
 31
0.0
  0
LINE
  5
276
330
165
100
AcDbEntity
  8
0
  6
Continuous
 62
     0
100
AcDbLine
 10
20.43294719951283
 20
-36.33964611049087
 30
0.0
 11
20.46120008986219
 21
-36.33949793053233
 31
0.0
  0
LINE
  5
277
330
165
100
AcDbEntity
  8
0
  6
Continuous
 62
     0
100
AcDbLine
 10
20.59845088950552
 20
-36.33877892462076
 30
0.0
 11
20.61872779473741
 21
-36.40872053571006
 31
0.0
  0
LINE
  5
278
330
165
100
AcDbEntity
  8
0
  6
Continuous
 62
     0
100
AcDbLine
 10
20.57019799915615
 20
-36.3389271045793
 30
0.0
 11
20.59845088950552
 21
-36.33877892462076
 31
0.0
  0
LINE
  5
279
330
165
100
AcDbEntity
  8
0
  6
Continuous
 62
     0
100
AcDbLine
 10
20.51651276329978
 20
-36.49439889640613
 30
0.0
 11
20.49586435282986
 21
-36.45906353223632
 31
0.0
  0
LINE
  5
27A
330
165
100
AcDbEntity
  8
0
  6
Continuous
 62
     0
100
AcDbLine
 10
20.4681645033968
 20
-36.45920894226198
 30
0.0
 11
20.44788744654007
 21
-36.49475790526478
 31
0.0
  0
LINE
  5
27B
330
165
100
AcDbEntity
  8
0
  6
Continuous
 62
     0
100
AcDbLine
 10
20.49641739469484
 20
-36.4590607626198
 30
0.0
 11
20.4681645033968
 21
-36.45920894226198
 31
0.0
  0
LINE
  5
27C
330
165
100
AcDbEntity
  8
0
  6
Continuous
 62
     0
100
AcDbLine
 10
20.42723985782481
 20
-36.45942369003724
 30
0.0
 11
20.3989859827601
 21
-36.45957169976127
 31
0.0
  0
LINE
  5
27D
330
165
100
AcDbEntity
  8
0
  6
Continuous
 62
     0
100
AcDbLine
 10
20.44788744654007
 20
-36.49475790526478
 30
0.0
 11
20.42723985782481
 21
-36.45942369003724
 31
0.0
  0
LINE
  5
27E
330
165
100
AcDbEntity
  8
0
  6
Continuous
 62
     0
100
AcDbLine
 10
20.51651276329978
 20
-36.49439889640613
 30
0.0
 11
20.48147714766754
 21
-36.30394896784586
 31
0.0
  0
LINE
  5
27F
330
165
100
AcDbEntity
  8
0
  6
Continuous
 62
     0
100
AcDbLine
 10
20.53678883322653
 20
-36.45884977297159
 30
0.0
 11
20.51651276329978
 21
-36.49439889640613
 31
0.0
  0
LINE
  5
280
330
165
100
AcDbEntity
  8
0
  6
Continuous
 62
     0
100
AcDbLine
 10
20.4681645033968
 20
-36.45920894226198
 30
0.0
 11
20.43350024137778
 21
-36.33964334087435
 31
0.0
  0
LINE
  5
281
330
165
100
AcDbEntity
  8
0
  6
Continuous
 62
     0
100
AcDbLine
 10
20.49586435282986
 20
-36.45906353223632
 30
0.0
 11
20.46120008986219
 21
-36.33949793053233
 31
0.0
  0
LINE
  5
282
330
165
100
AcDbEntity
  8
0
  6
Continuous
 62
     0
100
AcDbLine
 10
20.37870990967003
 20
-36.49512083268225
 30
0.0
 11
20.35806133623943
 21
-36.45978644722018
 31
0.0
  0
LINE
  5
283
330
165
100
AcDbEntity
  8
0
  6
Continuous
 62
     0
100
AcDbLine
 10
20.3989859827601
 20
-36.45957169976127
 30
0.0
 11
20.37870990967003
 21
-36.49512083268225
 31
0.0
  0
LINE
  5
284
330
165
100
AcDbEntity
  8
0
  6
Continuous
 62
     0
100
AcDbLine
 10
20.6200747484494
 20
-36.30324406083718
 30
0.0
 11
20.62007490966358
 21
-35.97596295063471
 31
0.0
  0
LINE
  5
285
330
165
100
AcDbEntity
  8
0
  6
Continuous
 62
     0
100
AcDbLine
 10
20.4950746060776
 20
-35.9759629209838
 30
0.0
 11
20.49507441103056
 21
-36.32721796243885
 31
0.0
  0
LINE
  5
286
330
165
100
AcDbEntity
  8
0
  6
Continuous
 62
     0
100
AcDbLine
 10
20.33185807217884
 20
-36.45933162716215
 30
0.0
 11
20.32692771692662
 21
-36.46797647162633
 31
0.0
  0
LINE
  5
287
330
165
100
AcDbEntity
  8
0
  6
Continuous
 62
     0
100
AcDbLine
 10
20.35822858538268
 20
-36.45919291485061
 30
0.0
 11
20.33185807217884
 21
-36.45933162716215
 31
0.0
  0
LINE
  5
288
330
165
100
AcDbEntity
  8
0
  6
Continuous
 62
     0
100
AcDbLine
 10
20.88310225160345
 20
-36.45719316911877
 30
0.0
 11
20.88310225160346
 21
-36.34261696721978
 31
0.0
  0
ARC
  5
289
330
165
100
AcDbEntity
  8
0
  6
Continuous
 62
     0
100
AcDbCircle
 10
20.75289035255294
 20
-36.34261696721978
 30
0.0
 40
0.1302118990505079
100
AcDbArc
 50
359.9999999999968
 51
89.99999999999694
  0
ARC
  5
28A
330
165
100
AcDbEntity
  8
0
  6
Continuous
 62
     0
100
AcDbCircle
 10
20.75289035255294
 20
-36.45719316911877
 30
0.0
 40
0.1302118990505079
100
AcDbArc
 50
270.0
 51
0.0
  0
ARC
  5
28B
330
165
100
AcDbEntity
  8
0
  6
Continuous
 62
     0
100
AcDbCircle
 10
20.18974357661207
 20
-36.40152537176336
 30
0.0
 40
0.131782
100
AcDbArc
 50
170.8310130999991
 51
189.1698850999989
  0
ARC
  5
28C
330
165
100
AcDbEntity
  8
0
  6
Continuous
 62
     0
100
AcDbCircle
 10
20.18974357661207
 20
-36.40152537176336
 30
0.0
 40
0.131782
100
AcDbArc
 50
170.8310130999991
 51
189.1698850999989
  0
LINE
  5
28D
102
{ACAD_REACTORS
330
167
102
}
330
165
100
AcDbEntity
  8
0
  6
Continuous
 62
     0
100
AcDbLine
 10
18.88570615665127
 20
-35.97596295969756
 30
0.0
 11
20.62007490966358
 21
-35.97596295063471
 31
0.0
  0
LINE
  5
28E
330
165
100
AcDbEntity
  8
0
  6
Continuous
 62
     0
100
AcDbLine
 10
20.05964558989424
 20
-36.42252599558732
 30
0.0
 11
20.13135200338119
 21
-36.42252540877289
 31
0.0
  0
LINE
  5
28F
330
165
100
AcDbEntity
  8
0
  6
Continuous
 62
     0
100
AcDbLine
 10
20.05964526198455
 20
-36.38052598701018
 30
0.0
 11
20.13135167642018
 21
-36.3805254005121
 31
0.0
  0
LINE
  5
290
102
{ACAD_REACTORS
330
167
102
}
330
165
100
AcDbEntity
  8
0
  6
Continuous
 62
     0
100
AcDbLine
 10
20.62007452493242
 20
-36.88775664970452
 30
0.0
 11
18.88570578582954
 21
-36.88775664959755
 31
0.0
  0
ARC
  5
291
330
165
100
AcDbEntity
  8
Glazing
  6
Continuous
 62
     5
100
AcDbCircle
 10
20.17335184579016
 20
-36.40152507372832
 30
0.0
 40
0.156336
100
AcDbArc
 50
23.91620309999928
 51
338.2719830700004
  0
LINE
  5
292
330
165
100
AcDbEntity
  8
0
  6
Continuous
 62
     0
100
AcDbLine
 10
20.05964558989424
 20
-36.42252599558732
 30
0.0
 11
20.13135200338119
 21
-36.42252540877289
 31
0.0
  0
LINE
  5
293
330
165
100
AcDbEntity
  8
0
  6
Continuous
 62
     0
100
AcDbLine
 10
20.05964526198455
 20
-36.38052598701018
 30
0.0
 11
20.13135167642018
 21
-36.3805254005121
 31
0.0
  0
LINE
  5
294
330
165
100
AcDbEntity
  8
0
  6
Continuous
 62
     0
100
AcDbLine
 10
20.62007452493242
 20
-36.88775664970452
 30
0.0
 11
18.88570578582954
 21
-36.88775664959755
 31
0.0
  0
ENDBLK
  5
295
330
165
100
AcDbEntity
  8
0
 62
     0
100
AcDbBlockEnd
  0
ENDSEC
  0
SECTION
  2
ENTITIES
  0
LEADER
  5
32
330
2
100
AcDbEntity
  8
0
  6
Continuous
100
AcDbLeader
  3
STANDARD
 73
     0
 40
0.1940228512960437
 41
3.960266030013642
 76
     2
 10
142.0319920693429
 20
-182.165854314117
 30
0.0
 10
136.649391732789
 20
-182.165854314117
 30
0.0
340
33
213
0.0
223
-0.09375
233
0.0
1001
ACAD
1000
DSTYLE
1002
{
1070
   147
1040
0.09
1070
    77
1070
     0
1002
}
  0
MTEXT
  5
33
102
{ACAD_REACTORS
330
32
102
}
330
2
100
AcDbEntity
  8
0
  6
Continuous
100
AcDbMText
 10
136.559391732789
 20
-182.072104314117
 30
0.0
 40
0.1875
 41
4.4125
 71
     3
 72
     1
  1
ALUMINUM SNAP CAP BEYOND
 73
     1
 44
1.0
1001
ACAD
1000
MTEXTBEGIN
1070
    73
1070
     1
1070
    44
1040
1.0
1070
    74
1070
     0
1000
MTEXTEND
  0
LEADER
  5
34
330
2
100
AcDbEntity
  8
0
  6
Continuous
100
AcDbLeader
  3
STANDARD
 73
     0
 40
0.1938949522510232
 41
2.175306957708048
 76
     2
 10
141.6213596763175
 20
-182.6211492629834
 30
0.0
 10
136.649391732789
 20
-182.6211492629834
 30
0.0
340
35
213
0.0
223
-0.09375
233
0.0
1001
ACAD
1000
DSTYLE
1002
{
1070
   147
1040
0.09
1070
    77
1070
     0
1002
}
  0
MTEXT
  5
35
102
{ACAD_REACTORS
330
34
102
}
330
2
100
AcDbEntity
  8
0
  6
Continuous
100
AcDbMText
 10
136.559391732789
 20
-182.5273992629833
 30
0.0
 40
0.1875
 41
4.4125
 71
     3
 72
     1
  1
RIDGE FLASHING
 73
     1
 44
1.0
1001
ACAD
1000
MTEXTBEGIN
1070
    73
1070
     1
1070
    44
1040
1.0
1070
    74
1070
     0
1000
MTEXTEND
  0
LEADER
  5
36
330
2
100
AcDbEntity
  8
0
  6
Continuous
100
AcDbLeader
  3
STANDARD
 73
     0
 40
0.1938949522510232
 41
1.119500341064119
 76
     2
 10
141.5085377499813
 20
-183.309830111073
 30
0.0
 10
136.649391732789
 20
-183.309830111073
 30
0.0
340
37
213
0.0
223
-0.09375
233
0.0
1001
ACAD
1000
DSTYLE
1002
{
1070
   147
1040
0.09
1070
    77
1070
     0
1002
}
  0
MTEXT
  5
37
102
{ACAD_REACTORS
330
36
102
}
330
2
100
AcDbEntity
  8
0
  6
Continuous
100
AcDbMText
 10
136.559391732789
 20
-183.216080111073
 30
0.0
 40
0.1875
 41
4.4125
 71
     3
 72
     1
  1
GLAZING
 73
     1
 44
1.0
1001
ACAD
1000
MTEXTBEGIN
1070
    73
1070
     1
1070
    44
1040
1.0
1070
    74
1070
     0
1000
MTEXTEND
  0
LEADER
  5
38
330
2
100
AcDbEntity
  8
0
  6
Continuous
100
AcDbLeader
  3
STANDARD
 73
     0
 40
0.1938949522510232
 41
3.088761937244202
 76
     2
 10
143.3974017865746
 20
-183.685855129236
 30
0.0
 10
136.649391732789
 20
-183.685855129236
 30
0.0
340
39
213
0.0
223
-0.09375
233
0.0
1001
ACAD
1000
DSTYLE
1002
{
1070
   147
1040
0.09
1070
    77
1070
     0
1002
}
  0
MTEXT
  5
39
102
{ACAD_REACTORS
330
38
102
}
330
2
100
AcDbEntity
  8
0
  6
Continuous
100
AcDbMText
 10
136.559391732789
 20
-183.592105129236
 30
0.0
 40
0.1875
 41
4.4125
 71
     3
 72
     1
  1
EPDM GLAZING GASKET
 73
     1
 44
1.0
1001
ACAD
1000
MTEXTBEGIN
1070
    73
1070
     1
1070
    44
1040
1.0
1070
    74
1070
     0
1000
MTEXTEND
  0
LEADER
  5
3A
330
2
100
AcDbEntity
  8
0
  6
Continuous
100
AcDbLeader
  3
STANDARD
 73
     0
 40
0.1938949522510232
 41
1.548090040927694
 76
     2
 10
143.139447511755
 20
-184.408959995853
 30
0.0
 10
136.649391732789
 20
-184.408959995853
 30
0.0
340
3B
213
0.0
223
-0.09375
233
0.0
1001
ACAD
1000
DSTYLE
1002
{
1070
   147
1040
0.09
1070
    77
1070
     0
1002
}
  0
MTEXT
  5
3B
102
{ACAD_REACTORS
330
3A
102
}
330
2
100
AcDbEntity
  8
0
  6
Continuous
100
AcDbMText
 10
136.559391732789
 20
-184.315209995853
 30
0.0
 40
0.1875
 41
4.4125
 71
     3
 72
     1
  1
TEK SCREW
 73
     1
 44
1.0
1001
ACAD
1000
MTEXTBEGIN
1070
    73
1070
     1
1070
    44
1040
1.0
1070
    74
1070
     0
1000
MTEXTEND
  0
LEADER
  5
3C
330
2
100
AcDbEntity
  8
0
  6
Continuous
100
AcDbLeader
  3
STANDARD
 73
     0
 40
0.1938949522510232
 41
3.074948840381991
 76
     2
 10
143.40025504115
 20
-184.7199685795168
 30
0.0
 10
136.649391732789
 20
-184.7199685795168
 30
0.0
340
3D
213
0.0
223
-0.09375
233
0.0
1001
ACAD
1000
DSTYLE
1002
{
1070
   147
1040
0.09
1070
    77
1070
     0
1002
}
  0
MTEXT
  5
3D
102
{ACAD_REACTORS
330
3C
102
}
330
2
100
AcDbEntity
  8
0
  6
Continuous
100
AcDbMText
 10
136.559391732789
 20
-184.6262185795168
 30
0.0
 40
0.1875
 41
4.4125
 71
     3
 72
     1
  1
ALUMINUM PURLIN CLIP
 73
     1
 44
1.0
1001
ACAD
1000
MTEXTBEGIN
1070
    73
1070
     1
1070
    44
1040
1.0
1070
    74
1070
     0
1000
MTEXTEND
  0
LEADER
  5
3E
330
2
100
AcDbEntity
  8
0
  6
Continuous
100
AcDbLeader
  3
STANDARD
 73
     0
 40
0.1940228512960437
 41
3.357222032742155
 76
     2
 10
142.9908966771586
 20
-185.5231044731776
 30
0.0
 10
136.649391732789
 20
-185.5231044731776
 30
0.0
340
3F
213
0.0
223
-0.09375
233
0.0
1001
ACAD
1000
DSTYLE
1002
{
1070
   147
1040
0.09
1070
    77
1070
     0
1002
}
  0
MTEXT
  5
3F
102
{ACAD_REACTORS
330
3E
102
}
330
2
100
AcDbEntity
  8
0
  6
Continuous
100
AcDbMText
 10
136.559391732789
 20
-185.4293544731776
 30
0.0
 40
0.1875
 41
4.4125
 71
     3
 72
     1
  1
ALUMINUM SNAP BOTTOM
 73
     1
 44
1.0
1001
ACAD
1000
MTEXTBEGIN
1070
    73
1070
     1
1070
    44
1040
1.0
1070
    74
1070
     0
1000
MTEXTEND
  0
LEADER
  5
40
330
2
100
AcDbEntity
  8
0
  6
Continuous
100
AcDbLeader
  3
STANDARD
 73
     0
 40
0.1938949522510232
 41
2.384677694406548
 76
     2
 10
143.268925466175
 20
-185.0819582105945
 30
0.0
 10
136.649391732789
 20
-185.0819582105945
 30
0.0
340
41
213
0.0
223
-0.09375
233
0.0
1001
ACAD
1000
DSTYLE
1002
{
1070
   147
1040
0.09
1070
    77
1070
     0
1002
}
  0
MTEXT
  5
41
102
{ACAD_REACTORS
330
40
102
}
330
2
100
AcDbEntity
  8
0
  6
Continuous
100
AcDbMText
 10
136.559391732789
 20
-184.9882082105945
 30
0.0
 40
0.1875
 41
4.4125
 71
     3
 72
     1
  1
INTER-SKY PURLIN
 73
     1
 44
1.0
1001
ACAD
1000
MTEXTBEGIN
1070
    73
1070
     1
1070
    44
1040
1.0
1070
    74
1070
     0
1000
MTEXTEND
  0
LINE
  5
42
330
2
100
AcDbEntity
  8
HIDDEN
  6
DASHED2
370
    25
100
AcDbLine
 10
138.812358456604
 20
-185.9507397753807
 30
0.0
 11
144.2112390669405
 21
-184.6006435220025
 31
0.0
  0
LWPOLYLINE
  5
46
330
2
100
AcDbEntity
  8
MAIN
100
AcDbPolyline
 90
        6
 70
     1
 43
0.0
 10
140.4641949814154
 20
-187.5609967756992
 10
140.4076184275628
 20
-187.2412033368138
 10
140.1023809085981
 20
-187.1303033502661
 10
139.853719943486
 20
-187.3391968026037
 10
139.9102964973387
 20
-187.6589902414891
 10
140.2155340163034
 20
-187.7698902280368
  0
CIRCLE
  5
48
330
2
100
AcDbEntity
  8
MAIN
100
AcDbCircle
 10
140.1589574624508
 20
-187.4500967891514
 30
0.0
 40
0.28125
  0
CIRCLE
  5
49
330
2
100
AcDbEntity
  8
HIDDEN
100
AcDbCircle
 10
140.1589574624508
 20
-187.4500967891514
 30
0.0
 40
0.15
  0
CIRCLE
  5
4A
330
2
100
AcDbEntity
  8
HIDDEN
100
AcDbCircle
 10
140.1589574624508
 20
-187.4500967891514
 30
0.0
 40
0.1875
  0
CIRCLE
  5
4B
330
2
100
AcDbEntity
  8
MAIN
100
AcDbCircle
 10
140.1589574624508
 20
-187.4500967891514
 30
0.0
 40
0.193125
  0
CIRCLE
  5
4C
330
2
100
AcDbEntity
  8
MAIN
100
AcDbCircle
 10
140.1589574624508
 20
-187.4500967891514
 30
0.0
 40
0.375
  0
CIRCLE
  5
4D
330
2
100
AcDbEntity
  8
0
100
AcDbCircle
 10
140.1589574624508
 20
-187.4500967891514
 30
0.0
 40
0.1875
  0
LINE
  5
4E
330
2
100
AcDbEntity
  8
Text
  6
Continuous
100
AcDbLine
 10
139.9116330089024
 20
-187.4136191977154
 30
0.0
 11
140.4062819159992
 21
-187.4865743805875
 31
0.0
  0
CIRCLE
  5
50
330
2
100
AcDbEntity
  8
0
  6
DASHEDX2
 48
0.003
100
AcDbCircle
 10
140.1589574624508
 20
-187.4500967891514
 30
0.0
 40
0.1474999999999996
  0
LINE
  5
52
330
2
100
AcDbEntity
  8
HIDDEN
  6
DASHED2
370
    25
100
AcDbLine
 10
144.2088130746332
 20
-187.0493842867858
 30
0.0
 11
139.3233134986077
 21
-188.2710995176941
 31
0.0
  0
LINE
  5
53
330
2
100
AcDbEntity
  8
0
  6
Continuous
100
AcDbLine
 10
141.446612451577
 20
-182.6871644306985
 30
0.0
 11
138.7471403257264
 21
-183.3622205147749
 31
0.0
  0
LINE
  5
54
330
2
100
AcDbEntity
  8
0
  6
Continuous
100
AcDbLine
 10
141.4393312605468
 20
-182.6580477799596
 30
0.0
 11
138.7471403257264
 21
-183.3312830590508
 31
0.0
  0
LINE
  5
55
330
2
100
AcDbEntity
  8
0
  6
Continuous
100
AcDbLine
 10
144.2112390669405
 20
-181.9339402739558
 30
0.0
 11
138.7471403257264
 21
-183.3003456033268
 31
0.0
  0
LINE
  5
56
330
2
100
AcDbEntity
  8
0
  6
Continuous
100
AcDbLine
 10
144.2112390669405
 20
-181.9030028182305
 30
0.0
 11
138.7471403257264
 21
-183.2694081476035
 31
0.0
  0
LINE
  5
57
330
2
100
AcDbEntity
  8
Glazing
  6
Continuous
100
AcDbLine
 10
143.6505892592415
 20
-183.2646943921684
 30
0.0
 11
138.7471403257264
 21
-184.4908982132171
 31
0.0
  0
LINE
  5
59
330
2
100
AcDbEntity
  8
Glazing
  6
Continuous
100
AcDbLine
 10
143.6360333053938
 20
-183.206486796379
 30
0.0
 11
138.7471403257263
 21
-184.4290506149582
 31
0.0
  0
LINE
  5
5A
330
2
100
AcDbEntity
  8
Glazing
  6
Continuous
100
AcDbLine
 10
143.5753834976949
 20
-182.9639551472565
 30
0.0
 11
138.7471403257264
 21
-184.1713522888793
 31
0.0
  0
LINE
  5
5B
330
2
100
AcDbEntity
  8
Glazing
  6
Continuous
100
AcDbLine
 10
143.454083882297
 20
-182.4788918490115
 30
0.0
 11
138.7471403257264
 21
-183.6559556367217
 31
0.0
  0
LINE
  5
5C
330
2
100
AcDbEntity
  8
Glazing
  6
Continuous
100
AcDbLine
 10
143.3934340745981
 20
-182.236360199889
 30
0.0
 11
138.7471403257264
 21
-183.398257310643
 31
0.0
  0
LINE
  5
5D
330
2
100
AcDbEntity
  8
Glazing
  6
Continuous
100
AcDbLine
 10
143.7112390669405
 20
-183.507226041291
 30
0.0
 11
138.7471403257264
 21
-184.7485965392959
 31
0.0
  0
LINE
  5
5E
330
2
100
AcDbEntity
  8
0
  6
Continuous
100
AcDbLine
 10
144.2112390669404
 20
-183.4131286656477
 30
0.0
 11
138.7471403257264
 21
-184.7795339950188
 31
0.0
  0
LINE
  5
5F
330
2
100
AcDbEntity
  8
0
  6
Continuous
100
AcDbLine
 10
144.2112390669405
 20
-183.4440661213717
 30
0.0
 11
138.7471403257264
 21
-184.8104714507427
 31
0.0
  0
LINE
  5
60
330
2
100
AcDbEntity
  8
0
  6
Continuous
100
AcDbLine
 10
138.7471403257264
 20
-184.872346362191
 30
0.0
 11
144.2112390669405
 21
-183.5059410328199
 31
0.0
  0
LINE
  5
61
330
2
100
AcDbEntity
  8
0
  6
Continuous
100
AcDbLine
 10
144.2112390669404
 20
-183.4750035770957
 30
0.0
 11
138.7471403257264
 21
-184.8414089064668
 31
0.0
  0
LINE
  5
62
330
2
100
AcDbEntity
  8
0
  6
Continuous
100
AcDbLine
 10
138.7471403257264
 20
-188.6089720903332
 30
0.0
 11
144.2112390669404
 21
-187.2425667609621
 31
0.0
  0
LINE
  5
63
330
2
100
AcDbEntity
  8
0
  6
Continuous
100
AcDbLine
 10
138.7471403257264
 20
-188.9955195794513
 30
0.0
 11
144.2112390669404
 21
-187.6291142500803
 31
0.0
  0
LINE
  5
64
330
2
100
AcDbEntity
  8
0
  6
Continuous
100
AcDbLine
 10
144.2112390669405
 20
-181.4520307475926
 30
0.0
 11
138.7471403257264
 21
-182.8184360769657
 31
0.0
  0
MTEXT
  5
65
102
{ACAD_REACTORS
330
6D
102
}
330
2
100
AcDbEntity
  8
0
  6
Continuous
100
AcDbMText
 10
136.559391732789
 20
-188.7224674909372
 30
0.0
 40
0.1875
 41
4.4125
 71
     3
 72
     1
  1
CONDENSATION GUTTER BEYOND
 73
     1
 44
1.0
1001
ACAD
1000
MTEXTBEGIN
1070
    73
1070
     1
1070
    44
1040
1.0
1070
    74
1070
     0
1000
MTEXTEND
  0
LINE
  5
66
330
2
100
AcDbEntity
  8
0
  6
Continuous
100
AcDbLine
 10
138.7471403257264
 20
-182.5684360769651
 30
0.0
 11
138.7471403257264
 21
-185.7392255997114
 31
0.0
  0
MTEXT
  5
67
102
{ACAD_REACTORS
330
6A
102
}
330
2
100
AcDbEntity
  8
0
  6
Continuous
100
AcDbMText
 10
136.559391732789
 20
-186.8386136484232
 30
0.0
 40
0.1875
 41
4.4125
 71
     3
 72
     1
  1
INTER-SKY RAFTER BEYOND
 73
     1
 44
1.0
1001
ACAD
1000
MTEXTBEGIN
1070
    73
1070
     1
1070
    44
1040
1.0
1070
    74
1070
     0
1000
MTEXTEND
  0
MTEXT
  5
68
102
{ACAD_REACTORS
330
6B
102
}
330
2
100
AcDbEntity
  8
0
  6
Continuous
100
AcDbMText
 10
136.559391732789
 20
-187.3515005059679
 30
0.0
 40
0.1875
 41
4.4125
 71
     3
 72
     1
  1
 MACHINE SCREW
 73
     1
 44
1.0
1001
ACAD
1000
MTEXTBEGIN
1070
    73
1070
     1
1070
    44
1040
1.0
1070
    74
1070
     0
1000
MTEXTEND
  0
MTEXT
  5
69
102
{ACAD_REACTORS
330
6C
102
}
330
2
100
AcDbEntity
  8
0
  6
Continuous
100
AcDbMText
 10
136.559391732789
 20
-187.829516678407
 30
0.0
 40
0.1875
 41
4.4125
 71
     3
 72
     1
  1
INTERNAL SPLICE PLATE
 73
     1
 44
1.0
1001
ACAD
1000
MTEXTBEGIN
1070
    73
1070
     1
1070
    44
1040
1.0
1070
    74
1070
     0
1000
MTEXTEND
  0
LEADER
  5
6A
330
2
100
AcDbEntity
  8
0
  6
Continuous
100
AcDbLeader
  3
STANDARD
 73
     0
 40
0.1940228512960437
 41
3.658296384720327
 76
     2
 10
138.8825713804001
 20
-186.9323636484232
 30
0.0
 10
136.649391732789
 20
-186.9323636484232
 30
0.0
340
67
213
0.0
223
-0.09375
233
0.0
1001
ACAD
1000
DSTYLE
1002
{
1070
   147
1040
0.09
1070
    77
1070
     0
1002
}
  0
LEADER
  5
6B
330
2
100
AcDbEntity
  8
0
  6
Continuous
100
AcDbLeader
  3
STANDARD
 73
     0
 40
0.1938949522510232
 41
2.378794338335607
 76
     2
 10
139.8924010203943
 20
-187.4452505059679
 30
0.0
 10
136.649391732789
 20
-187.4452505059679
 30
0.0
340
68
213
0.0
223
-0.09375
233
0.0
1001
ACAD
1000
DSTYLE
1002
{
1070
   147
1040
0.09
1070
    77
1070
     0
1002
}
  0
LEADER
  5
6C
330
2
100
AcDbEntity
  8
0
  6
Continuous
100
AcDbLeader
  3
STANDARD
 73
     0
 40
0.1938949522510232
 41
3.163966575716234
 76
     2
 10
139.612650390646
 20
-187.923266678407
 30
0.0
 10
136.649391732789
 20
-187.923266678407
 30
0.0
340
69
213
0.0
223
-0.09375
233
0.0
1001
ACAD
1000
DSTYLE
1002
{
1070
   147
1040
0.09
1070
    77
1070
     0
1002
}
  0
LEADER
  5
6D
330
2
100
AcDbEntity
  8
0
  6
Continuous
100
AcDbLeader
  3
STANDARD
 73
     0
 40
0.1940228512960437
 41
4.41174965893588
 76
     2
 10
138.7471403257264
 20
-188.8162174909372
 30
0.0
 10
136.649391732789
 20
-188.8162174909372
 30
0.0
340
65
213
0.0
223
-0.09375
233
0.0
1001
ACAD
1000
DSTYLE
1002
{
1070
   147
1040
0.09
1070
    77
1070
     0
1002
}
  0
CIRCLE
  5
6E
330
2
100
AcDbEntity
  8
MAIN
100
AcDbCircle
 10
139.8708708759621
 20
-186.2980714557994
 30
0.0
 40
0.193125
  0
CIRCLE
  5
6F
330
2
100
AcDbEntity
  8
HIDDEN
100
AcDbCircle
 10
139.8708708759621
 20
-186.2980714557994
 30
0.0
 40
0.1875
  0
CIRCLE
  5
70
330
2
100
AcDbEntity
  8
HIDDEN
100
AcDbCircle
 10
139.8708708759621
 20
-186.2980714557994
 30
0.0
 40
0.15
  0
LINE
  5
71
330
2
100
AcDbEntity
  8
Text
  6
Continuous
100
AcDbLine
 10
139.6235464224137
 20
-186.2615938643634
 30
0.0
 11
140.1181953295106
 21
-186.3345490472355
 31
0.0
  0
CIRCLE
  5
72
330
2
100
AcDbEntity
  8
0
100
AcDbCircle
 10
139.8708708759621
 20
-186.2980714557994
 30
0.0
 40
0.1875
  0
CIRCLE
  5
73
330
2
100
AcDbEntity
  8
0
  6
DASHEDX2
 48
0.003
100
AcDbCircle
 10
139.8708708759621
 20
-186.2980714557994
 30
0.0
 40
0.1474999999999996
  0
LINE
  5
74
330
2
100
AcDbEntity
  8
Text
  6
Continuous
100
AcDbLine
 10
140.1224798710148
 20
-187.6974212426999
 30
0.0
 11
140.1954350538868
 21
-187.202772335603
 31
0.0
  0
CIRCLE
  5
75
330
2
100
AcDbEntity
  8
MAIN
100
AcDbCircle
 10
139.8708708759621
 20
-186.2980714557994
 30
0.0
 40
0.375
  0
LINE
  5
76
330
2
100
AcDbEntity
  8
HIDDEN
  6
DASHED2
370
    25
100
AcDbLine
 10
138.7740681284186
 20
-186.074730056705
 30
0.0
 11
139.3233134986077
 21
-188.2710995176941
 31
0.0
  0
CIRCLE
  5
77
330
2
100
AcDbEntity
  8
MAIN
100
AcDbCircle
 10
139.8708708759621
 20
-186.2980714557994
 30
0.0
 40
0.28125
  0
LWPOLYLINE
  5
78
330
2
100
AcDbEntity
  8
MAIN
100
AcDbPolyline
 90
        6
 70
     1
 43
0.0
 10
140.0879782012122
 20
-186.056548870266
 10
140.1885892332468
 20
-186.365330622047
 10
139.9714819079967
 20
-186.6068532075804
 10
139.653763550712
 20
-186.5395940413328
 10
139.5531525186774
 20
-186.2308122895518
 10
139.7702598439276
 20
-185.9892897040184
  0
LINE
  5
79
330
2
100
AcDbEntity
  8
Text
  6
Continuous
100
AcDbLine
 10
139.8343932845261
 20
-186.5453959093478
 30
0.0
 11
139.9073484673982
 21
-186.050747002251
 31
0.0
  0
LINE
  5
7A
330
2
100
AcDbEntity
  8
0
  6
Continuous
100
AcDbLine
 10
138.7471403257264
 20
-186.0747300567051
 30
0.0
 11
138.7471403257264
 21
-189.2455195794514
 31
0.0
  0
LINE
  5
7B
330
2
100
AcDbEntity
  8
0
  6
Continuous
100
AcDbLine
 10
138.7471403257264
 20
-185.7392255997114
 30
0.0
 11
138.4971403257264
 21
-185.7392255997114
 31
0.0
  0
LINE
  5
7C
330
2
100
AcDbEntity
  8
0
  6
Continuous
100
AcDbLine
 10
138.9971403257264
 20
-186.074730056705
 30
0.0
 11
138.7471403257264
 21
-186.074730056705
 31
0.0
  0
LINE
  5
7D
330
2
100
AcDbEntity
  8
0
  6
Continuous
100
AcDbLine
 10
138.4971403257264
 20
-185.7392255997114
 30
0.0
 11
138.9971403257264
 21
-186.074730056705
 31
0.0
  0
LINE
  5
7E
330
2
100
AcDbEntity
  8
Glazing
  6
Continuous
100
AcDbLine
 10
144.7112390669404
 20
-183.507226041291
 30
0.0
 11
149.6753378081545
 21
-184.7485965392959
 31
0.0
  0
LINE
  5
7F
330
2
100
AcDbEntity
  8
Glazing
  6
Continuous
100
AcDbLine
 10
144.7718888746394
 20
-183.2646943921684
 30
0.0
 11
149.6753378081545
 21
-184.4908982132171
 31
0.0
  0
LINE
  5
80
330
2
100
AcDbEntity
  8
Glazing
  6
Continuous
100
AcDbLine
 10
144.7864448284871
 20
-183.206486796379
 30
0.0
 11
149.6753378081545
 21
-184.4290506149582
 31
0.0
  0
LINE
  5
81
330
2
100
AcDbEntity
  8
Glazing
  6
Continuous
100
AcDbLine
 10
144.847094636186
 20
-182.9639551472565
 30
0.0
 11
149.6753378081545
 21
-184.1713522888793
 31
0.0
  0
LINE
  5
82
330
2
100
AcDbEntity
  8
Glazing
  6
Continuous
100
AcDbLine
 10
145.0290440592828
 20
-182.236360199889
 30
0.0
 11
149.6753378081545
 21
-183.398257310643
 31
0.0
  0
LINE
  5
83
330
2
100
AcDbEntity
  8
0
  6
Continuous
100
AcDbLine
 10
146.9831468733341
 20
-182.6580477799596
 30
0.0
 11
149.6753378081545
 21
-183.3312830590508
 31
0.0
  0
LINE
  5
84
330
2
100
AcDbEntity
  8
0
  6
Continuous
100
AcDbLine
 10
146.9758656823039
 20
-182.6871644306985
 30
0.0
 11
149.6753378081545
 21
-183.3622205147749
 31
0.0
  0
CIRCLE
  5
85
330
2
100
AcDbEntity
  8
0
  6
DASHEDX2
 48
0.003
100
AcDbCircle
 10
148.2635206714301
 20
-187.4500967891514
 30
0.0
 40
0.1474999999999996
  0
LINE
  5
86
330
2
100
AcDbEntity
  8
Text
  6
Continuous
100
AcDbLine
 10
148.5108451249785
 20
-187.4136191977154
 30
0.0
 11
148.0161962178817
 21
-187.4865743805875
 31
0.0
  0
CIRCLE
  5
87
330
2
100
AcDbEntity
  8
0
100
AcDbCircle
 10
148.2635206714301
 20
-187.4500967891514
 30
0.0
 40
0.1875
  0
CIRCLE
  5
88
330
2
100
AcDbEntity
  8
MAIN
100
AcDbCircle
 10
148.2635206714301
 20
-187.4500967891514
 30
0.0
 40
0.193125
  0
CIRCLE
  5
89
330
2
100
AcDbEntity
  8
HIDDEN
100
AcDbCircle
 10
148.2635206714301
 20
-187.4500967891514
 30
0.0
 40
0.1875
  0
CIRCLE
  5
8A
330
2
100
AcDbEntity
  8
HIDDEN
100
AcDbCircle
 10
148.2635206714301
 20
-187.4500967891514
 30
0.0
 40
0.15
  0
CIRCLE
  5
8B
330
2
100
AcDbEntity
  8
MAIN
100
AcDbCircle
 10
148.2635206714301
 20
-187.4500967891514
 30
0.0
 40
0.28125
  0
LWPOLYLINE
  5
8C
330
2
100
AcDbEntity
  8
MAIN
100
AcDbPolyline
 90
        6
 70
     1
 43
0.0
 10
147.9582831524655
 20
-187.5609967756992
 10
148.0148597063181
 20
-187.2412033368138
 10
148.3200972252828
 20
-187.1303033502661
 10
148.5687581903948
 20
-187.3391968026037
 10
148.5121816365422
 20
-187.6589902414891
 10
148.2069441175775
 20
-187.7698902280368
  0
CIRCLE
  5
8D
330
2
100
AcDbEntity
  8
MAIN
100
AcDbCircle
 10
148.2635206714301
 20
-187.4500967891514
 30
0.0
 40
0.375
  0
CIRCLE
  5
8E
330
2
100
AcDbEntity
  8
MAIN
100
AcDbCircle
 10
148.5516072579187
 20
-186.2980714557994
 30
0.0
 40
0.375
  0
LINE
  5
8F
330
2
100
AcDbEntity
  8
0
  6
Continuous
100
AcDbLine
 10
149.6753378081545
 20
-184.872346362191
 30
0.0
 11
144.2112390669404
 21
-183.5059410328199
 31
0.0
  0
LINE
  5
90
330
2
100
AcDbEntity
  8
0
  6
Continuous
100
AcDbLine
 10
144.2112390669404
 20
-183.4750035770957
 30
0.0
 11
149.6753378081545
 21
-184.8414089064668
 31
0.0
  0
LINE
  5
91
330
2
100
AcDbEntity
  8
0
  6
Continuous
100
AcDbLine
 10
144.2112390669404
 20
-183.4440661213717
 30
0.0
 11
149.6753378081545
 21
-184.8104714507427
 31
0.0
  0
LINE
  5
92
330
2
100
AcDbEntity
  8
0
  6
Continuous
100
AcDbLine
 10
144.2112390669404
 20
-183.4131286656477
 30
0.0
 11
149.6753378081545
 21
-184.7795339950188
 31
0.0
  0
LINE
  5
93
330
2
100
AcDbEntity
  8
0
  6
Continuous
100
AcDbLine
 10
149.6753378081545
 20
-188.6089720903332
 30
0.0
 11
144.2112390669404
 21
-187.2425667609621
 31
0.0
  0
LINE
  5
94
330
2
100
AcDbEntity
  8
0
  6
Continuous
100
AcDbLine
 10
149.6753378081545
 20
-188.9955195794513
 30
0.0
 11
144.2112390669404
 21
-187.6291142500803
 31
0.0
  0
LINE
  5
95
330
2
100
AcDbEntity
  8
HIDDEN
  6
DASHED2
370
    25
100
AcDbLine
 10
149.6101196772769
 20
-185.9507397753807
 30
0.0
 11
144.2112390669404
 21
-184.6006435220025
 31
0.0
  0
LINE
  5
96
330
2
100
AcDbEntity
  8
HIDDEN
  6
DASHED2
370
    25
100
AcDbLine
 10
144.2136650592478
 20
-187.0493842867858
 30
0.0
 11
149.0991646352732
 21
-188.2710995176941
 31
0.0
  0
LINE
  5
97
330
2
100
AcDbEntity
  8
Glazing
  6
Continuous
100
AcDbLine
 10
144.9683942515839
 20
-182.4788918490115
 30
0.0
 11
149.6753378081545
 21
-183.6559556367217
 31
0.0
  0
LINE
  5
98
330
2
100
AcDbEntity
  8
0
  6
Continuous
100
AcDbLine
 10
144.2112390669404
 20
-181.9339402739558
 30
0.0
 11
149.6753378081545
 21
-183.3003456033268
 31
0.0
  0
LINE
  5
99
330
2
100
AcDbEntity
  8
0
  6
Continuous
100
AcDbLine
 10
144.2112390669404
 20
-181.9030028182305
 30
0.0
 11
149.6753378081545
 21
-183.2694081476035
 31
0.0
  0
LINE
  5
9A
330
2
100
AcDbEntity
  8
0
  6
Continuous
100
AcDbLine
 10
144.2112390669404
 20
-181.4520307475926
 30
0.0
 11
149.6753378081545
 21
-182.8184360769657
 31
0.0
  0
LINE
  5
9B
330
2
100
AcDbEntity
  8
0
  6
Continuous
100
AcDbLine
 10
144.2112390669404
 20
-183.4131286656477
 30
0.0
 11
144.2112390669404
 21
-187.6291142500803
 31
0.0
  0
LINE
  5
9C
330
2
100
AcDbEntity
  8
0
  6
Continuous
100
AcDbLine
 10
144.2112390669404
 20
-183.4131286656477
 30
0.0
 11
144.2112390669404
 21
-187.6291142500803
 31
0.0
  0
INSERT
  5
9D
330
2
100
AcDbEntity
  8
0
  6
Continuous
 62
     0
100
AcDbBlockReference
  2
purlin screw race
 10
144.336445349605
 20
-135.0202396257627
 30
0.0
  0
INSERT
  5
164
330
2
100
AcDbEntity
  8
0
  6
Continuous
 62
     0
100
AcDbBlockReference
  2
PURLIN CLIP
 10
124.4583485337831
 20
-148.030047774572
 30
0.0
  0
INSERT
  5
296
330
2
100
AcDbEntity
  8
0
  6
Continuous
 62
     0
100
AcDbBlockReference
  2
snap bottom
 10
136.9396510518474
 20
-129.746493155016
 30
0.0
  0
LINE
  5
2C2
330
2
100
AcDbEntity
  8
0
  6
Continuous
100
AcDbLine
 10
144.2112390669404
 20
-186.9296763624262
 30
0.0
 11
144.2112390669404
 21
-184.6006435220025
 31
0.0
  0
LWPOLYLINE
  5
2C3
330
2
100
AcDbEntity
  8
MAIN
100
AcDbPolyline
 90
        6
 70
     1
 43
0.0
 10
142.8487199828409
 20
-185.7406323641324
 10
142.7921434289883
 20
-185.420838925247
 10
142.4869059100235
 20
-185.3099389386993
 10
142.2382449449116
 20
-185.518832391037
 10
142.2948214987642
 20
-185.8386258299224
 10
142.6000590177289
 20
-185.9495258164701
  0
CIRCLE
  5
2C4
330
2
100
AcDbEntity
  8
MAIN
100
AcDbCircle
 10
142.5434824638763
 20
-185.6297323775847
 30
0.0
 40
0.28125
  0
CIRCLE
  5
2C5
330
2
100
AcDbEntity
  8
HIDDEN
100
AcDbCircle
 10
142.5434824638763
 20
-185.6297323775847
 30
0.0
 40
0.15
  0
CIRCLE
  5
2C6
330
2
100
AcDbEntity
  8
HIDDEN
100
AcDbCircle
 10
142.5434824638763
 20
-185.6297323775847
 30
0.0
 40
0.1875
  0
CIRCLE
  5
2C7
330
2
100
AcDbEntity
  8
MAIN
100
AcDbCircle
 10
142.5434824638763
 20
-185.6297323775847
 30
0.0
 40
0.193125
  0
CIRCLE
  5
2C8
330
2
100
AcDbEntity
  8
MAIN
100
AcDbCircle
 10
142.5434824638763
 20
-185.6297323775847
 30
0.0
 40
0.375
  0
LINE
  5
2C9
330
2
100
AcDbEntity
  8
Text
  6
Continuous
100
AcDbLine
 10
142.2961580103279
 20
-185.5932547861487
 30
0.0
 11
142.7908069174247
 21
-185.6662099690208
 31
0.0
  0
CIRCLE
  5
2CA
330
2
100
AcDbEntity
  8
0
100
AcDbCircle
 10
142.5434824638763
 20
-185.6297323775847
 30
0.0
 40
0.1875
  0
LINE
  5
2CB
330
2
100
AcDbEntity
  8
Text
  6
Continuous
100
AcDbLine
 10
142.5070048724402
 20
-185.8770568311331
 30
0.0
 11
142.5799600553123
 21
-185.3824079240363
 31
0.0
  0
CIRCLE
  5
2CC
330
2
100
AcDbEntity
  8
0
  6
DASHEDX2
 48
0.003
100
AcDbCircle
 10
142.5434824638763
 20
-185.6297323775847
 30
0.0
 40
0.1474999999999996
  0
LINE
  5
2CD
330
2
100
AcDbEntity
  8
Text
  6
Continuous
100
AcDbLine
 10
141.4587856649719
 20
-187.3632517035927
 30
0.0
 11
141.531740847844
 21
-186.8686027964959
 31
0.0
  0
CIRCLE
  5
2CE
330
2
100
AcDbEntity
  8
HIDDEN
100
AcDbCircle
 10
142.8315690503651
 20
-186.7817577109372
 30
0.0
 40
0.15
  0
CIRCLE
  5
2CF
330
2
100
AcDbEntity
  8
HIDDEN
100
AcDbCircle
 10
142.8315690503651
 20
-186.7817577109372
 30
0.0
 40
0.1875
  0
CIRCLE
  5
2D0
330
2
100
AcDbEntity
  8
MAIN
100
AcDbCircle
 10
142.8315690503651
 20
-186.7817577109372
 30
0.0
 40
0.193125
  0
LINE
  5
2D2
330
2
100
AcDbEntity
  8
Text
  6
Continuous
100
AcDbLine
 10
142.795091458929
 20
-187.0290821644856
 30
0.0
 11
142.8680466418011
 21
-186.5344332573888
 31
0.0
  0
LINE
  5
2D3
330
2
100
AcDbEntity
  8
Text
  6
Continuous
100
AcDbLine
 10
142.5842445968167
 20
-186.7452801195011
 30
0.0
 11
143.0788935039135
 21
-186.8182353023732
 31
0.0
  0
CIRCLE
  5
2D4
330
2
100
AcDbEntity
  8
0
100
AcDbCircle
 10
142.8315690503651
 20
-186.7817577109372
 30
0.0
 40
0.1875
  0
CIRCLE
  5
2D5
330
2
100
AcDbEntity
  8
0
  6
DASHEDX2
 48
0.003
100
AcDbCircle
 10
142.8315690503651
 20
-186.7817577109372
 30
0.0
 40
0.1474999999999996
  0
LWPOLYLINE
  5
2D6
330
2
100
AcDbEntity
  8
MAIN
100
AcDbPolyline
 90
        6
 70
     1
 43
0.0
 10
143.1368065693297
 20
-186.892657697485
 10
143.080230015477
 20
-186.5728642585995
 10
142.7749924965123
 20
-186.4619642720518
 10
142.5263315314004
 20
-186.6708577243895
 10
142.582908085253
 20
-186.9906511632749
 10
142.8881456042177
 20
-187.1015511498226
  0
CIRCLE
  5
2D7
330
2
100
AcDbEntity
  8
MAIN
100
AcDbCircle
 10
142.8315690503651
 20
-186.7817577109372
 30
0.0
 40
0.28125
  0
CIRCLE
  5
2D8
330
2
100
AcDbEntity
  8
MAIN
100
AcDbCircle
 10
142.8315690503651
 20
-186.7817577109372
 30
0.0
 40
0.375
  0
LINE
  5
2D9
330
2
100
AcDbEntity
  8
0
  6
Continuous
100
AcDbLine
 10
144.2112390669405
 20
-186.9296763624262
 30
0.0
 11
144.2112390669405
 21
-184.6006435220025
 31
0.0
  0
CIRCLE
  5
2DA
330
2
100
AcDbEntity
  8
HIDDEN
100
AcDbCircle
 10
141.2071766699192
 20
-185.963901916692
 30
0.0
 40
0.15
  0
CIRCLE
  5
2DB
330
2
100
AcDbEntity
  8
0
  6
DASHEDX2
 48
0.003
100
AcDbCircle
 10
141.2071766699192
 20
-185.963901916692
 30
0.0
 40
0.1474999999999996
  0
LINE
  5
2DC
330
2
100
AcDbEntity
  8
Text
  6
Continuous
100
AcDbLine
 10
141.1706990784832
 20
-186.2112263702405
 30
0.0
 11
141.2436542613553
 21
-185.7165774631436
 31
0.0
  0
LWPOLYLINE
  5
2DD
330
2
100
AcDbEntity
  8
MAIN
100
AcDbPolyline
 90
        6
 70
     1
 43
0.0
 10
141.8005007753726
 20
-187.2268272365921
 10
141.7439242215199
 20
-186.9070337977067
 10
141.4386867025552
 20
-186.7961338111589
 10
141.1900257374432
 20
-187.0050272634966
 10
141.2466022912959
 20
-187.324820702382
 10
141.5518398102606
 20
-187.4357206889298
  0
CIRCLE
  5
2DE
330
2
100
AcDbEntity
  8
MAIN
100
AcDbCircle
 10
141.4952632564079
 20
-187.1159272500443
 30
0.0
 40
0.28125
  0
CIRCLE
  5
2DF
330
2
100
AcDbEntity
  8
HIDDEN
100
AcDbCircle
 10
141.4952632564079
 20
-187.1159272500443
 30
0.0
 40
0.15
  0
CIRCLE
  5
2E0
330
2
100
AcDbEntity
  8
HIDDEN
100
AcDbCircle
 10
141.4952632564079
 20
-187.1159272500443
 30
0.0
 40
0.1875
  0
CIRCLE
  5
2E1
330
2
100
AcDbEntity
  8
MAIN
100
AcDbCircle
 10
141.4952632564079
 20
-187.1159272500443
 30
0.0
 40
0.193125
  0
CIRCLE
  5
2E2
330
2
100
AcDbEntity
  8
MAIN
100
AcDbCircle
 10
141.4952632564079
 20
-187.1159272500443
 30
0.0
 40
0.375
  0
LINE
  5
2E3
330
2
100
AcDbEntity
  8
Text
  6
Continuous
100
AcDbLine
 10
141.2479388028595
 20
-187.0794496586082
 30
0.0
 11
141.7425877099564
 21
-187.1524048414804
 31
0.0
  0
CIRCLE
  5
2E4
330
2
100
AcDbEntity
  8
0
100
AcDbCircle
 10
141.4952632564079
 20
-187.1159272500443
 30
0.0
 40
0.1875
  0
CIRCLE
  5
2E5
330
2
100
AcDbEntity
  8
0
  6
DASHEDX2
 48
0.003
100
AcDbCircle
 10
141.4952632564079
 20
-187.1159272500443
 30
0.0
 40
0.1474999999999996
  0
LWPOLYLINE
  5
2E6
330
2
100
AcDbEntity
  8
MAIN
100
AcDbPolyline
 90
        6
 70
     1
 43
0.0
 10
141.5124141888838
 20
-186.0748019032398
 10
141.4558376350312
 20
-185.7550084643544
 10
141.1506001160665
 20
-185.6441084778067
 10
140.9019391509545
 20
-185.8530019301443
 10
140.9585157048072
 20
-186.1727953690297
 10
141.2637532237719
 20
-186.2836953555775
  0
CIRCLE
  5
2E7
330
2
100
AcDbEntity
  8
MAIN
100
AcDbCircle
 10
141.2071766699192
 20
-185.963901916692
 30
0.0
 40
0.28125
  0
CIRCLE
  5
2E8
330
2
100
AcDbEntity
  8
HIDDEN
100
AcDbCircle
 10
141.2071766699192
 20
-185.963901916692
 30
0.0
 40
0.1875
  0
CIRCLE
  5
2E9
330
2
100
AcDbEntity
  8
MAIN
100
AcDbCircle
 10
141.2071766699192
 20
-185.963901916692
 30
0.0
 40
0.193125
  0
CIRCLE
  5
2EA
330
2
100
AcDbEntity
  8
MAIN
100
AcDbCircle
 10
141.2071766699192
 20
-185.963901916692
 30
0.0
 40
0.375
  0
LINE
  5
2EB
330
2
100
AcDbEntity
  8
Text
  6
Continuous
100
AcDbLine
 10
140.9598522163708
 20
-185.927424325256
 30
0.0
 11
141.4545011234677
 21
-186.0003795081281
 31
0.0
  0
CIRCLE
  5
2EC
330
2
100
AcDbEntity
  8
0
100
AcDbCircle
 10
141.2071766699192
 20
-185.963901916692
 30
0.0
 40
0.1875
  0
CIRCLE
  5
2ED
330
2
100
AcDbEntity
  8
0
  6
DASHEDX2
 48
0.003
100
AcDbCircle
 10
145.8789956700046
 20
-185.6297323775847
 30
0.0
 40
0.1474999999999996
  0
LINE
  5
2EE
330
2
100
AcDbEntity
  8
Text
  6
Continuous
100
AcDbLine
 10
145.9154732614407
 20
-185.8770568311331
 30
0.0
 11
145.8425180785685
 21
-185.3824079240363
 31
0.0
  0
CIRCLE
  5
2EF
330
2
100
AcDbEntity
  8
0
100
AcDbCircle
 10
145.8789956700046
 20
-185.6297323775847
 30
0.0
 40
0.1875
  0
CIRCLE
  5
2F0
330
2
100
AcDbEntity
  8
MAIN
100
AcDbCircle
 10
145.8789956700046
 20
-185.6297323775847
 30
0.0
 40
0.193125
  0
CIRCLE
  5
2F1
330
2
100
AcDbEntity
  8
HIDDEN
100
AcDbCircle
 10
145.8789956700046
 20
-185.6297323775847
 30
0.0
 40
0.1875
  0
CIRCLE
  5
2F2
330
2
100
AcDbEntity
  8
HIDDEN
100
AcDbCircle
 10
145.8789956700046
 20
-185.6297323775847
 30
0.0
 40
0.15
  0
CIRCLE
  5
2F3
330
2
100
AcDbEntity
  8
MAIN
100
AcDbCircle
 10
145.8789956700046
 20
-185.6297323775847
 30
0.0
 40
0.28125
  0
LINE
  5
2F4
330
2
100
AcDbEntity
  8
Text
  6
Continuous
100
AcDbLine
 10
146.126320123553
 20
-185.5932547861487
 30
0.0
 11
145.6316712164561
 21
-185.6662099690208
 31
0.0
  0
CIRCLE
  5
2F5
330
2
100
AcDbEntity
  8
0
  6
DASHEDX2
 48
0.003
100
AcDbCircle
 10
145.5909090835158
 20
-186.7817577109372
 30
0.0
 40
0.1474999999999996
  0
CIRCLE
  5
2F6
330
2
100
AcDbEntity
  8
0
100
AcDbCircle
 10
145.5909090835158
 20
-186.7817577109372
 30
0.0
 40
0.1875
  0
LINE
  5
2F7
330
2
100
AcDbEntity
  8
Text
  6
Continuous
100
AcDbLine
 10
145.8382335370642
 20
-186.7452801195011
 30
0.0
 11
145.3435846299674
 21
-186.8182353023732
 31
0.0
  0
LINE
  5
2F8
330
2
100
AcDbEntity
  8
Text
  6
Continuous
100
AcDbLine
 10
145.6273866749518
 20
-187.0290821644856
 30
0.0
 11
145.5544314920798
 21
-186.5344332573888
 31
0.0
  0
CIRCLE
  5
2F9
330
2
100
AcDbEntity
  8
MAIN
100
AcDbCircle
 10
145.5909090835158
 20
-186.7817577109372
 30
0.0
 40
0.193125
  0
CIRCLE
  5
2FA
330
2
100
AcDbEntity
  8
HIDDEN
100
AcDbCircle
 10
145.5909090835158
 20
-186.7817577109372
 30
0.0
 40
0.1875
  0
CIRCLE
  5
2FB
330
2
100
AcDbEntity
  8
HIDDEN
100
AcDbCircle
 10
145.5909090835158
 20
-186.7817577109372
 30
0.0
 40
0.15
  0
CIRCLE
  5
2FC
330
2
100
AcDbEntity
  8
MAIN
100
AcDbCircle
 10
145.5909090835158
 20
-186.7817577109372
 30
0.0
 40
0.375
  0
CIRCLE
  5
2FD
330
2
100
AcDbEntity
  8
MAIN
100
AcDbCircle
 10
145.5909090835158
 20
-186.7817577109372
 30
0.0
 40
0.28125
  0
LWPOLYLINE
  5
2FE
330
2
100
AcDbEntity
  8
MAIN
100
AcDbPolyline
 90
        6
 70
     1
 43
0.0
 10
145.2856715645512
 20
-186.892657697485
 10
145.3422481184038
 20
-186.5728642585995
 10
145.6474856373686
 20
-186.4619642720518
 10
145.8961466024805
 20
-186.6708577243895
 10
145.8395700486279
 20
-186.9906511632749
 10
145.5343325296631
 20
-187.1015511498226
  0
LINE
  5
2FF
330
2
100
AcDbEntity
  8
Text
  6
Continuous
100
AcDbLine
 10
146.963692468909
 20
-187.3632517035927
 30
0.0
 11
146.8907372860369
 21
-186.8686027964959
 31
0.0
  0
CIRCLE
  5
300
330
2
100
AcDbEntity
  8
0
  6
DASHEDX2
 48
0.003
100
AcDbCircle
 10
146.927214877473
 20
-187.1159272500443
 30
0.0
 40
0.1474999999999996
  0
CIRCLE
  5
301
330
2
100
AcDbEntity
  8
0
100
AcDbCircle
 10
146.927214877473
 20
-187.1159272500443
 30
0.0
 40
0.1875
  0
LINE
  5
302
330
2
100
AcDbEntity
  8
Text
  6
Continuous
100
AcDbLine
 10
147.1745393310214
 20
-187.0794496586082
 30
0.0
 11
146.6798904239245
 21
-187.1524048414804
 31
0.0
  0
CIRCLE
  5
303
330
2
100
AcDbEntity
  8
MAIN
100
AcDbCircle
 10
146.927214877473
 20
-187.1159272500443
 30
0.0
 40
0.375
  0
CIRCLE
  5
304
330
2
100
AcDbEntity
  8
MAIN
100
AcDbCircle
 10
146.927214877473
 20
-187.1159272500443
 30
0.0
 40
0.193125
  0
CIRCLE
  5
305
330
2
100
AcDbEntity
  8
HIDDEN
100
AcDbCircle
 10
146.927214877473
 20
-187.1159272500443
 30
0.0
 40
0.1875
  0
CIRCLE
  5
306
330
2
100
AcDbEntity
  8
HIDDEN
100
AcDbCircle
 10
146.927214877473
 20
-187.1159272500443
 30
0.0
 40
0.15
  0
CIRCLE
  5
307
330
2
100
AcDbEntity
  8
MAIN
100
AcDbCircle
 10
146.927214877473
 20
-187.1159272500443
 30
0.0
 40
0.28125
  0
LWPOLYLINE
  5
308
330
2
100
AcDbEntity
  8
MAIN
100
AcDbPolyline
 90
        6
 70
     1
 43
0.0
 10
146.6219773585083
 20
-187.2268272365921
 10
146.678553912361
 20
-186.9070337977067
 10
146.9837914313257
 20
-186.7961338111589
 10
147.2324523964377
 20
-187.0050272634966
 10
147.175875842585
 20
-187.324820702382
 10
146.8706383236203
 20
-187.4357206889298
  0
LINE
  5
309
330
2
100
AcDbEntity
  8
Text
  6
Continuous
100
AcDbLine
 10
147.2517790553977
 20
-186.2112263702405
 30
0.0
 11
147.1788238725256
 21
-185.7165774631436
 31
0.0
  0
CIRCLE
  5
30A
330
2
100
AcDbEntity
  8
0
  6
DASHEDX2
 48
0.003
100
AcDbCircle
 10
147.2153014639617
 20
-185.963901916692
 30
0.0
 40
0.1474999999999996
  0
CIRCLE
  5
30B
330
2
100
AcDbEntity
  8
HIDDEN
100
AcDbCircle
 10
147.2153014639617
 20
-185.963901916692
 30
0.0
 40
0.15
  0
CIRCLE
  5
30C
330
2
100
AcDbEntity
  8
0
100
AcDbCircle
 10
147.2153014639617
 20
-185.963901916692
 30
0.0
 40
0.1875
  0
CIRCLE
  5
30D
330
2
100
AcDbEntity
  8
MAIN
100
AcDbCircle
 10
147.2153014639617
 20
-185.963901916692
 30
0.0
 40
0.375
  0
CIRCLE
  5
30E
330
2
100
AcDbEntity
  8
MAIN
100
AcDbCircle
 10
147.2153014639617
 20
-185.963901916692
 30
0.0
 40
0.193125
  0
CIRCLE
  5
30F
330
2
100
AcDbEntity
  8
HIDDEN
100
AcDbCircle
 10
147.2153014639617
 20
-185.963901916692
 30
0.0
 40
0.1875
  0
CIRCLE
  5
310
330
2
100
AcDbEntity
  8
MAIN
100
AcDbCircle
 10
147.2153014639617
 20
-185.963901916692
 30
0.0
 40
0.28125
  0
LWPOLYLINE
  5
311
330
2
100
AcDbEntity
  8
MAIN
100
AcDbPolyline
 90
        6
 70
     1
 43
0.0
 10
146.910063944997
 20
-186.0748019032398
 10
146.9666404988497
 20
-185.7550084643544
 10
147.2718780178144
 20
-185.6441084778067
 10
147.5205389829264
 20
-185.8530019301443
 10
147.4639624290737
 20
-186.1727953690297
 10
147.158724910109
 20
-186.2836953555775
  0
LINE
  5
312
330
2
100
AcDbEntity
  8
Text
  6
Continuous
100
AcDbLine
 10
147.4626259175101
 20
-185.927424325256
 30
0.0
 11
146.9679770104132
 21
-186.0003795081281
 31
0.0
  0
CIRCLE
  5
313
330
2
100
AcDbEntity
  8
MAIN
100
AcDbCircle
 10
145.8789956700046
 20
-185.6297323775847
 30
0.0
 40
0.375
  0
LWPOLYLINE
  5
314
330
2
100
AcDbEntity
  8
MAIN
100
AcDbPolyline
 90
        6
 70
     1
 43
0.0
 10
145.57375815104
 20
-185.7406323641324
 10
145.6303347048926
 20
-185.420838925247
 10
145.9355722238573
 20
-185.3099389386993
 10
146.1842331889693
 20
-185.518832391037
 10
146.1276566351166
 20
-185.8386258299224
 10
145.8224191161519
 20
-185.9495258164701
  0
LINE
  5
315
330
2
100
AcDbEntity
  8
.0625 Flashing
  6
Continuous
100
AcDbLine
 10
144.2112390669404
 20
-182.0237241514947
 30
0.0
 11
146.9692972522629
 21
-182.7134308317053
 31
0.0
  0
LINE
  5
317
330
2
100
AcDbEntity
  8
.0625 Flashing
  6
Continuous
100
AcDbLine
 10
144.2112390669404
 20
-181.959299569975
 30
0.0
 11
146.9844597041875
 21
-182.6527979194247
 31
0.0
  0
LINE
  5
318
330
2
100
AcDbEntity
  8
0
  6
Continuous
100
AcDbLine
 10
144.2112390669405
 20
-181.959299569975
 30
0.0
 11
144.2112390669405
 21
-181.4520307475926
 31
0.0
  0
LINE
  5
319
330
2
100
AcDbEntity
  8
.0625 Flashing
  6
Continuous
100
AcDbLine
 10
141.453180881618
 20
-182.7134308317053
 30
0.0
 11
141.4380184296934
 21
-182.6527979194247
 31
0.0
  0
LINE
  5
31A
330
2
100
AcDbEntity
  8
.0625 Flashing
  6
Continuous
100
AcDbLine
 10
144.2112390669404
 20
-181.959299569975
 30
0.0
 11
141.4380184296934
 21
-182.6527979194247
 31
0.0
  0
LINE
  5
31B
330
2
100
AcDbEntity
  8
.0625 Flashing
  6
Continuous
100
AcDbLine
 10
144.2112390669404
 20
-182.0237241514947
 30
0.0
 11
141.453180881618
 21
-182.7134308317053
 31
0.0
  0
LINE
  5
31C
330
2
100
AcDbEntity
  8
0
  6
Continuous
100
AcDbLine
 10
143.454083882297
 20
-182.4788918490115
 30
0.0
 11
143.0903201994498
 21
-183.0852547626544
 31
0.0
  0
LINE
  5
31D
330
2
100
AcDbEntity
  8
0
  6
Continuous
100
AcDbLine
 10
142.969020584052
 20
-182.6001914644094
 30
0.0
 11
143.5753834976949
 21
-182.9639551472565
 31
0.0
  0
LINE
  5
31E
330
2
100
AcDbEntity
  8
Glazing
  6
Continuous
100
AcDbLine
 10
143.0903201994498
 20
-183.0852547626544
 30
0.0
 11
142.969020584052
 21
-182.6001914644094
 31
0.0
  0
LINE
  5
31F
330
2
100
AcDbEntity
  8
Glazing
  6
Continuous
100
AcDbLine
 10
143.7112390669405
 20
-183.507226041291
 30
0.0
 11
143.3934340745981
 21
-182.2363601998891
 31
0.0
  0
INSERT
  5
320
330
2
100
AcDbEntity
  8
0
  6
Continuous
 62
     0
100
AcDbBlockReference
  2
epdm
 10
147.2811881011469
 20
-188.9444267139803
 30
0.0
  0
LINE
  5
38E
330
2
100
AcDbEntity
  8
0
  6
Continuous
100
AcDbLine
 10
143.4592085590992
 20
-183.653653119713
 30
0.0
 11
143.4667037981954
 21
-183.6505592128877
 31
0.0
  0
LINE
  5
38F
330
2
100
AcDbEntity
  8
Glazing
  6
Continuous
100
AcDbLine
 10
144.7112390669404
 20
-183.507226041291
 30
0.0
 11
145.0290440592828
 21
-182.2363601998891
 31
0.0
  0
LINE
  5
390
330
2
100
AcDbEntity
  8
Glazing
  6
Continuous
100
AcDbLine
 10
145.332157934431
 20
-183.0852547626544
 30
0.0
 11
145.4534575498289
 21
-182.6001914644094
 31
0.0
  0
LINE
  5
391
330
2
100
AcDbEntity
  8
0
  6
Continuous
100
AcDbLine
 10
145.4534575498289
 20
-182.6001914644094
 30
0.0
 11
144.847094636186
 21
-182.9639551472565
 31
0.0
  0
LINE
  5
392
330
2
100
AcDbEntity
  8
0
  6
Continuous
100
AcDbLine
 10
144.9683942515839
 20
-182.4788918490115
 30
0.0
 11
145.332157934431
 21
-183.0852547626544
 31
0.0
  0
LINE
  5
393
330
2
100
AcDbEntity
  8
.0625 Flashing
  6
Continuous
100
AcDbLine
 10
146.9692972522629
 20
-182.7134308317053
 30
0.0
 11
146.9844597041875
 21
-182.6527979194247
 31
0.0
  0
INSERT
  5
394
330
2
100
AcDbEntity
  8
0
  6
Continuous
 62
     0
100
AcDbBlockReference
  2
epdm
 10
141.141290032734
 20
-188.9444267139803
 30
0.0
 41
-1.0
  0
LINE
  5
395
330
2
100
AcDbEntity
  8
0
  6
Continuous
100
AcDbLine
 10
149.6753378081545
 20
-182.5684360769651
 30
0.0
 11
149.6753378081545
 21
-185.7392255997114
 31
0.0
  0
LINE
  5
396
330
2
100
AcDbEntity
  8
0
  6
Continuous
100
AcDbLine
 10
149.6753378081545
 20
-185.7392255997114
 30
0.0
 11
149.9253378081545
 21
-185.7392255997114
 31
0.0
  0
LINE
  5
397
330
2
100
AcDbEntity
  8
Text
  6
Continuous
100
AcDbLine
 10
148.2999982628661
 20
-187.6974212426999
 30
0.0
 11
148.227043079994
 21
-187.202772335603
 31
0.0
  0
LINE
  5
398
330
2
100
AcDbEntity
  8
0
  6
Continuous
100
AcDbLine
 10
149.6753378081545
 20
-186.0747300567051
 30
0.0
 11
149.6753378081545
 21
-189.2455195794514
 31
0.0
  0
LINE
  5
399
330
2
100
AcDbEntity
  8
0
  6
Continuous
100
AcDbLine
 10
149.4253378081545
 20
-186.074730056705
 30
0.0
 11
149.6753378081545
 21
-186.074730056705
 31
0.0
  0
LINE
  5
39A
330
2
100
AcDbEntity
  8
HIDDEN
  6
DASHED2
370
    25
100
AcDbLine
 10
149.6484100054623
 20
-186.074730056705
 30
0.0
 11
149.0991646352732
 21
-188.2710995176941
 31
0.0
  0
LWPOLYLINE
  5
39B
330
2
100
AcDbEntity
  8
MAIN
100
AcDbPolyline
 90
        6
 70
     1
 43
0.0
 10
148.3344999326687
 20
-186.056548870266
 10
148.2338889006341
 20
-186.365330622047
 10
148.4509962258842
 20
-186.6068532075804
 10
148.7687145831688
 20
-186.5395940413328
 10
148.8693256152035
 20
-186.2308122895518
 10
148.6522182899533
 20
-185.9892897040184
  0
CIRCLE
  5
39C
330
2
100
AcDbEntity
  8
MAIN
100
AcDbCircle
 10
148.5516072579187
 20
-186.2980714557994
 30
0.0
 40
0.28125
  0
CIRCLE
  5
39D
330
2
100
AcDbEntity
  8
0
  6
DASHEDX2
 48
0.003
100
AcDbCircle
 10
148.5516072579187
 20
-186.2980714557994
 30
0.0
 40
0.1474999999999996
  0
CIRCLE
  5
39E
330
2
100
AcDbEntity
  8
0
100
AcDbCircle
 10
148.5516072579187
 20
-186.2980714557994
 30
0.0
 40
0.1875
  0
LINE
  5
39F
330
2
100
AcDbEntity
  8
Text
  6
Continuous
100
AcDbLine
 10
148.7989317114671
 20
-186.2615938643634
 30
0.0
 11
148.3042828043703
 21
-186.3345490472355
 31
0.0
  0
CIRCLE
  5
3A0
330
2
100
AcDbEntity
  8
HIDDEN
100
AcDbCircle
 10
148.5516072579187
 20
-186.2980714557994
 30
0.0
 40
0.15
  0
CIRCLE
  5
3A1
330
2
100
AcDbEntity
  8
HIDDEN
100
AcDbCircle
 10
148.5516072579187
 20
-186.2980714557994
 30
0.0
 40
0.1875
  0
CIRCLE
  5
3A2
330
2
100
AcDbEntity
  8
MAIN
100
AcDbCircle
 10
148.5516072579187
 20
-186.2980714557994
 30
0.0
 40
0.193125
  0
LINE
  5
3A3
330
2
100
AcDbEntity
  8
Text
  6
Continuous
100
AcDbLine
 10
148.5880848493548
 20
-186.5453959093478
 30
0.0
 11
148.5151296664826
 21
-186.050747002251
 31
0.0
  0
LINE
  5
3A4
330
2
100
AcDbEntity
  8
0
  6
Continuous
100
AcDbLine
 10
149.9253378081545
 20
-185.7392255997114
 30
0.0
 11
149.4253378081545
 21
-186.074730056705
 31
0.0
  0
ARC
  5
3AA
330
2
100
AcDbEntity
  8
HIDDEN
  6
DASHED2
370
    25
100
AcDbCircle
 10
144.2112390669405
 20
-187.0590855527509
 30
0.0
 40
0.01
100
AcDbArc
 50
75.96000000402615
 51
104.0399999959738
  0
TEXT
  5
3B1
330
2
100
AcDbEntity
  8
0
  6
Continuous
100
AcDbText
 10
132.8922101300961
 20
-187.1869698927954
 30
0.0
 40
0.1082863998362349
  1
-800-972-9112-
100
AcDbText
  0
ENDSEC
  0
SECTION
  2
OBJECTS
  0
DICTIONARY
  5
9
330
0
100
AcDbDictionary
281
     1
  3
ACAD_COLOR
350
30
  3
ACAD_GROUP
350
2C
  3
ACAD_LAYOUT
350
D
  3
ACAD_MATERIAL
350
2F
  3
ACAD_MLINESTYLE
350
2D
  3
ACAD_PLOTSETTINGS
350
2E
  3
ACAD_PLOTSTYLENAME
350
8
  3
ACDBHEADERROUNDTRIPXREC
350
3C3
  3
AcDbVariableDictionary
350
3BE
  0
DICTIONARY
  5
15
330
14
100
AcDbDictionary
280
     1
281
     1
  3
ACAD_LAYERFILTERS
360
16
  3
ACAD_LAYERSTATES
360
1A
  0
DICTIONARY
  5
3
330
2
100
AcDbDictionary
280
     1
281
     1
  3
ACAD_LAYOUTSELFREF
360
4
  0
DICTIONARY
  5
F
330
E
100
AcDbDictionary
280
     1
281
     1
  3
ACAD_LAYOUTSELFREF
360
10
  0
DICTIONARY
  5
30
102
{ACAD_REACTORS
330
9
102
}
330
9
100
AcDbDictionary
281
     1
  0
DICTIONARY
  5
2C
102
{ACAD_REACTORS
330
9
102
}
330
9
100
AcDbDictionary
281
     1
  0
DICTIONARY
  5
D
102
{ACAD_REACTORS
330
9
102
}
330
9
100
AcDbDictionary
281
     1
  3
Layout1
350
13
  3
Model
350
C
  0
DICTIONARY
  5
2F
102
{ACAD_REACTORS
330
9
102
}
330
9
100
AcDbDictionary
281
     1
  0
DICTIONARY
  5
2D
102
{ACAD_REACTORS
330
9
102
}
330
9
100
AcDbDictionary
281
     1
  3
STANDARD
350
31
  0
DICTIONARY
  5
2E
102
{ACAD_REACTORS
330
9
102
}
330
9
100
AcDbDictionary
281
     1
  0
ACDBDICTIONARYWDFLT
  5
8
102
{ACAD_REACTORS
330
9
102
}
330
9
100
AcDbDictionary
281
     1
  3
Normal
350
7
100
AcDbDictionaryWithDefault
340
7
  0
DICTIONARY
  5
3C3
102
{ACAD_REACTORS
330
9
102
}
330
9
100
AcDbDictionary
281
     1
  3
COLORDICT
350
3C5
  3
MATERIALDICT
350
3C4
  0
DICTIONARY
  5
3BE
102
{ACAD_REACTORS
330
9
102
}
330
9
100
AcDbDictionary
281
     1
  3
DIMASSOC
350
3C0
  3
HIDETEXT
350
3BF
  3
PROJECTNAME
350
3C1
  0
DICTIONARY
  5
16
102
{ACAD_REACTORS
330
15
102
}
330
15
100
AcDbDictionary
280
     1
281
     1
  3
clg
360
17
  3
Roof
360
18
  3
sk
360
19
  0
DICTIONARY
  5
1A
102
{ACAD_REACTORS
330
15
102
}
330
15
100
AcDbDictionary
281
     1
  0
XRECORD
  5
4
102
{ACAD_REACTORS
330
3
102
}
330
3
100
AcDbXrecord
280
     1
340
2
  0
XRECORD
  5
10
102
{ACAD_REACTORS
330
F
102
}
330
F
100
AcDbXrecord
280
     1
340
E
  0
LAYOUT
  5
13
102
{ACAD_XDICTIONARY
360
3C8
102
}
102
{ACAD_REACTORS
330
D
102
}
330
D
100
AcDbPlotSettings
  1

  2
HP DesignJet 430 Plotter
  4

  6

 40
0.0
 41
0.0
 42
0.0
 43
0.0
 44
0.0
 45
0.0
 46
0.0
 47
0.0
 48
0.0
 49
0.0
140
0.0
141
0.0
142
1.0
143
1.0
 70
   688
 72
     0
 73
     0
 74
     5
  7
acad.ctb
 75
    16
147
1.0
148
0.0
149
0.0
100
AcDbLayout
  1
Layout1
 70
     1
 71
     1
 10
0.0
 20
0.0
 11
11.0
 21
8.5
 12
0.0
 22
0.0
 32
0.0
 14
0.0
 24
0.0
 34
0.0
 15
11.0
 25
8.5
 35
0.0
146
0.0
 13
0.0
 23
0.0
 33
0.0
 16
1.0
 26
0.0
 36
0.0
 17
0.0
 27
1.0
 37
0.0
 76
     0
330
E
  0
LAYOUT
  5
C
102
{ACAD_XDICTIONARY
360
3C6
102
}
102
{ACAD_REACTORS
330
D
102
}
330
D
100
AcDbPlotSettings
  1

  2
Brother MFC9700
  4
Letter
  6

 40
7.143749713897705
 41
5.027085304260253
 42
7.14373779296875
 43
5.027069091796875
 44
215.8999938964844
 45
279.3999938964844
 46
17.272
 47
0.0
 48
0.0
 49
0.0
140
0.0
141
0.0
142
1.0
143
0.1454883688845959
 70
 11956
 72
     0
 73
     1
 74
     0
  7
acad.ctb
 75
     0
147
6.873401686104671
148
-475.9428163058331
149
1456.585280992969
100
AcDbLayout
  1
Model
 70
     1
 71
     0
 10
0.0
 20
0.0
 11
12.0
 21
9.0
 12
0.0
 22
0.0
 32
0.0
 14
0.0
 24
0.0
 34
0.0
 15
0.0
 25
0.0
 35
0.0
146
0.0
 13
0.0
 23
0.0
 33
0.0
 16
1.0
 26
0.0
 36
0.0
 17
0.0
 27
1.0
 37
0.0
 76
     0
330
2
  0
MLINESTYLE
  5
31
102
{ACAD_REACTORS
330
2D
102
}
330
2D
100
AcDbMlineStyle
  2
STANDARD
 70
     0
  3

 62
   256
 51
90.0
 52
90.0
 71
     2
 49
0.5
 62
   256
  6
BYLAYER
 49
-0.5
 62
   256
  6
BYLAYER
  0
ACDBPLACEHOLDER
  5
7
102
{ACAD_REACTORS
330
8
102
}
330
8
  0
XRECORD
  5
3C5
102
{ACAD_REACTORS
330
3C3
102
}
330
3C3
100
AcDbXrecord
280
     1
340
30
  0
XRECORD
  5
3C4
102
{ACAD_REACTORS
330
3C3
102
}
330
3C3
100
AcDbXrecord
280
     1
340
2F
  0
DICTIONARYVAR
  5
3C0
102
{ACAD_REACTORS
330
3BE
102
}
330
3BE
100
DictionaryVariables
280
     0
  1
1
  0
DICTIONARYVAR
  5
3BF
102
{ACAD_REACTORS
330
3BE
102
}
330
3BE
100
DictionaryVariables
280
     0
  1
1
  0
DICTIONARYVAR
  5
3C1
102
{ACAD_REACTORS
330
3BE
102
}
330
3BE
100
DictionaryVariables
280
     0
  1

  0
XRECORD
  5
17
102
{ACAD_REACTORS
330
16
102
}
330
16
100
AcDbXrecord
280
     1
  1
clg
  1
a-c*
  1
*
  1
*
 70
     0
  1
*
  1
*
  0
XRECORD
  5
18
102
{ACAD_REACTORS
330
16
102
}
330
16
100
AcDbXrecord
280
     1
  1
Roof
  1
a-roo*.*
  1
*
  1
*
 70
     0
  1
*
  1
*
  0
XRECORD
  5
19
102
{ACAD_REACTORS
330
16
102
}
330
16
100
AcDbXrecord
280
     1
  1
sk
  1
*sketch
  1
*
  1
*
 70
     0
  1
*
  1
*
  0
DICTIONARY
  5
3C8
330
13
100
AcDbDictionary
280
     1
281
     1
  3
ACAD_XREC_ROUNDTRIP
360
3C9
  0
DICTIONARY
  5
3C6
330
C
100
AcDbDictionary
280
     1
281
     1
  3
ACAD_XREC_ROUNDTRIP
360
3C7
  0
XRECORD
  5
3C9
102
{ACAD_REACTORS
330
3C8
102
}
330
3C8
100
AcDbXrecord
280
     1
102
SHADEPLOT
 70
     0
102
SHADEPLOTRESLEVEL
 70
     2
102
SHADEPLOTCUSTOMDPI
 70
   300
  0
XRECORD
  5
3C7
102
{ACAD_REACTORS
330
3C6
102
}
330
3C6
100
AcDbXrecord
280
     1
102
SHADEPLOT
 70
     0
102
SHADEPLOTRESLEVEL
 70
     2
102
SHADEPLOTCUSTOMDPI
 70
   300
  0
ENDSEC
  0
EOF
